ISO-10303-21;
HEADER;
FILE_DESCRIPTION (( 'STEP AP214' ),
    '1' );
FILE_NAME ('Micro_BMR-045-2X.STEP',
    '2021-09-03T14:11:59',
    ( '' ),
    ( '' ),
    'SwSTEP 2.0',
    'SolidWorks 2020',
    '' );
FILE_SCHEMA (( 'AUTOMOTIVE_DESIGN' ));
ENDSEC;

DATA;
#1 = ORIENTED_EDGE ( 'NONE', *, *, #200, .T. ) ;
#2 = DIRECTION ( 'NONE',  ( 0.0000000000000000000, 0.0000000000000000000, 1.000000000000000000 ) ) ;
#3 = DIMENSIONAL_EXPONENTS ( 1.000000000000000000, 0.0000000000000000000, 0.0000000000000000000, 0.0000000000000000000, 0.0000000000000000000, 0.0000000000000000000, 0.0000000000000000000 ) ;
#4 = VERTEX_POINT ( 'NONE', #171 ) ;
#5 = DIRECTION ( 'NONE',  ( 1.224646799147353454E-16, 0.0000000000000000000, 1.000000000000000000 ) ) ;
#6 = CONICAL_SURFACE ( 'NONE', #180, 0.04750000000000064587, 0.7853981633974466137 ) ;
#7 = AXIS2_PLACEMENT_3D ( 'NONE', #31, #33, #11 ) ;
#8 = DIRECTION ( 'NONE',  ( 1.224646799147353454E-16, 0.0000000000000000000, 1.000000000000000000 ) ) ;
#9 =( NAMED_UNIT ( * ) PLANE_ANGLE_UNIT ( ) SI_UNIT ( $, .RADIAN. ) );
#10 = CARTESIAN_POINT ( 'NONE',  ( 4.432962726185554212E-17, 0.0000000000000000000, 0.3619788766256487045 ) ) ;
#11 = DIRECTION ( 'NONE',  ( -1.000000000000000000, 0.0000000000000000000, 0.0000000000000000000 ) ) ;
#12 = DIRECTION ( 'NONE',  ( 1.224646799147353207E-16, 1.000000000000000000, -0.0000000000000000000 ) ) ;
#13 = CLOSED_SHELL ( 'NONE', ( #192, #198, #254, #34, #141, #118, #247, #290, #193, #122, #218 ) ) ;
#14 = AXIS2_PLACEMENT_3D ( 'NONE', #136, #211, #161 ) ;
#15 = EDGE_CURVE ( 'NONE', #279, #106, #313, .T. ) ;
#16 = COLOUR_RGB ( '',0.7921568627450980005, 0.8196078431372548767, 0.9333333333333333481 ) ;
#17 =( NAMED_UNIT ( * ) SI_UNIT ( $, .STERADIAN. ) SOLID_ANGLE_UNIT ( ) );
#18 = APPLICATION_PROTOCOL_DEFINITION ( 'draft international standard', 'automotive_design', 1998, #110 ) ;
#19 = SPHERICAL_SURFACE ( 'NONE', #144, 0.02247750000000000095 ) ;
#20 = ORIENTED_EDGE ( 'NONE', *, *, #128, .F. ) ;
#21 = SURFACE_STYLE_USAGE ( .BOTH. , #43 ) ;
#22 = DIRECTION ( 'NONE',  ( -0.0000000000000000000, -0.0000000000000000000, -1.000000000000000000 ) ) ;
#23 = ORIENTED_EDGE ( 'NONE', *, *, #267, .T. ) ;
#24 = DIRECTION ( 'NONE',  ( 0.1736481776669313581, 0.0000000000000000000, 0.9848077530122077983 ) ) ;
#25 = ORIENTED_EDGE ( 'NONE', *, *, #87, .T. ) ;
#26 = FACE_OUTER_BOUND ( 'NONE', #82, .T. ) ;
#27 = ORIENTED_EDGE ( 'NONE', *, *, #245, .F. ) ;
#28 = EDGE_CURVE ( 'NONE', #152, #259, #214, .T. ) ;
#29 = DIRECTION ( 'NONE',  ( -1.000000000000000000, 0.0000000000000000000, 0.0000000000000000000 ) ) ;
#30 = ORIENTED_EDGE ( 'NONE', *, *, #146, .T. ) ;
#31 = CARTESIAN_POINT ( 'NONE',  ( 0.0000000000000000000, 0.0000000000000000000, 1.500000000000000222 ) ) ;
#32 = CARTESIAN_POINT ( 'NONE',  ( 0.0000000000000000000, 0.0000000000000000000, 1.500000000000000222 ) ) ;
#33 = DIRECTION ( 'NONE',  ( 0.0000000000000000000, 0.0000000000000000000, -1.000000000000000000 ) ) ;
#34 = ADVANCED_FACE ( 'NONE', ( #164 ), #6, .T. ) ;
#35 = CARTESIAN_POINT ( 'NONE',  ( 2.752699842783463994E-18, 0.0000000000000000000, 0.02247750000000000095 ) ) ;
#36 = DIRECTION ( 'NONE',  ( -1.224646799147353454E-16, -0.0000000000000000000, -1.000000000000000000 ) ) ;
#37 = PRODUCT_DEFINITION_SHAPE ( 'NONE', 'NONE',  #131 ) ;
#38 = DIRECTION ( 'NONE',  ( 1.000000000000000000, 0.0000000000000000000, 0.0000000000000000000 ) ) ;
#39 = VECTOR ( 'NONE', #24, 39.37007874015748143 ) ;
#40 = MANIFOLD_SOLID_BREP ( 'Fillet1', #13 ) ;
#41 = AXIS2_PLACEMENT_3D ( 'NONE', #76, #316, #276 ) ;
#42 = MECHANICAL_DESIGN_GEOMETRIC_PRESENTATION_REPRESENTATION (  '', ( #256 ), #97 ) ;
#43 = SURFACE_SIDE_STYLE ('',( #99 ) ) ;
#44 = DIRECTION ( 'NONE',  ( 1.000000000000000000, 0.0000000000000000000, 0.0000000000000000000 ) ) ;
#45 = ORIENTED_EDGE ( 'NONE', *, *, #112, .T. ) ;
#46 = AXIS2_PLACEMENT_3D ( 'NONE', #242, #12, #216 ) ;
#47 = CARTESIAN_POINT ( 'NONE',  ( 0.0000000000000000000, 0.0000000000000000000, 1.500000000000000222 ) ) ;
#48 = ORIENTED_EDGE ( 'NONE', *, *, #156, .F. ) ;
#49 = DIRECTION ( 'NONE',  ( -1.224646799147353454E-16, -0.0000000000000000000, -1.000000000000000000 ) ) ;
#50 = ORIENTED_EDGE ( 'NONE', *, *, #145, .T. ) ;
#51 = LINE ( 'NONE', #155, #219 ) ;
#52 = EDGE_CURVE ( 'NONE', #282, #259, #287, .T. ) ;
#53 = ORIENTED_EDGE ( 'NONE', *, *, #70, .T. ) ;
#54 = DIRECTION ( 'NONE',  ( 0.7071067811865462405, 8.659560562354916834E-17, -0.7071067811865486830 ) ) ;
#55 = CIRCLE ( 'NONE', #65, 0.04750000000000064587 ) ;
#56 = PRODUCT_DEFINITION_FORMATION_WITH_SPECIFIED_SOURCE ( 'ANY', '', #86, .NOT_KNOWN. ) ;
#57 = ORIENTED_EDGE ( 'NONE', *, *, #52, .T. ) ;
#58 = CARTESIAN_POINT ( 'NONE',  ( 1.653273178848927175E-17, 0.0000000000000000000, 0.1350000000000000089 ) ) ;
#59 = DIRECTION ( 'NONE',  ( -0.7071067811865462405, 0.0000000000000000000, -0.7071067811865486830 ) ) ;
#60 = DIRECTION ( 'NONE',  ( 1.000000000000000000, 0.0000000000000000000, 0.0000000000000000000 ) ) ;
#61 = UNCERTAINTY_MEASURE_WITH_UNIT (LENGTH_MEASURE( 1.000000000000000082E-05 ), #183, 'distance_accuracy_value', 'NONE');
#62 = LENGTH_MEASURE_WITH_UNIT ( LENGTH_MEASURE( 0.02539999999999999897 ), #237 );
#63 = DIRECTION ( 'NONE',  ( 1.000000000000000000, 0.0000000000000000000, 0.0000000000000000000 ) ) ;
#64 = CIRCLE ( 'NONE', #223, 0.06250000000000002776 ) ;
#65 = AXIS2_PLACEMENT_3D ( 'NONE', #233, #88, #63 ) ;
#66 = CARTESIAN_POINT ( 'NONE',  ( -0.04750000000000064587, 0.0000000000000000000, 1.500000000000000222 ) ) ;
#67 = CARTESIAN_POINT ( 'NONE',  ( 0.0000000000000000000, 0.0000000000000000000, 1.500000000000000222 ) ) ;
#68 = DIRECTION ( 'NONE',  ( 1.000000000000000000, 0.0000000000000000000, 0.0000000000000000000 ) ) ;
#69 = AXIS2_PLACEMENT_3D ( 'NONE', #125, #49, #248 ) ;
#70 = EDGE_CURVE ( 'NONE', #77, #106, #147, .T. ) ;
#71 = AXIS2_PLACEMENT_3D ( 'NONE', #58, #185, #60 ) ;
#72 = DIRECTION ( 'NONE',  ( 1.000000000000000000, 0.0000000000000000000, 0.0000000000000000000 ) ) ;
#73 = DIRECTION ( 'NONE',  ( 1.000000000000000000, 0.0000000000000000000, 0.0000000000000000000 ) ) ;
#74 = EDGE_CURVE ( 'NONE', #4, #204, #315, .T. ) ;
#75 = EDGE_LOOP ( 'NONE', ( #132, #57, #252, #27 ) ) ;
#76 = CARTESIAN_POINT ( 'NONE',  ( 0.0000000000000000000, 0.0000000000000000000, 0.0000000000000000000 ) ) ;
#77 = VERTEX_POINT ( 'NONE', #142 ) ;
#78 = AXIS2_PLACEMENT_3D ( 'NONE', #10, #36, #38 ) ;
#79 = CARTESIAN_POINT ( 'NONE',  ( 2.752699842783463994E-18, 0.0000000000000000000, 0.02247750000000000095 ) ) ;
#80 = ORIENTED_EDGE ( 'NONE', *, *, #261, .F. ) ;
#81 = DIRECTION ( 'NONE',  ( 1.000000000000000000, 0.0000000000000000000, 0.0000000000000000000 ) ) ;
#82 = EDGE_LOOP ( 'NONE', ( #102, #53, #157 ) ) ;
#83 = CARTESIAN_POINT ( 'NONE',  ( 0.02247750000000001830, 0.0000000000000000000, 0.1350000000000000089 ) ) ;
#84 = ORIENTED_EDGE ( 'NONE', *, *, #28, .F. ) ;
#85 = AXIS2_PLACEMENT_3D ( 'NONE', #159, #231, #258 ) ;
#86 = PRODUCT ( 'Micro_BMR-045-2X', 'Micro_BMR-045-2X', '', ( #120 ) ) ;
#87 = EDGE_CURVE ( 'NONE', #77, #279, #96, .T. ) ;
#88 = DIRECTION ( 'NONE',  ( 0.0000000000000000000, 0.0000000000000000000, 1.000000000000000000 ) ) ;
#89 = DIRECTION ( 'NONE',  ( -1.000000000000000000, 0.0000000000000000000, 0.0000000000000000000 ) ) ;
#90 =( NAMED_UNIT ( * ) SI_UNIT ( $, .STERADIAN. ) SOLID_ANGLE_UNIT ( ) );
#91 = UNCERTAINTY_MEASURE_WITH_UNIT (LENGTH_MEASURE( 1.000000000000000082E-05 ), #246, 'distance_accuracy_value', 'NONE');
#92 = PRESENTATION_STYLE_ASSIGNMENT (( #284 ) ) ;
#93 = CARTESIAN_POINT ( 'NONE',  ( -0.06250000000000002776, 0.0000000000000000000, 1.485000000000000764 ) ) ;
#94 = AXIS2_PLACEMENT_3D ( 'NONE', #222, #270, #44 ) ;
#95 = CARTESIAN_POINT ( 'NONE',  ( 0.02247750000000000442, 2.752699842783463224E-18, 0.02247749999999999748 ) ) ;
#96 = CIRCLE ( 'NONE', #46, 0.02247750000000000095 ) ;
#97 =( GEOMETRIC_REPRESENTATION_CONTEXT ( 3 ) GLOBAL_UNCERTAINTY_ASSIGNED_CONTEXT ( ( #91 ) ) GLOBAL_UNIT_ASSIGNED_CONTEXT ( ( #246, #121, #17 ) ) REPRESENTATION_CONTEXT ( 'NONE', 'WORKASPACE' ) );
#98 = FILL_AREA_STYLE_COLOUR ( '', #268 ) ;
#99 = SURFACE_STYLE_FILL_AREA ( #291 ) ;
#100 = LINE ( 'NONE', #130, #264 ) ;
#101 = CARTESIAN_POINT ( 'NONE',  ( 0.04750000000000064587, 5.817072295950006528E-18, 1.500000000000000222 ) ) ;
#102 = ORIENTED_EDGE ( 'NONE', *, *, #87, .F. ) ;
#103 = FACE_OUTER_BOUND ( 'NONE', #207, .T. ) ;
#104 = ORIENTED_EDGE ( 'NONE', *, *, #312, .T. ) ;
#105 = DIRECTION ( 'NONE',  ( 1.224646799147353454E-16, 0.0000000000000000000, 1.000000000000000000 ) ) ;
#106 = VERTEX_POINT ( 'NONE', #95 ) ;
#107 = SPHERICAL_SURFACE ( 'NONE', #190, 0.02247750000000000095 ) ;
#108 = ORIENTED_EDGE ( 'NONE', *, *, #261, .T. ) ;
#109 = ORIENTED_EDGE ( 'NONE', *, *, #112, .F. ) ;
#110 = APPLICATION_CONTEXT ( 'automotive_design' ) ;
#111 = DIRECTION ( 'NONE',  ( -1.224646799147353454E-16, -0.0000000000000000000, -1.000000000000000000 ) ) ;
#112 = EDGE_CURVE ( 'NONE', #324, #225, #236, .T. ) ;
#113 =( CONVERSION_BASED_UNIT ( 'INCH', #62 ) LENGTH_UNIT ( ) NAMED_UNIT ( #115 ) );
#114 = DIRECTION ( 'NONE',  ( 0.0000000000000000000, 0.0000000000000000000, -1.000000000000000000 ) ) ;
#115 = DIMENSIONAL_EXPONENTS ( 1.000000000000000000, 0.0000000000000000000, 0.0000000000000000000, 0.0000000000000000000, 0.0000000000000000000, 0.0000000000000000000, 0.0000000000000000000 ) ;
#116 = CIRCLE ( 'NONE', #292, 0.02247750000000000095 ) ;
#117 = ADVANCED_BREP_SHAPE_REPRESENTATION ( 'Micro_BMR-045-2X', ( #40, #169 ), #238 ) ;
#118 = ADVANCED_FACE ( 'NONE', ( #151 ), #294, .T. ) ;
#119 = VECTOR ( 'NONE', #320, 39.37007874015748143 ) ;
#120 = PRODUCT_CONTEXT ( 'NONE', #110, 'mechanical' ) ;
#121 =( NAMED_UNIT ( * ) PLANE_ANGLE_UNIT ( ) SI_UNIT ( $, .RADIAN. ) );
#122 = ADVANCED_FACE ( 'NONE', ( #228 ), #251, .T. ) ;
#123 = STYLED_ITEM ( 'NONE', ( #92 ), #40 ) ;
#124 = CARTESIAN_POINT ( 'NONE',  ( 0.0000000000000000000, 0.0000000000000000000, 0.0000000000000000000 ) ) ;
#125 = CARTESIAN_POINT ( 'NONE',  ( 0.0000000000000000000, 0.0000000000000000000, 0.0000000000000000000 ) ) ;
#126 = ORIENTED_EDGE ( 'NONE', *, *, #293, .F. ) ;
#127 = DIRECTION ( 'NONE',  ( -0.0000000000000000000, -0.0000000000000000000, -1.000000000000000000 ) ) ;
#128 = EDGE_CURVE ( 'NONE', #304, #282, #224, .T. ) ;
#129 = ORIENTED_EDGE ( 'NONE', *, *, #200, .F. ) ;
#130 = CARTESIAN_POINT ( 'NONE',  ( 0.02247750000000000095, 2.752699842783463224E-18, -2.752699842783463994E-18 ) ) ;
#131 = PRODUCT_DEFINITION ( 'UNKNOWN', '', #56, #286 ) ;
#132 = ORIENTED_EDGE ( 'NONE', *, *, #177, .F. ) ;
#133 = AXIS2_PLACEMENT_3D ( 'NONE', #35, #210, #114 ) ;
#134 = PRESENTATION_LAYER_ASSIGNMENT (  '', '', ( #256 ) ) ;
#135 = EDGE_LOOP ( 'NONE', ( #48, #154, #104, #271 ) ) ;
#136 = CARTESIAN_POINT ( 'NONE',  ( 0.0000000000000000000, 0.0000000000000000000, 1.500000000000000222 ) ) ;
#137 = EDGE_LOOP ( 'NONE', ( #20, #126, #319, #175 ) ) ;
#138 = LINE ( 'NONE', #241, #244 ) ;
#139 = DIRECTION ( 'NONE',  ( -1.000000000000000000, 0.0000000000000000000, 1.899015677944794124E-16 ) ) ;
#140 = AXIS2_PLACEMENT_3D ( 'NONE', #191, #166, #143 ) ;
#141 = ADVANCED_FACE ( 'NONE', ( #103 ), #153, .T. ) ;
#142 = CARTESIAN_POINT ( 'NONE',  ( 4.129049764175195028E-18, 0.0000000000000000000, 0.0000000000000000000 ) ) ;
#143 = DIRECTION ( 'NONE',  ( -1.000000000000000000, 0.0000000000000000000, 0.0000000000000000000 ) ) ;
#144 = AXIS2_PLACEMENT_3D ( 'NONE', #79, #296, #278 ) ;
#145 = EDGE_CURVE ( 'NONE', #225, #204, #199, .T. ) ;
#146 = EDGE_CURVE ( 'NONE', #324, #4, #51, .T. ) ;
#147 = CIRCLE ( 'NONE', #133, 0.02247750000000000095 ) ;
#148 = LENGTH_MEASURE_WITH_UNIT ( LENGTH_MEASURE( 0.02539999999999999897 ), #194 );
#149 = FACE_OUTER_BOUND ( 'NONE', #206, .T. ) ;
#150 = ORIENTED_EDGE ( 'NONE', *, *, #128, .T. ) ;
#151 = FACE_OUTER_BOUND ( 'NONE', #75, .T. ) ;
#152 = VERTEX_POINT ( 'NONE', #205 ) ;
#153 = CYLINDRICAL_SURFACE ( 'NONE', #167, 0.06250000000000002776 ) ;
#154 = ORIENTED_EDGE ( 'NONE', *, *, #220, .T. ) ;
#155 = CARTESIAN_POINT ( 'NONE',  ( -0.02247749999999998360, 2.752699842783463224E-18, 0.1350000000000000089 ) ) ;
#156 = EDGE_CURVE ( 'NONE', #225, #106, #100, .T. ) ;
#157 = ORIENTED_EDGE ( 'NONE', *, *, #15, .F. ) ;
#158 = CIRCLE ( 'NONE', #14, 0.04750000000000064587 ) ;
#159 = CARTESIAN_POINT ( 'NONE',  ( 1.653273178848927175E-17, 0.0000000000000000000, 0.1350000000000000089 ) ) ;
#160 = ORIENTED_EDGE ( 'NONE', *, *, #146, .F. ) ;
#161 = DIRECTION ( 'NONE',  ( 1.000000000000000000, 0.0000000000000000000, 0.0000000000000000000 ) ) ;
#162 = APPLICATION_CONTEXT ( 'automotive_design' ) ;
#163 = DIRECTION ( 'NONE',  ( 0.0000000000000000000, 0.0000000000000000000, -1.000000000000000000 ) ) ;
#164 = FACE_OUTER_BOUND ( 'NONE', #277, .T. ) ;
#165 = SURFACE_STYLE_FILL_AREA ( #212 ) ;
#166 = DIRECTION ( 'NONE',  ( -1.224646799147353454E-16, -0.0000000000000000000, -1.000000000000000000 ) ) ;
#167 = AXIS2_PLACEMENT_3D ( 'NONE', #318, #127, #29 ) ;
#168 = AXIS2_PLACEMENT_3D ( 'NONE', #67, #2, #263 ) ;
#169 = AXIS2_PLACEMENT_3D ( 'NONE', #124, #272, #72 ) ;
#170 = LINE ( 'NONE', #301, #119 ) ;
#171 = CARTESIAN_POINT ( 'NONE',  ( -0.06249999999999997918, 0.0000000000000000000, 0.3619788766256487045 ) ) ;
#172 = DIRECTION ( 'NONE',  ( 0.0000000000000000000, 0.0000000000000000000, -1.000000000000000000 ) ) ;
#173 = ORIENTED_EDGE ( 'NONE', *, *, #156, .T. ) ;
#174 = FACE_OUTER_BOUND ( 'NONE', #250, .T. ) ;
#175 = ORIENTED_EDGE ( 'NONE', *, *, #52, .F. ) ;
#176 = FACE_OUTER_BOUND ( 'NONE', #201, .T. ) ;
#177 = EDGE_CURVE ( 'NONE', #282, #204, #170, .T. ) ;
#178 = ORIENTED_EDGE ( 'NONE', *, *, #74, .T. ) ;
#179 = DIRECTION ( 'NONE',  ( 0.0000000000000000000, 1.000000000000000000, 0.0000000000000000000 ) ) ;
#180 = AXIS2_PLACEMENT_3D ( 'NONE', #32, #163, #89 ) ;
#181 = ORIENTED_EDGE ( 'NONE', *, *, #74, .F. ) ;
#182 = MECHANICAL_DESIGN_GEOMETRIC_PRESENTATION_REPRESENTATION (  '', ( #123 ), #203 ) ;
#183 =( CONVERSION_BASED_UNIT ( 'INCH', #188 ) LENGTH_UNIT ( ) NAMED_UNIT ( #306 ) );
#184 = CARTESIAN_POINT ( 'NONE',  ( 2.752699842783463994E-18, 0.0000000000000000000, 0.02247750000000000095 ) ) ;
#185 = DIRECTION ( 'NONE',  ( 1.224646799147353454E-16, 0.0000000000000000000, 1.000000000000000000 ) ) ;
#186 = UNCERTAINTY_MEASURE_WITH_UNIT (LENGTH_MEASURE( 1.000000000000000082E-05 ), #113, 'distance_accuracy_value', 'NONE');
#187 = FILL_AREA_STYLE_COLOUR ( '', #16 ) ;
#188 = LENGTH_MEASURE_WITH_UNIT ( LENGTH_MEASURE( 0.02539999999999999897 ), #283 );
#189 = CARTESIAN_POINT ( 'NONE',  ( 0.04750000000000064587, 6.735557395310483192E-18, 1.500000000000000222 ) ) ;
#190 = AXIS2_PLACEMENT_3D ( 'NONE', #303, #179, #280 ) ;
#191 = CARTESIAN_POINT ( 'NONE',  ( 1.653273178848927175E-17, 0.0000000000000000000, 0.1350000000000000089 ) ) ;
#192 = ADVANCED_FACE ( 'NONE', ( #174 ), #19, .T. ) ;
#193 = ADVANCED_FACE ( 'NONE', ( #322 ), #195, .T. ) ;
#194 =( LENGTH_UNIT ( ) NAMED_UNIT ( * ) SI_UNIT ( $, .METRE. ) );
#195 = CONICAL_SURFACE ( 'NONE', #311, 0.02247750000000000095, 0.1745329251994338637 ) ;
#196 = PRESENTATION_STYLE_ASSIGNMENT (( #21 ) ) ;
#197 = CARTESIAN_POINT ( 'NONE',  ( 0.02247750000000001830, 0.0000000000000000000, 0.1350000000000000089 ) ) ;
#198 = ADVANCED_FACE ( 'NONE', ( #176 ), #202, .T. ) ;
#199 = LINE ( 'NONE', #83, #39 ) ;
#200 = EDGE_CURVE ( 'NONE', #259, #282, #64, .T. ) ;
#201 = EDGE_LOOP ( 'NONE', ( #45, #173, #108, #295 ) ) ;
#202 = CYLINDRICAL_SURFACE ( 'NONE', #41, 0.02247750000000000095 ) ;
#203 =( GEOMETRIC_REPRESENTATION_CONTEXT ( 3 ) GLOBAL_UNCERTAINTY_ASSIGNED_CONTEXT ( ( #186 ) ) GLOBAL_UNIT_ASSIGNED_CONTEXT ( ( #113, #307, #289 ) ) REPRESENTATION_CONTEXT ( 'NONE', 'WORKASPACE' ) );
#204 = VERTEX_POINT ( 'NONE', #273 ) ;
#205 = CARTESIAN_POINT ( 'NONE',  ( -0.04750000000000064587, 0.0000000000000000000, 1.500000000000000222 ) ) ;
#206 = EDGE_LOOP ( 'NONE', ( #275, #23 ) ) ;
#207 = EDGE_LOOP ( 'NONE', ( #1, #234, #181, #227 ) ) ;
#208 = FACE_OUTER_BOUND ( 'NONE', #230, .T. ) ;
#209 = CIRCLE ( 'NONE', #94, 0.06250000000000002776 ) ;
#210 = DIRECTION ( 'NONE',  ( 0.0000000000000000000, -1.000000000000000000, 0.0000000000000000000 ) ) ;
#211 = DIRECTION ( 'NONE',  ( 0.0000000000000000000, 0.0000000000000000000, 1.000000000000000000 ) ) ;
#212 = FILL_AREA_STYLE ('',( #187 ) ) ;
#213 = LINE ( 'NONE', #235, #266 ) ;
#214 = LINE ( 'NONE', #66, #274 ) ;
#215 = CARTESIAN_POINT ( 'NONE',  ( -0.02247749999999999748, 0.0000000000000000000, 0.02247750000000000442 ) ) ;
#216 = DIRECTION ( 'NONE',  ( -1.000000000000000000, 1.224646799147353207E-16, 0.0000000000000000000 ) ) ;
#217 = CONICAL_SURFACE ( 'NONE', #71, 0.02247750000000000095, 0.1745329251994338637 ) ;
#218 = ADVANCED_FACE ( 'NONE', ( #26 ), #107, .T. ) ;
#219 = VECTOR ( 'NONE', #226, 39.37007874015747433 ) ;
#220 = EDGE_CURVE ( 'NONE', #225, #324, #229, .T. ) ;
#221 = APPLICATION_PROTOCOL_DEFINITION ( 'draft international standard', 'automotive_design', 1998, #162 ) ;
#222 = CARTESIAN_POINT ( 'NONE',  ( 4.432962726185554212E-17, 0.0000000000000000000, 0.3619788766256487045 ) ) ;
#223 = AXIS2_PLACEMENT_3D ( 'NONE', #253, #172, #73 ) ;
#224 = LINE ( 'NONE', #101, #323 ) ;
#225 = VERTEX_POINT ( 'NONE', #197 ) ;
#226 = DIRECTION ( 'NONE',  ( -0.1736481776669311639, 2.126576849575783008E-17, 0.9848077530122080203 ) ) ;
#227 = ORIENTED_EDGE ( 'NONE', *, *, #269, .F. ) ;
#228 = FACE_OUTER_BOUND ( 'NONE', #135, .T. ) ;
#229 = CIRCLE ( 'NONE', #85, 0.02247750000000000095 ) ;
#230 = EDGE_LOOP ( 'NONE', ( #109, #30, #178, #257 ) ) ;
#231 = DIRECTION ( 'NONE',  ( -1.224646799147353454E-16, -0.0000000000000000000, -1.000000000000000000 ) ) ;
#232 = ORIENTED_EDGE ( 'NONE', *, *, #70, .F. ) ;
#233 = CARTESIAN_POINT ( 'NONE',  ( 0.0000000000000000000, 0.0000000000000000000, 1.500000000000000222 ) ) ;
#234 = ORIENTED_EDGE ( 'NONE', *, *, #177, .T. ) ;
#235 = CARTESIAN_POINT ( 'NONE',  ( -0.06250000000000002776, 0.0000000000000000000, 1.500000000000000222 ) ) ;
#236 = CIRCLE ( 'NONE', #140, 0.02247750000000000095 ) ;
#237 =( LENGTH_UNIT ( ) NAMED_UNIT ( * ) SI_UNIT ( $, .METRE. ) );
#238 =( GEOMETRIC_REPRESENTATION_CONTEXT ( 3 ) GLOBAL_UNCERTAINTY_ASSIGNED_CONTEXT ( ( #61 ) ) GLOBAL_UNIT_ASSIGNED_CONTEXT ( ( #183, #9, #90 ) ) REPRESENTATION_CONTEXT ( 'NONE', 'WORKASPACE' ) );
#239 = PLANE ( 'NONE',  #168 ) ;
#240 = CARTESIAN_POINT ( 'NONE',  ( 0.0000000000000000000, 0.0000000000000000000, 1.485000000000000764 ) ) ;
#241 = CARTESIAN_POINT ( 'NONE',  ( -0.02247750000000000095, 0.0000000000000000000, 2.752699842783463994E-18 ) ) ;
#242 = CARTESIAN_POINT ( 'NONE',  ( 2.752699842783463994E-18, 0.0000000000000000000, 0.02247750000000000095 ) ) ;
#243 = CONICAL_SURFACE ( 'NONE', #7, 0.04750000000000064587, 0.7853981633974466137 ) ;
#244 = VECTOR ( 'NONE', #111, 39.37007874015748143 ) ;
#245 = EDGE_CURVE ( 'NONE', #204, #4, #209, .T. ) ;
#246 =( CONVERSION_BASED_UNIT ( 'INCH', #148 ) LENGTH_UNIT ( ) NAMED_UNIT ( #3 ) );
#247 = ADVANCED_FACE ( 'NONE', ( #149 ), #239, .T. ) ;
#248 = DIRECTION ( 'NONE',  ( -1.000000000000000000, 0.0000000000000000000, 1.224646799147353454E-16 ) ) ;
#249 = PRESENTATION_LAYER_ASSIGNMENT (  '', '', ( #123 ) ) ;
#250 = EDGE_LOOP ( 'NONE', ( #232, #25, #80 ) ) ;
#251 = CYLINDRICAL_SURFACE ( 'NONE', #69, 0.02247750000000000095 ) ;
#252 = ORIENTED_EDGE ( 'NONE', *, *, #269, .T. ) ;
#253 = CARTESIAN_POINT ( 'NONE',  ( 0.0000000000000000000, 0.0000000000000000000, 1.485000000000000764 ) ) ;
#254 = ADVANCED_FACE ( 'NONE', ( #208 ), #217, .T. ) ;
#255 = CARTESIAN_POINT ( 'NONE',  ( 1.653273178848927175E-17, 0.0000000000000000000, 0.1350000000000000089 ) ) ;
#256 = STYLED_ITEM ( 'NONE', ( #196 ), #117 ) ;
#257 = ORIENTED_EDGE ( 'NONE', *, *, #145, .F. ) ;
#258 = DIRECTION ( 'NONE',  ( -1.000000000000000000, 0.0000000000000000000, 0.0000000000000000000 ) ) ;
#259 = VERTEX_POINT ( 'NONE', #93 ) ;
#260 = CARTESIAN_POINT ( 'NONE',  ( 2.752699842783463994E-18, 0.0000000000000000000, 0.02247750000000000095 ) ) ;
#261 = EDGE_CURVE ( 'NONE', #106, #279, #116, .T. ) ;
#262 = SURFACE_SIDE_STYLE ('',( #165 ) ) ;
#263 = DIRECTION ( 'NONE',  ( 1.000000000000000000, 0.0000000000000000000, -0.0000000000000000000 ) ) ;
#264 = VECTOR ( 'NONE', #325, 39.37007874015748143 ) ;
#265 = PRODUCT_RELATED_PRODUCT_CATEGORY ( 'part', '', ( #86 ) ) ;
#266 = VECTOR ( 'NONE', #285, 39.37007874015748143 ) ;
#267 = EDGE_CURVE ( 'NONE', #304, #152, #158, .T. ) ;
#268 = COLOUR_RGB ( '',0.7921568627450980005, 0.8196078431372548767, 0.9333333333333333481 ) ;
#269 = EDGE_CURVE ( 'NONE', #259, #4, #213, .T. ) ;
#270 = DIRECTION ( 'NONE',  ( -1.224646799147353454E-16, -0.0000000000000000000, -1.000000000000000000 ) ) ;
#271 = ORIENTED_EDGE ( 'NONE', *, *, #15, .T. ) ;
#272 = DIRECTION ( 'NONE',  ( 0.0000000000000000000, 0.0000000000000000000, 1.000000000000000000 ) ) ;
#273 = CARTESIAN_POINT ( 'NONE',  ( 0.06250000000000006939, 7.654042494670963708E-18, 0.3619788766256487045 ) ) ;
#274 = VECTOR ( 'NONE', #59, 39.37007874015748854 ) ;
#275 = ORIENTED_EDGE ( 'NONE', *, *, #293, .T. ) ;
#276 = DIRECTION ( 'NONE',  ( -1.000000000000000000, 0.0000000000000000000, 1.224646799147353454E-16 ) ) ;
#277 = EDGE_LOOP ( 'NONE', ( #297, #150, #129, #84 ) ) ;
#278 = DIRECTION ( 'NONE',  ( 1.000000000000000000, 0.0000000000000000000, 0.0000000000000000000 ) ) ;
#279 = VERTEX_POINT ( 'NONE', #215 ) ;
#280 = DIRECTION ( 'NONE',  ( 1.000000000000000000, 0.0000000000000000000, 0.0000000000000000000 ) ) ;
#281 = AXIS2_PLACEMENT_3D ( 'NONE', #240, #309, #68 ) ;
#282 = VERTEX_POINT ( 'NONE', #308 ) ;
#283 =( LENGTH_UNIT ( ) NAMED_UNIT ( * ) SI_UNIT ( $, .METRE. ) );
#284 = SURFACE_STYLE_USAGE ( .BOTH. , #262 ) ;
#285 = DIRECTION ( 'NONE',  ( -0.0000000000000000000, -0.0000000000000000000, -1.000000000000000000 ) ) ;
#286 = PRODUCT_DEFINITION_CONTEXT ( 'detailed design', #162, 'design' ) ;
#287 = CIRCLE ( 'NONE', #281, 0.06250000000000002776 ) ;
#288 = CARTESIAN_POINT ( 'NONE',  ( -0.02247749999999998360, 5.203371168727211732E-18, 0.1350000000000000089 ) ) ;
#289 =( NAMED_UNIT ( * ) SI_UNIT ( $, .STERADIAN. ) SOLID_ANGLE_UNIT ( ) );
#290 = ADVANCED_FACE ( 'NONE', ( #310 ), #243, .T. ) ;
#291 = FILL_AREA_STYLE ('',( #98 ) ) ;
#292 = AXIS2_PLACEMENT_3D ( 'NONE', #260, #5, #305 ) ;
#293 = EDGE_CURVE ( 'NONE', #152, #304, #55, .T. ) ;
#294 = CYLINDRICAL_SURFACE ( 'NONE', #299, 0.06250000000000002776 ) ;
#295 = ORIENTED_EDGE ( 'NONE', *, *, #312, .F. ) ;
#296 = DIRECTION ( 'NONE',  ( 0.0000000000000000000, 1.000000000000000000, 0.0000000000000000000 ) ) ;
#297 = ORIENTED_EDGE ( 'NONE', *, *, #267, .F. ) ;
#298 = DIRECTION ( 'NONE',  ( -1.000000000000000000, 0.0000000000000000000, 0.0000000000000000000 ) ) ;
#299 = AXIS2_PLACEMENT_3D ( 'NONE', #47, #22, #298 ) ;
#300 = ORIENTED_EDGE ( 'NONE', *, *, #220, .F. ) ;
#301 = CARTESIAN_POINT ( 'NONE',  ( 0.06250000000000002776, 7.654042494670959086E-18, 1.500000000000000222 ) ) ;
#302 = ORIENTED_EDGE ( 'NONE', *, *, #245, .T. ) ;
#303 = CARTESIAN_POINT ( 'NONE',  ( 2.752699842783463994E-18, 0.0000000000000000000, 0.02247750000000000095 ) ) ;
#304 = VERTEX_POINT ( 'NONE', #189 ) ;
#305 = DIRECTION ( 'NONE',  ( -1.000000000000000000, 0.0000000000000000000, 1.899015677944794124E-16 ) ) ;
#306 = DIMENSIONAL_EXPONENTS ( 1.000000000000000000, 0.0000000000000000000, 0.0000000000000000000, 0.0000000000000000000, 0.0000000000000000000, 0.0000000000000000000, 0.0000000000000000000 ) ;
#307 =( NAMED_UNIT ( * ) PLANE_ANGLE_UNIT ( ) SI_UNIT ( $, .RADIAN. ) );
#308 = CARTESIAN_POINT ( 'NONE',  ( 0.06250000000000002776, 7.654042494670959086E-18, 1.485000000000000764 ) ) ;
#309 = DIRECTION ( 'NONE',  ( 0.0000000000000000000, 0.0000000000000000000, -1.000000000000000000 ) ) ;
#310 = FACE_OUTER_BOUND ( 'NONE', #137, .T. ) ;
#311 = AXIS2_PLACEMENT_3D ( 'NONE', #255, #105, #81 ) ;
#312 = EDGE_CURVE ( 'NONE', #324, #279, #138, .T. ) ;
#313 = CIRCLE ( 'NONE', #314, 0.02247750000000000095 ) ;
#314 = AXIS2_PLACEMENT_3D ( 'NONE', #184, #8, #139 ) ;
#315 = CIRCLE ( 'NONE', #78, 0.06250000000000002776 ) ;
#316 = DIRECTION ( 'NONE',  ( -1.224646799147353454E-16, -0.0000000000000000000, -1.000000000000000000 ) ) ;
#317 = SHAPE_DEFINITION_REPRESENTATION ( #37, #117 ) ;
#318 = CARTESIAN_POINT ( 'NONE',  ( 0.0000000000000000000, 0.0000000000000000000, 1.500000000000000222 ) ) ;
#319 = ORIENTED_EDGE ( 'NONE', *, *, #28, .T. ) ;
#320 = DIRECTION ( 'NONE',  ( -0.0000000000000000000, -0.0000000000000000000, -1.000000000000000000 ) ) ;
#321 = EDGE_LOOP ( 'NONE', ( #160, #300, #50, #302 ) ) ;
#322 = FACE_OUTER_BOUND ( 'NONE', #321, .T. ) ;
#323 = VECTOR ( 'NONE', #54, 39.37007874015748854 ) ;
#324 = VERTEX_POINT ( 'NONE', #288 ) ;
#325 = DIRECTION ( 'NONE',  ( -1.224646799147353454E-16, -0.0000000000000000000, -1.000000000000000000 ) ) ;
ENDSEC;
END-ISO-10303-21;
