ISO-10303-21;
HEADER;
FILE_DESCRIPTION (( 'STEP AP214' ),
    '1' );
FILE_NAME ('Micro_SEM-250-02X.STEP',
    '2021-09-02T02:29:54',
    ( '' ),
    ( '' ),
    'SwSTEP 2.0',
    'SolidWorks 2020',
    '' );
FILE_SCHEMA (( 'AUTOMOTIVE_DESIGN' ));
ENDSEC;

DATA;
#1 = DIRECTION ( 'NONE',  ( -1.224646799147353207E-16, -0.0000000000000000000, -1.000000000000000000 ) ) ;
#2 = CARTESIAN_POINT ( 'NONE',  ( -0.1248749999999999444, 1.529277690435257475E-17, 0.5000000000000000000 ) ) ;
#3 = DIRECTION ( 'NONE',  ( 1.000000000000000000, 0.0000000000000000000, 0.0000000000000000000 ) ) ;
#4 = DIRECTION ( 'NONE',  ( 1.000000000000000000, 0.0000000000000000000, 0.0000000000000000000 ) ) ;
#5 = CIRCLE ( 'NONE', #199, 0.1248749999999999999 ) ;
#6 = DIRECTION ( 'NONE',  ( -0.0000000000000000000, -0.0000000000000000000, -1.000000000000000000 ) ) ;
#7 = DIRECTION ( 'NONE',  ( -1.224646799147353207E-16, -0.0000000000000000000, -1.000000000000000000 ) ) ;
#8 =( NAMED_UNIT ( * ) PLANE_ANGLE_UNIT ( ) SI_UNIT ( $, .RADIAN. ) );
#9 = DIRECTION ( 'NONE',  ( -1.224646799147353207E-16, -0.0000000000000000000, -1.000000000000000000 ) ) ;
#10 = PRODUCT_DEFINITION_CONTEXT ( 'detailed design', #273, 'design' ) ;
#11 = DIRECTION ( 'NONE',  ( -1.224646799147353207E-16, -0.0000000000000000000, -1.000000000000000000 ) ) ;
#12 = ADVANCED_FACE ( 'NONE', ( #202 ), #24, .T. ) ;
#13 = VECTOR ( 'NONE', #194, 39.37007874015747433 ) ;
#14 = DIMENSIONAL_EXPONENTS ( 1.000000000000000000, 0.0000000000000000000, 0.0000000000000000000, 0.0000000000000000000, 0.0000000000000000000, 0.0000000000000000000, 0.0000000000000000000 ) ;
#15 = CARTESIAN_POINT ( 'NONE',  ( 6.123233995736766036E-17, 0.0000000000000000000, 0.5000000000000000000 ) ) ;
#16 =( GEOMETRIC_REPRESENTATION_CONTEXT ( 3 ) GLOBAL_UNCERTAINTY_ASSIGNED_CONTEXT ( ( #100 ) ) GLOBAL_UNIT_ASSIGNED_CONTEXT ( ( #232, #8, #246 ) ) REPRESENTATION_CONTEXT ( 'NONE', 'WORKASPACE' ) );
#17 = ORIENTED_EDGE ( 'NONE', *, *, #45, .F. ) ;
#18 = ORIENTED_EDGE ( 'NONE', *, *, #93, .F. ) ;
#19 = ORIENTED_EDGE ( 'NONE', *, *, #225, .F. ) ;
#20 = CIRCLE ( 'NONE', #188, 0.1250000000000000000 ) ;
#21 = EDGE_LOOP ( 'NONE', ( #94, #298 ) ) ;
#22 = MANIFOLD_SOLID_BREP ( 'Cut-Revolve1', #128 ) ;
#23 = AXIS2_PLACEMENT_3D ( 'NONE', #28, #9, #125 ) ;
#24 = CYLINDRICAL_SURFACE ( 'NONE', #111, 0.1250000000000000000 ) ;
#25 = DIRECTION ( 'NONE',  ( -1.000000000000000000, 0.0000000000000000000, 1.224646799147353454E-16 ) ) ;
#26 = CARTESIAN_POINT ( 'NONE',  ( 0.0000000000000000000, 0.0000000000000000000, 2.000000000000000000 ) ) ;
#27 = EDGE_CURVE ( 'NONE', #181, #113, #33, .T. ) ;
#28 = CARTESIAN_POINT ( 'NONE',  ( 1.872825028598994811E-33, 0.0000000000000000000, 1.529277690435257475E-17 ) ) ;
#29 = DIRECTION ( 'NONE',  ( -1.224646799147353207E-16, -0.0000000000000000000, -1.000000000000000000 ) ) ;
#30 = SURFACE_STYLE_USAGE ( .BOTH. , #69 ) ;
#31 = CYLINDRICAL_SURFACE ( 'NONE', #212, 0.1248749999999999999 ) ;
#32 =( NAMED_UNIT ( * ) SI_UNIT ( $, .STERADIAN. ) SOLID_ANGLE_UNIT ( ) );
#33 = CIRCLE ( 'NONE', #67, 0.1099999999999996397 ) ;
#34 = EDGE_CURVE ( 'NONE', #113, #70, #116, .T. ) ;
#35 = DIRECTION ( 'NONE',  ( 0.0000000000000000000, 0.0000000000000000000, -1.000000000000000000 ) ) ;
#36 = ADVANCED_BREP_SHAPE_REPRESENTATION ( 'Micro_SEM-250-02X', ( #22, #165 ), #132 ) ;
#37 = CARTESIAN_POINT ( 'NONE',  ( 0.1250000000000000000, 1.530808498934191509E-17, 2.000000000000000000 ) ) ;
#38 = EDGE_LOOP ( 'NONE', ( #293, #265, #151, #75 ) ) ;
#39 = DIRECTION ( 'NONE',  ( 1.000000000000000000, 0.0000000000000000000, 0.0000000000000000000 ) ) ;
#40 = CIRCLE ( 'NONE', #237, 0.1250000000000000000 ) ;
#41 =( GEOMETRIC_REPRESENTATION_CONTEXT ( 3 ) GLOBAL_UNCERTAINTY_ASSIGNED_CONTEXT ( ( #135 ) ) GLOBAL_UNIT_ASSIGNED_CONTEXT ( ( #231, #131, #32 ) ) REPRESENTATION_CONTEXT ( 'NONE', 'WORKASPACE' ) );
#42 = ORIENTED_EDGE ( 'NONE', *, *, #260, .T. ) ;
#43 = DIRECTION ( 'NONE',  ( 0.0000000000000000000, 0.0000000000000000000, 1.000000000000000000 ) ) ;
#44 = DIRECTION ( 'NONE',  ( -0.7071067811865434649, 0.0000000000000000000, -0.7071067811865515695 ) ) ;
#45 = EDGE_CURVE ( 'NONE', #143, #241, #118, .T. ) ;
#46 = VECTOR ( 'NONE', #149, 39.37007874015748143 ) ;
#47 = ORIENTED_EDGE ( 'NONE', *, *, #115, .T. ) ;
#48 = ORIENTED_EDGE ( 'NONE', *, *, #60, .T. ) ;
#49 = VECTOR ( 'NONE', #7, 39.37007874015748143 ) ;
#50 = ORIENTED_EDGE ( 'NONE', *, *, #193, .F. ) ;
#51 =( LENGTH_UNIT ( ) NAMED_UNIT ( * ) SI_UNIT ( $, .METRE. ) );
#52 = ADVANCED_FACE ( 'NONE', ( #233 ), #105, .F. ) ;
#53 = DIRECTION ( 'NONE',  ( -1.000000000000000000, 0.0000000000000000000, 0.0000000000000000000 ) ) ;
#54 = AXIS2_PLACEMENT_3D ( 'NONE', #216, #126, #61 ) ;
#55 = PRODUCT_DEFINITION_FORMATION_WITH_SPECIFIED_SOURCE ( 'ANY', '', #106, .NOT_KNOWN. ) ;
#56 = CARTESIAN_POINT ( 'NONE',  ( -0.1099999999999996397, 0.0000000000000000000, 2.000000000000000000 ) ) ;
#57 = PLANE ( 'NONE',  #54 ) ;
#58 = DIRECTION ( 'NONE',  ( 0.0000000000000000000, 0.0000000000000000000, 1.000000000000000000 ) ) ;
#59 = DIRECTION ( 'NONE',  ( -1.000000000000000000, 0.0000000000000000000, 0.0000000000000000000 ) ) ;
#60 = EDGE_CURVE ( 'NONE', #113, #181, #256, .T. ) ;
#61 = DIRECTION ( 'NONE',  ( 1.000000000000000000, 0.0000000000000000000, -0.0000000000000000000 ) ) ;
#62 = STYLED_ITEM ( 'NONE', ( #263 ), #22 ) ;
#63 = DIRECTION ( 'NONE',  ( 0.0000000000000000000, 0.0000000000000000000, -1.000000000000000000 ) ) ;
#64 = DIMENSIONAL_EXPONENTS ( 1.000000000000000000, 0.0000000000000000000, 0.0000000000000000000, 0.0000000000000000000, 0.0000000000000000000, 0.0000000000000000000, 0.0000000000000000000 ) ;
#65 = UNCERTAINTY_MEASURE_WITH_UNIT (LENGTH_MEASURE( 1.000000000000000082E-05 ), #79, 'distance_accuracy_value', 'NONE');
#66 = SURFACE_STYLE_FILL_AREA ( #123 ) ;
#67 = AXIS2_PLACEMENT_3D ( 'NONE', #26, #43, #39 ) ;
#68 = FILL_AREA_STYLE_COLOUR ( '', #76 ) ;
#69 = SURFACE_SIDE_STYLE ('',( #66 ) ) ;
#70 = VERTEX_POINT ( 'NONE', #134 ) ;
#71 = EDGE_LOOP ( 'NONE', ( #48, #291 ) ) ;
#72 = ORIENTED_EDGE ( 'NONE', *, *, #251, .F. ) ;
#73 =( LENGTH_UNIT ( ) NAMED_UNIT ( * ) SI_UNIT ( $, .METRE. ) );
#74 = DIRECTION ( 'NONE',  ( 1.000000000000000000, 0.0000000000000000000, 0.0000000000000000000 ) ) ;
#75 = ORIENTED_EDGE ( 'NONE', *, *, #91, .F. ) ;
#76 = COLOUR_RGB ( '',0.7921568627450980005, 0.8196078431372548767, 0.9333333333333333481 ) ;
#77 = CARTESIAN_POINT ( 'NONE',  ( 6.123233995736766036E-17, 0.0000000000000000000, 0.5000000000000000000 ) ) ;
#78 = VERTEX_POINT ( 'NONE', #89 ) ;
#79 =( CONVERSION_BASED_UNIT ( 'INCH', #227 ) LENGTH_UNIT ( ) NAMED_UNIT ( #14 ) );
#80 = DIRECTION ( 'NONE',  ( -1.000000000000000000, 0.0000000000000000000, 1.224646799147353454E-16 ) ) ;
#81 = DIRECTION ( 'NONE',  ( 0.0000000000000000000, 0.0000000000000000000, -1.000000000000000000 ) ) ;
#82 = VECTOR ( 'NONE', #152, 39.37007874015748143 ) ;
#83 = DIRECTION ( 'NONE',  ( 1.000000000000000000, 0.0000000000000000000, 0.0000000000000000000 ) ) ;
#84 = CARTESIAN_POINT ( 'NONE',  ( 0.1250000000000000555, 1.530808498934192125E-17, 0.5007089102274522308 ) ) ;
#85 = APPLICATION_PROTOCOL_DEFINITION ( 'draft international standard', 'automotive_design', 1998, #273 ) ;
#86 = DIRECTION ( 'NONE',  ( -1.224646799147353207E-16, -0.0000000000000000000, -1.000000000000000000 ) ) ;
#87 = EDGE_LOOP ( 'NONE', ( #19, #47, #158, #138 ) ) ;
#88 = CONICAL_SURFACE ( 'NONE', #234, 0.1248749999999999999, 0.1745329251994339192 ) ;
#89 = CARTESIAN_POINT ( 'NONE',  ( -0.1249999999999999306, 0.0000000000000000000, 0.5007089102274522308 ) ) ;
#90 = DIRECTION ( 'NONE',  ( 0.0000000000000000000, 0.0000000000000000000, -1.000000000000000000 ) ) ;
#91 = EDGE_CURVE ( 'NONE', #143, #70, #267, .T. ) ;
#92 = AXIS2_PLACEMENT_3D ( 'NONE', #228, #86, #25 ) ;
#93 = EDGE_CURVE ( 'NONE', #204, #219, #289, .T. ) ;
#94 = ORIENTED_EDGE ( 'NONE', *, *, #251, .T. ) ;
#95 = LINE ( 'NONE', #140, #141 ) ;
#96 = ORIENTED_EDGE ( 'NONE', *, *, #99, .F. ) ;
#97 = FILL_AREA_STYLE_COLOUR ( '', #164 ) ;
#98 = AXIS2_PLACEMENT_3D ( 'NONE', #275, #35, #209 ) ;
#99 = EDGE_CURVE ( 'NONE', #70, #78, #107, .T. ) ;
#100 = UNCERTAINTY_MEASURE_WITH_UNIT (LENGTH_MEASURE( 1.000000000000000082E-05 ), #232, 'distance_accuracy_value', 'NONE');
#101 = LINE ( 'NONE', #145, #46 ) ;
#102 = CARTESIAN_POINT ( 'NONE',  ( 6.131915642146087268E-17, 0.0000000000000000000, 0.5007089102274522308 ) ) ;
#103 = DIRECTION ( 'NONE',  ( -1.224646799147353207E-16, -0.0000000000000000000, -1.000000000000000000 ) ) ;
#104 = CONICAL_SURFACE ( 'NONE', #98, 0.1099999999999996397, 0.7853981633974426169 ) ;
#105 = PLANE ( 'NONE',  #277 ) ;
#106 = PRODUCT ( 'Micro_SEM-250-02X', 'Micro_SEM-250-02X', '', ( #169 ) ) ;
#107 = LINE ( 'NONE', #252, #82 ) ;
#108 = CARTESIAN_POINT ( 'NONE',  ( 0.1248750000000000693, 0.0000000000000000000, 0.5000000000000000000 ) ) ;
#109 = DIRECTION ( 'NONE',  ( 1.000000000000000000, 0.0000000000000000000, -0.0000000000000000000 ) ) ;
#110 = ADVANCED_FACE ( 'NONE', ( #112 ), #144, .T. ) ;
#111 = AXIS2_PLACEMENT_3D ( 'NONE', #114, #160, #154 ) ;
#112 = FACE_OUTER_BOUND ( 'NONE', #205, .T. ) ;
#113 = VERTEX_POINT ( 'NONE', #56 ) ;
#114 = CARTESIAN_POINT ( 'NONE',  ( 0.0000000000000000000, 0.0000000000000000000, 2.000000000000000000 ) ) ;
#115 = EDGE_CURVE ( 'NONE', #166, #78, #210, .T. ) ;
#116 = LINE ( 'NONE', #287, #136 ) ;
#117 =( LENGTH_UNIT ( ) NAMED_UNIT ( * ) SI_UNIT ( $, .METRE. ) );
#118 = LINE ( 'NONE', #37, #203 ) ;
#119 = CARTESIAN_POINT ( 'NONE',  ( 0.1250000000000000000, 1.530808498934191509E-17, 1.984999999999999432 ) ) ;
#120 = ORIENTED_EDGE ( 'NONE', *, *, #45, .T. ) ;
#121 = ORIENTED_EDGE ( 'NONE', *, *, #208, .T. ) ;
#122 = ORIENTED_EDGE ( 'NONE', *, *, #146, .T. ) ;
#123 = FILL_AREA_STYLE ('',( #97 ) ) ;
#124 = CARTESIAN_POINT ( 'NONE',  ( 6.123233995736766036E-17, 0.0000000000000000000, 0.5000000000000000000 ) ) ;
#125 = DIRECTION ( 'NONE',  ( -1.000000000000000000, 0.0000000000000000000, 1.224646799147353454E-16 ) ) ;
#126 = DIRECTION ( 'NONE',  ( 0.0000000000000000000, 0.0000000000000000000, 1.000000000000000000 ) ) ;
#127 = SHAPE_DEFINITION_REPRESENTATION ( #177, #36 ) ;
#128 = CLOSED_SHELL ( 'NONE', ( #178, #163, #110, #245, #12, #236, #221, #285, #288, #52 ) ) ;
#129 = ORIENTED_EDGE ( 'NONE', *, *, #157, .T. ) ;
#130 = LINE ( 'NONE', #213, #49 ) ;
#131 =( NAMED_UNIT ( * ) PLANE_ANGLE_UNIT ( ) SI_UNIT ( $, .RADIAN. ) );
#132 =( GEOMETRIC_REPRESENTATION_CONTEXT ( 3 ) GLOBAL_UNCERTAINTY_ASSIGNED_CONTEXT ( ( #65 ) ) GLOBAL_UNIT_ASSIGNED_CONTEXT ( ( #79, #206, #240 ) ) REPRESENTATION_CONTEXT ( 'NONE', 'WORKASPACE' ) );
#133 = FACE_OUTER_BOUND ( 'NONE', #71, .T. ) ;
#134 = CARTESIAN_POINT ( 'NONE',  ( -0.1250000000000000000, 0.0000000000000000000, 1.984999999999999432 ) ) ;
#135 = UNCERTAINTY_MEASURE_WITH_UNIT (LENGTH_MEASURE( 1.000000000000000082E-05 ), #231, 'distance_accuracy_value', 'NONE');
#136 = VECTOR ( 'NONE', #44, 39.37007874015748143 ) ;
#137 = CIRCLE ( 'NONE', #196, 0.1248749999999999999 ) ;
#138 = ORIENTED_EDGE ( 'NONE', *, *, #157, .F. ) ;
#139 = ORIENTED_EDGE ( 'NONE', *, *, #239, .T. ) ;
#140 = CARTESIAN_POINT ( 'NONE',  ( 0.1248750000000000693, 0.0000000000000000000, 0.5000000000000000000 ) ) ;
#141 = VECTOR ( 'NONE', #270, 39.37007874015748143 ) ;
#142 = EDGE_CURVE ( 'NONE', #78, #241, #20, .T. ) ;
#143 = VERTEX_POINT ( 'NONE', #119 ) ;
#144 = CONICAL_SURFACE ( 'NONE', #226, 0.1099999999999996397, 0.7853981633974426169 ) ;
#145 = CARTESIAN_POINT ( 'NONE',  ( 0.1099999999999996397, 1.347111479062084158E-17, 2.000000000000000000 ) ) ;
#146 = EDGE_CURVE ( 'NONE', #262, #166, #137, .T. ) ;
#147 = LINE ( 'NONE', #283, #223 ) ;
#148 = CARTESIAN_POINT ( 'NONE',  ( 6.131915642146087268E-17, 0.0000000000000000000, 0.5007089102274522308 ) ) ;
#149 = DIRECTION ( 'NONE',  ( 0.7071067811865434649, 8.659560562354883554E-17, -0.7071067811865515695 ) ) ;
#150 = APPLICATION_PROTOCOL_DEFINITION ( 'draft international standard', 'automotive_design', 1998, #282 ) ;
#151 = ORIENTED_EDGE ( 'NONE', *, *, #34, .T. ) ;
#152 = DIRECTION ( 'NONE',  ( -0.0000000000000000000, -0.0000000000000000000, -1.000000000000000000 ) ) ;
#153 = ORIENTED_EDGE ( 'NONE', *, *, #91, .T. ) ;
#154 = DIRECTION ( 'NONE',  ( -1.000000000000000000, 0.0000000000000000000, 0.0000000000000000000 ) ) ;
#155 = AXIS2_PLACEMENT_3D ( 'NONE', #259, #63, #254 ) ;
#156 = MECHANICAL_DESIGN_GEOMETRIC_PRESENTATION_REPRESENTATION (  '', ( #279 ), #41 ) ;
#157 = EDGE_CURVE ( 'NONE', #262, #241, #95, .T. ) ;
#158 = ORIENTED_EDGE ( 'NONE', *, *, #142, .T. ) ;
#159 = DIRECTION ( 'NONE',  ( 1.224646799147353207E-16, 0.0000000000000000000, 1.000000000000000000 ) ) ;
#160 = DIRECTION ( 'NONE',  ( -0.0000000000000000000, -0.0000000000000000000, -1.000000000000000000 ) ) ;
#161 = ORIENTED_EDGE ( 'NONE', *, *, #146, .F. ) ;
#162 = FACE_OUTER_BOUND ( 'NONE', #201, .T. ) ;
#163 = ADVANCED_FACE ( 'NONE', ( #297 ), #296, .T. ) ;
#164 = COLOUR_RGB ( '',0.7921568627450980005, 0.8196078431372548767, 0.9333333333333333481 ) ;
#165 = AXIS2_PLACEMENT_3D ( 'NONE', #276, #272, #4 ) ;
#166 = VERTEX_POINT ( 'NONE', #243 ) ;
#167 = CYLINDRICAL_SURFACE ( 'NONE', #92, 0.1248749999999999999 ) ;
#168 = FACE_OUTER_BOUND ( 'NONE', #244, .T. ) ;
#169 = PRODUCT_CONTEXT ( 'NONE', #282, 'mechanical' ) ;
#170 = AXIS2_PLACEMENT_3D ( 'NONE', #148, #195, #229 ) ;
#171 = AXIS2_PLACEMENT_3D ( 'NONE', #77, #159, #74 ) ;
#172 = FACE_OUTER_BOUND ( 'NONE', #184, .T. ) ;
#173 = FACE_OUTER_BOUND ( 'NONE', #222, .T. ) ;
#174 = LENGTH_MEASURE_WITH_UNIT ( LENGTH_MEASURE( 0.02539999999999999897 ), #117 );
#175 = CARTESIAN_POINT ( 'NONE',  ( 0.0000000000000000000, 0.0000000000000000000, 1.984999999999999432 ) ) ;
#176 = ORIENTED_EDGE ( 'NONE', *, *, #193, .T. ) ;
#177 = PRODUCT_DEFINITION_SHAPE ( 'NONE', 'NONE',  #271 ) ;
#178 = ADVANCED_FACE ( 'NONE', ( #162 ), #167, .T. ) ;
#179 = EDGE_LOOP ( 'NONE', ( #17, #153, #198, #190 ) ) ;
#180 = AXIS2_PLACEMENT_3D ( 'NONE', #249, #11, #187 ) ;
#181 = VERTEX_POINT ( 'NONE', #247 ) ;
#182 = ORIENTED_EDGE ( 'NONE', *, *, #292, .T. ) ;
#183 = ORIENTED_EDGE ( 'NONE', *, *, #292, .F. ) ;
#184 = EDGE_LOOP ( 'NONE', ( #242, #161, #129, #42 ) ) ;
#185 = PRESENTATION_LAYER_ASSIGNMENT (  '', '', ( #62 ) ) ;
#186 = DIRECTION ( 'NONE',  ( -0.0000000000000000000, -0.0000000000000000000, -1.000000000000000000 ) ) ;
#187 = DIRECTION ( 'NONE',  ( -1.000000000000000000, 0.0000000000000000000, 1.224646799147353454E-16 ) ) ;
#188 = AXIS2_PLACEMENT_3D ( 'NONE', #102, #278, #83 ) ;
#189 = CARTESIAN_POINT ( 'NONE',  ( 0.0000000000000000000, 0.0000000000000000000, 2.000000000000000000 ) ) ;
#190 = ORIENTED_EDGE ( 'NONE', *, *, #260, .F. ) ;
#191 = SURFACE_SIDE_STYLE ('',( #299 ) ) ;
#192 = CARTESIAN_POINT ( 'NONE',  ( 0.0000000000000000000, 0.0000000000000000000, 0.0000000000000000000 ) ) ;
#193 = EDGE_CURVE ( 'NONE', #166, #219, #147, .T. ) ;
#194 = DIRECTION ( 'NONE',  ( -0.1736481776669312194, 2.126576849575783625E-17, 0.9848077530122080203 ) ) ;
#195 = DIRECTION ( 'NONE',  ( -1.224646799147353207E-16, -0.0000000000000000000, -1.000000000000000000 ) ) ;
#196 = AXIS2_PLACEMENT_3D ( 'NONE', #15, #238, #295 ) ;
#197 = DIRECTION ( 'NONE',  ( 1.000000000000000000, 0.0000000000000000000, 0.0000000000000000000 ) ) ;
#198 = ORIENTED_EDGE ( 'NONE', *, *, #99, .T. ) ;
#199 = AXIS2_PLACEMENT_3D ( 'NONE', #124, #1, #53 ) ;
#200 = ORIENTED_EDGE ( 'NONE', *, *, #225, .T. ) ;
#201 = EDGE_LOOP ( 'NONE', ( #200, #182, #72, #50 ) ) ;
#202 = FACE_OUTER_BOUND ( 'NONE', #179, .T. ) ;
#203 = VECTOR ( 'NONE', #6, 39.37007874015748143 ) ;
#204 = VERTEX_POINT ( 'NONE', #255 ) ;
#205 = EDGE_LOOP ( 'NONE', ( #266, #139, #269, #258 ) ) ;
#206 =( NAMED_UNIT ( * ) PLANE_ANGLE_UNIT ( ) SI_UNIT ( $, .RADIAN. ) );
#207 = AXIS2_PLACEMENT_3D ( 'NONE', #189, #186, #59 ) ;
#208 = EDGE_CURVE ( 'NONE', #70, #143, #40, .T. ) ;
#209 = DIRECTION ( 'NONE',  ( -1.000000000000000000, 0.0000000000000000000, 0.0000000000000000000 ) ) ;
#210 = LINE ( 'NONE', #2, #13 ) ;
#211 = FACE_OUTER_BOUND ( 'NONE', #38, .T. ) ;
#212 = AXIS2_PLACEMENT_3D ( 'NONE', #274, #29, #80 ) ;
#213 = CARTESIAN_POINT ( 'NONE',  ( 0.1248749999999999999, 1.529277690435257475E-17, -1.529277690435257475E-17 ) ) ;
#214 = PRESENTATION_STYLE_ASSIGNMENT (( #281 ) ) ;
#215 = CARTESIAN_POINT ( 'NONE',  ( 0.0000000000000000000, 0.0000000000000000000, 2.000000000000000000 ) ) ;
#216 = CARTESIAN_POINT ( 'NONE',  ( 0.0000000000000000000, 0.0000000000000000000, 2.000000000000000000 ) ) ;
#217 = DIRECTION ( 'NONE',  ( 0.0000000000000000000, 0.0000000000000000000, 1.000000000000000000 ) ) ;
#218 = CIRCLE ( 'NONE', #180, 0.1248749999999999999 ) ;
#219 = VERTEX_POINT ( 'NONE', #253 ) ;
#220 = MECHANICAL_DESIGN_GEOMETRIC_PRESENTATION_REPRESENTATION (  '', ( #62 ), #16 ) ;
#221 = ADVANCED_FACE ( 'NONE', ( #211 ), #104, .T. ) ;
#222 = EDGE_LOOP ( 'NONE', ( #121, #120, #224, #96 ) ) ;
#223 = VECTOR ( 'NONE', #103, 39.37007874015748143 ) ;
#224 = ORIENTED_EDGE ( 'NONE', *, *, #142, .F. ) ;
#225 = EDGE_CURVE ( 'NONE', #166, #262, #5, .T. ) ;
#226 = AXIS2_PLACEMENT_3D ( 'NONE', #286, #90, #248 ) ;
#227 = LENGTH_MEASURE_WITH_UNIT ( LENGTH_MEASURE( 0.02539999999999999897 ), #73 );
#228 = CARTESIAN_POINT ( 'NONE',  ( 0.0000000000000000000, 0.0000000000000000000, 0.0000000000000000000 ) ) ;
#229 = DIRECTION ( 'NONE',  ( 1.000000000000000000, 0.0000000000000000000, 0.0000000000000000000 ) ) ;
#230 = DIRECTION ( 'NONE',  ( 1.224646799147353207E-16, 0.0000000000000000000, 1.000000000000000000 ) ) ;
#231 =( CONVERSION_BASED_UNIT ( 'INCH', #250 ) LENGTH_UNIT ( ) NAMED_UNIT ( #261 ) );
#232 =( CONVERSION_BASED_UNIT ( 'INCH', #174 ) LENGTH_UNIT ( ) NAMED_UNIT ( #64 ) );
#233 = FACE_OUTER_BOUND ( 'NONE', #21, .T. ) ;
#234 = AXIS2_PLACEMENT_3D ( 'NONE', #284, #230, #3 ) ;
#235 = CYLINDRICAL_SURFACE ( 'NONE', #207, 0.1250000000000000000 ) ;
#236 = ADVANCED_FACE ( 'NONE', ( #133 ), #57, .T. ) ;
#237 = AXIS2_PLACEMENT_3D ( 'NONE', #175, #81, #280 ) ;
#238 = DIRECTION ( 'NONE',  ( -1.224646799147353207E-16, -0.0000000000000000000, -1.000000000000000000 ) ) ;
#239 = EDGE_CURVE ( 'NONE', #181, #143, #101, .T. ) ;
#240 =( NAMED_UNIT ( * ) SI_UNIT ( $, .STERADIAN. ) SOLID_ANGLE_UNIT ( ) );
#241 = VERTEX_POINT ( 'NONE', #84 ) ;
#242 = ORIENTED_EDGE ( 'NONE', *, *, #115, .F. ) ;
#243 = CARTESIAN_POINT ( 'NONE',  ( -0.1248749999999999444, 1.530043094684724646E-17, 0.5000000000000000000 ) ) ;
#244 = EDGE_LOOP ( 'NONE', ( #183, #122, #176, #18 ) ) ;
#245 = ADVANCED_FACE ( 'NONE', ( #173 ), #235, .T. ) ;
#246 =( NAMED_UNIT ( * ) SI_UNIT ( $, .STERADIAN. ) SOLID_ANGLE_UNIT ( ) );
#247 = CARTESIAN_POINT ( 'NONE',  ( 0.1099999999999996397, 1.438959988998137757E-17, 2.000000000000000000 ) ) ;
#248 = DIRECTION ( 'NONE',  ( -1.000000000000000000, 0.0000000000000000000, 0.0000000000000000000 ) ) ;
#249 = CARTESIAN_POINT ( 'NONE',  ( 1.872825028598994811E-33, 0.0000000000000000000, 1.529277690435257475E-17 ) ) ;
#250 = LENGTH_MEASURE_WITH_UNIT ( LENGTH_MEASURE( 0.02539999999999999897 ), #51 );
#251 = EDGE_CURVE ( 'NONE', #219, #204, #218, .T. ) ;
#252 = CARTESIAN_POINT ( 'NONE',  ( -0.1250000000000000000, 0.0000000000000000000, 2.000000000000000000 ) ) ;
#253 = CARTESIAN_POINT ( 'NONE',  ( -0.1248749999999999999, 0.0000000000000000000, 3.058555380870514950E-17 ) ) ;
#254 = DIRECTION ( 'NONE',  ( 1.000000000000000000, 0.0000000000000000000, 0.0000000000000000000 ) ) ;
#255 = CARTESIAN_POINT ( 'NONE',  ( 0.1248749999999999999, 1.529277690435257475E-17, 0.0000000000000000000 ) ) ;
#256 = CIRCLE ( 'NONE', #264, 0.1099999999999996397 ) ;
#257 = PRESENTATION_LAYER_ASSIGNMENT (  '', '', ( #279 ) ) ;
#258 = ORIENTED_EDGE ( 'NONE', *, *, #34, .F. ) ;
#259 = CARTESIAN_POINT ( 'NONE',  ( 0.0000000000000000000, 0.0000000000000000000, 1.984999999999999432 ) ) ;
#260 = EDGE_CURVE ( 'NONE', #241, #78, #294, .T. ) ;
#261 = DIMENSIONAL_EXPONENTS ( 1.000000000000000000, 0.0000000000000000000, 0.0000000000000000000, 0.0000000000000000000, 0.0000000000000000000, 0.0000000000000000000, 0.0000000000000000000 ) ;
#262 = VERTEX_POINT ( 'NONE', #108 ) ;
#263 = PRESENTATION_STYLE_ASSIGNMENT (( #30 ) ) ;
#264 = AXIS2_PLACEMENT_3D ( 'NONE', #215, #217, #197 ) ;
#265 = ORIENTED_EDGE ( 'NONE', *, *, #60, .F. ) ;
#266 = ORIENTED_EDGE ( 'NONE', *, *, #27, .F. ) ;
#267 = CIRCLE ( 'NONE', #155, 0.1250000000000000000 ) ;
#268 = PRODUCT_RELATED_PRODUCT_CATEGORY ( 'part', '', ( #106 ) ) ;
#269 = ORIENTED_EDGE ( 'NONE', *, *, #208, .F. ) ;
#270 = DIRECTION ( 'NONE',  ( 0.1736481776669314137, 0.0000000000000000000, 0.9848077530122077983 ) ) ;
#271 = PRODUCT_DEFINITION ( 'UNKNOWN', '', #55, #10 ) ;
#272 = DIRECTION ( 'NONE',  ( 0.0000000000000000000, 0.0000000000000000000, 1.000000000000000000 ) ) ;
#273 = APPLICATION_CONTEXT ( 'automotive_design' ) ;
#274 = CARTESIAN_POINT ( 'NONE',  ( 0.0000000000000000000, 0.0000000000000000000, 0.0000000000000000000 ) ) ;
#275 = CARTESIAN_POINT ( 'NONE',  ( 0.0000000000000000000, 0.0000000000000000000, 2.000000000000000000 ) ) ;
#276 = CARTESIAN_POINT ( 'NONE',  ( 0.0000000000000000000, 0.0000000000000000000, 0.0000000000000000000 ) ) ;
#277 = AXIS2_PLACEMENT_3D ( 'NONE', #192, #58, #109 ) ;
#278 = DIRECTION ( 'NONE',  ( -1.224646799147353207E-16, -0.0000000000000000000, -1.000000000000000000 ) ) ;
#279 = STYLED_ITEM ( 'NONE', ( #214 ), #36 ) ;
#280 = DIRECTION ( 'NONE',  ( 1.000000000000000000, 0.0000000000000000000, 0.0000000000000000000 ) ) ;
#281 = SURFACE_STYLE_USAGE ( .BOTH. , #191 ) ;
#282 = APPLICATION_CONTEXT ( 'automotive_design' ) ;
#283 = CARTESIAN_POINT ( 'NONE',  ( -0.1248749999999999999, 0.0000000000000000000, 1.529277690435257475E-17 ) ) ;
#284 = CARTESIAN_POINT ( 'NONE',  ( 6.123233995736766036E-17, 0.0000000000000000000, 0.5000000000000000000 ) ) ;
#285 = ADVANCED_FACE ( 'NONE', ( #172 ), #88, .T. ) ;
#286 = CARTESIAN_POINT ( 'NONE',  ( 0.0000000000000000000, 0.0000000000000000000, 2.000000000000000000 ) ) ;
#287 = CARTESIAN_POINT ( 'NONE',  ( -0.1099999999999996397, 0.0000000000000000000, 2.000000000000000000 ) ) ;
#288 = ADVANCED_FACE ( 'NONE', ( #168 ), #31, .T. ) ;
#289 = CIRCLE ( 'NONE', #23, 0.1248749999999999999 ) ;
#290 = FILL_AREA_STYLE ('',( #68 ) ) ;
#291 = ORIENTED_EDGE ( 'NONE', *, *, #27, .T. ) ;
#292 = EDGE_CURVE ( 'NONE', #262, #204, #130, .T. ) ;
#293 = ORIENTED_EDGE ( 'NONE', *, *, #239, .F. ) ;
#294 = CIRCLE ( 'NONE', #170, 0.1250000000000000000 ) ;
#295 = DIRECTION ( 'NONE',  ( -1.000000000000000000, 0.0000000000000000000, 0.0000000000000000000 ) ) ;
#296 = CONICAL_SURFACE ( 'NONE', #171, 0.1248749999999999999, 0.1745329251994339192 ) ;
#297 = FACE_OUTER_BOUND ( 'NONE', #87, .T. ) ;
#298 = ORIENTED_EDGE ( 'NONE', *, *, #93, .T. ) ;
#299 = SURFACE_STYLE_FILL_AREA ( #290 ) ;
ENDSEC;
END-ISO-10303-21;
