ISO-10303-21;
HEADER;
FILE_DESCRIPTION (( 'STEP AP214' ),
    '1' );
FILE_NAME ('Micro_DM-625-290X.STEP',
    '2021-09-02T16:09:32',
    ( '' ),
    ( '' ),
    'SwSTEP 2.0',
    'SolidWorks 2020',
    '' );
FILE_SCHEMA (( 'AUTOMOTIVE_DESIGN' ));
ENDSEC;

DATA;
#1 = PRODUCT_CONTEXT ( 'NONE', #288, 'mechanical' ) ;
#2 = UNCERTAINTY_MEASURE_WITH_UNIT (LENGTH_MEASURE( 1.000000000000000082E-05 ), #227, 'distance_accuracy_value', 'NONE');
#3 = FILL_AREA_STYLE_COLOUR ( '', #201 ) ;
#4 = VECTOR ( 'NONE', #88, 39.37007874015748143 ) ;
#5 =( NAMED_UNIT ( * ) PLANE_ANGLE_UNIT ( ) SI_UNIT ( $, .RADIAN. ) );
#6 =( NAMED_UNIT ( * ) PLANE_ANGLE_UNIT ( ) SI_UNIT ( $, .RADIAN. ) );
#7 = ADVANCED_FACE ( 'NONE', ( #38 ), #32, .T. ) ;
#8 = DIRECTION ( 'NONE',  ( -0.0000000000000000000, -0.0000000000000000000, -1.000000000000000000 ) ) ;
#9 = ORIENTED_EDGE ( 'NONE', *, *, #19, .T. ) ;
#10 = AXIS2_PLACEMENT_3D ( 'NONE', #146, #329, #171 ) ;
#11 = CARTESIAN_POINT ( 'NONE',  ( 0.3125000000000000000, 3.827021247335478926E-17, 3.500000000000000000 ) ) ;
#12 = ORIENTED_EDGE ( 'NONE', *, *, #223, .F. ) ;
#13 = ORIENTED_EDGE ( 'NONE', *, *, #143, .F. ) ;
#14 = DIRECTION ( 'NONE',  ( -1.000000000000000000, 0.0000000000000000000, 0.0000000000000000000 ) ) ;
#15 = CARTESIAN_POINT ( 'NONE',  ( 0.0000000000000000000, 0.0000000000000000000, 3.484999999999999432 ) ) ;
#16 = CARTESIAN_POINT ( 'NONE',  ( -0.2975000000000003197, 0.0000000000000000000, 3.500000000000000000 ) ) ;
#17 = DIRECTION ( 'NONE',  ( -0.0000000000000000000, -0.0000000000000000000, -1.000000000000000000 ) ) ;
#18 = CARTESIAN_POINT ( 'NONE',  ( 0.0000000000000000000, 0.0000000000000000000, 0.0000000000000000000 ) ) ;
#19 = EDGE_CURVE ( 'NONE', #195, #104, #60, .T. ) ;
#20 = ORIENTED_EDGE ( 'NONE', *, *, #159, .F. ) ;
#21 = SURFACE_STYLE_FILL_AREA ( #248 ) ;
#22 = PRODUCT_DEFINITION_SHAPE ( 'NONE', 'NONE',  #309 ) ;
#23 = CIRCLE ( 'NONE', #239, 0.3124500000000002276 ) ;
#24 = AXIS2_PLACEMENT_3D ( 'NONE', #79, #51, #197 ) ;
#25 = DIRECTION ( 'NONE',  ( 1.000000000000000000, 0.0000000000000000000, 0.0000000000000000000 ) ) ;
#26 = DIRECTION ( 'NONE',  ( -1.000000000000000000, 0.0000000000000000000, 0.0000000000000000000 ) ) ;
#27 = SURFACE_SIDE_STYLE ('',( #52 ) ) ;
#28 = EDGE_CURVE ( 'NONE', #312, #144, #130, .T. ) ;
#29 = EDGE_LOOP ( 'NONE', ( #210, #80, #147, #277 ) ) ;
#30 = AXIS2_PLACEMENT_3D ( 'NONE', #136, #90, #115 ) ;
#31 = MECHANICAL_DESIGN_GEOMETRIC_PRESENTATION_REPRESENTATION (  '', ( #262 ), #246 ) ;
#32 = CYLINDRICAL_SURFACE ( 'NONE', #92, 0.3125000000000000000 ) ;
#33 = EDGE_LOOP ( 'NONE', ( #236, #9, #20, #200 ) ) ;
#34 = EDGE_CURVE ( 'NONE', #280, #195, #128, .T. ) ;
#35 = ORIENTED_EDGE ( 'NONE', *, *, #213, .T. ) ;
#36 = ORIENTED_EDGE ( 'NONE', *, *, #71, .F. ) ;
#37 = EDGE_CURVE ( 'NONE', #152, #263, #127, .T. ) ;
#38 = FACE_OUTER_BOUND ( 'NONE', #168, .T. ) ;
#39 = AXIS2_PLACEMENT_3D ( 'NONE', #320, #91, #89 ) ;
#40 = AXIS2_PLACEMENT_3D ( 'NONE', #276, #225, #308 ) ;
#41 = CARTESIAN_POINT ( 'NONE',  ( 0.3124500000000002276, 0.0000000000000000000, 1.250000000000000000 ) ) ;
#42 = DIRECTION ( 'NONE',  ( -0.0000000000000000000, 0.0000000000000000000, -1.000000000000000000 ) ) ;
#43 = DIRECTION ( 'NONE',  ( 0.7071067811865489050, 0.0000000000000000000, 0.7071067811865461294 ) ) ;
#44 = CARTESIAN_POINT ( 'NONE',  ( 0.0000000000000000000, 0.0000000000000000000, 0.0000000000000000000 ) ) ;
#45 = ADVANCED_FACE ( 'NONE', ( #183 ), #84, .T. ) ;
#46 =( NAMED_UNIT ( * ) SI_UNIT ( $, .STERADIAN. ) SOLID_ANGLE_UNIT ( ) );
#47 = ORIENTED_EDGE ( 'NONE', *, *, #28, .T. ) ;
#48 = EDGE_LOOP ( 'NONE', ( #301, #100 ) ) ;
#49 =( LENGTH_UNIT ( ) NAMED_UNIT ( * ) SI_UNIT ( $, .METRE. ) );
#50 = EDGE_CURVE ( 'NONE', #111, #251, #285, .T. ) ;
#51 = DIRECTION ( 'NONE',  ( -0.0000000000000000000, -0.0000000000000000000, -1.000000000000000000 ) ) ;
#52 = SURFACE_STYLE_FILL_AREA ( #81 ) ;
#53 = CYLINDRICAL_SURFACE ( 'NONE', #24, 0.3124500000000001165 ) ;
#54 = ORIENTED_EDGE ( 'NONE', *, *, #95, .T. ) ;
#55 = EDGE_LOOP ( 'NONE', ( #313, #328, #172, #226 ) ) ;
#56 = CIRCLE ( 'NONE', #40, 0.3124500000000000610 ) ;
#57 = ADVANCED_FACE ( 'NONE', ( #232 ), #156, .F. ) ;
#58 = DIRECTION ( 'NONE',  ( -1.000000000000000000, 0.0000000000000000000, 0.0000000000000000000 ) ) ;
#59 = UNCERTAINTY_MEASURE_WITH_UNIT (LENGTH_MEASURE( 1.000000000000000082E-05 ), #101, 'distance_accuracy_value', 'NONE');
#60 = LINE ( 'NONE', #11, #116 ) ;
#61 = DIRECTION ( 'NONE',  ( -0.0000000000000000000, -0.0000000000000000000, -1.000000000000000000 ) ) ;
#62 = PRESENTATION_LAYER_ASSIGNMENT (  '', '', ( #262 ) ) ;
#63 = DIRECTION ( 'NONE',  ( -0.7071067811865346942, 0.0000000000000000000, -0.7071067811865603403 ) ) ;
#64 = CARTESIAN_POINT ( 'NONE',  ( 0.3124500000000001165, 3.826408923935906052E-17, 0.0000000000000000000 ) ) ;
#65 = DIRECTION ( 'NONE',  ( 0.0000000000000000000, 0.0000000000000000000, 1.000000000000000000 ) ) ;
#66 = CONICAL_SURFACE ( 'NONE', #107, 0.2975000000000003197, 0.7853981633974300713 ) ;
#67 = CARTESIAN_POINT ( 'NONE',  ( 0.0000000000000000000, 0.0000000000000000000, 1.707404996040164512E-17 ) ) ;
#68 = FACE_BOUND ( 'NONE', #235, .T. ) ;
#69 = CARTESIAN_POINT ( 'NONE',  ( 0.0000000000000000000, 0.0000000000000000000, 3.500000000000000000 ) ) ;
#70 =( NAMED_UNIT ( * ) PLANE_ANGLE_UNIT ( ) SI_UNIT ( $, .RADIAN. ) );
#71 = EDGE_CURVE ( 'NONE', #182, #111, #23, .T. ) ;
#72 = ORIENTED_EDGE ( 'NONE', *, *, #71, .T. ) ;
#73 = PRESENTATION_STYLE_ASSIGNMENT (( #221 ) ) ;
#74 = APPLICATION_PROTOCOL_DEFINITION ( 'draft international standard', 'automotive_design', 1998, #237 ) ;
#75 = DIMENSIONAL_EXPONENTS ( 1.000000000000000000, 0.0000000000000000000, 0.0000000000000000000, 0.0000000000000000000, 0.0000000000000000000, 0.0000000000000000000, 0.0000000000000000000 ) ;
#76 = AXIS2_PLACEMENT_3D ( 'NONE', #231, #8, #314 ) ;
#77 = CARTESIAN_POINT ( 'NONE',  ( 0.0000000000000000000, 0.0000000000000000000, 1.250000000000000000 ) ) ;
#78 = STYLED_ITEM ( 'NONE', ( #73 ), #322 ) ;
#79 = CARTESIAN_POINT ( 'NONE',  ( 0.0000000000000000000, 0.0000000000000000000, 0.0000000000000000000 ) ) ;
#80 = ORIENTED_EDGE ( 'NONE', *, *, #34, .T. ) ;
#81 = FILL_AREA_STYLE ('',( #177 ) ) ;
#82 = ORIENTED_EDGE ( 'NONE', *, *, #242, .T. ) ;
#83 = EDGE_CURVE ( 'NONE', #263, #154, #216, .T. ) ;
#84 = PLANE ( 'NONE',  #229 ) ;
#85 = CIRCLE ( 'NONE', #193, 0.3125000000000000000 ) ;
#86 = ORIENTED_EDGE ( 'NONE', *, *, #141, .F. ) ;
#87 = EDGE_LOOP ( 'NONE', ( #260, #13, #176, #203 ) ) ;
#88 = DIRECTION ( 'NONE',  ( 0.7071067811865346942, 8.659560562354773853E-17, -0.7071067811865603403 ) ) ;
#89 = DIRECTION ( 'NONE',  ( 1.000000000000000000, 0.0000000000000000000, 0.0000000000000000000 ) ) ;
#90 = DIRECTION ( 'NONE',  ( 0.0000000000000000000, 0.0000000000000000000, 1.000000000000000000 ) ) ;
#91 = DIRECTION ( 'NONE',  ( 0.0000000000000000000, 0.0000000000000000000, 1.000000000000000000 ) ) ;
#92 = AXIS2_PLACEMENT_3D ( 'NONE', #209, #129, #58 ) ;
#93 = PLANE ( 'NONE',  #145 ) ;
#94 = DIRECTION ( 'NONE',  ( -0.0000000000000000000, -0.0000000000000000000, -1.000000000000000000 ) ) ;
#95 = EDGE_CURVE ( 'NONE', #144, #312, #306, .T. ) ;
#96 = CONICAL_SURFACE ( 'NONE', #224, 0.2975000000000003197, 0.7853981633974300713 ) ;
#97 = DIRECTION ( 'NONE',  ( -0.0000000000000000000, -0.0000000000000000000, -1.000000000000000000 ) ) ;
#98 = CARTESIAN_POINT ( 'NONE',  ( 0.0000000000000000000, 0.0000000000000000000, 0.0000000000000000000 ) ) ;
#99 = DIRECTION ( 'NONE',  ( -1.000000000000000000, 0.0000000000000000000, 0.0000000000000000000 ) ) ;
#100 = ORIENTED_EDGE ( 'NONE', *, *, #281, .T. ) ;
#101 =( CONVERSION_BASED_UNIT ( 'INCH', #103 ) LENGTH_UNIT ( ) NAMED_UNIT ( #249 ) );
#102 = EDGE_LOOP ( 'NONE', ( #12, #275, #202, #205 ) ) ;
#103 = LENGTH_MEASURE_WITH_UNIT ( LENGTH_MEASURE( 0.02539999999999999897 ), #170 );
#104 = VERTEX_POINT ( 'NONE', #165 ) ;
#105 = ADVANCED_FACE ( 'NONE', ( #138 ), #66, .T. ) ;
#106 = VERTEX_POINT ( 'NONE', #214 ) ;
#107 = AXIS2_PLACEMENT_3D ( 'NONE', #247, #265, #137 ) ;
#108 = PRODUCT_DEFINITION_FORMATION_WITH_SPECIFIED_SOURCE ( 'ANY', '', #296, .NOT_KNOWN. ) ;
#109 = ADVANCED_FACE ( 'NONE', ( #113 ), #292, .T. ) ;
#110 = DIRECTION ( 'NONE',  ( -0.0000000000000000000, -0.0000000000000000000, -1.000000000000000000 ) ) ;
#111 = VERTEX_POINT ( 'NONE', #112 ) ;
#112 = CARTESIAN_POINT ( 'NONE',  ( -0.3124500000000002276, 0.0000000000000000000, 1.250000000000000000 ) ) ;
#113 = FACE_OUTER_BOUND ( 'NONE', #102, .T. ) ;
#114 = DIRECTION ( 'NONE',  ( 1.000000000000000000, 0.0000000000000000000, 0.0000000000000000000 ) ) ;
#115 = DIRECTION ( 'NONE',  ( 1.000000000000000000, 0.0000000000000000000, 0.0000000000000000000 ) ) ;
#116 = VECTOR ( 'NONE', #110, 39.37007874015748143 ) ;
#117 = MECHANICAL_DESIGN_GEOMETRIC_PRESENTATION_REPRESENTATION (  '', ( #78 ), #131 ) ;
#118 = CIRCLE ( 'NONE', #194, 0.2975000000000003197 ) ;
#119 = DIRECTION ( 'NONE',  ( -1.000000000000000000, 0.0000000000000000000, 0.0000000000000000000 ) ) ;
#120 = ADVANCED_FACE ( 'NONE', ( #68, #271 ), #93, .T. ) ;
#121 = FACE_OUTER_BOUND ( 'NONE', #55, .T. ) ;
#122 = FACE_OUTER_BOUND ( 'NONE', #311, .T. ) ;
#123 = ADVANCED_BREP_SHAPE_REPRESENTATION ( 'Micro_DM-625-290X', ( #322, #162 ), #257 ) ;
#124 = DIRECTION ( 'NONE',  ( 0.0000000000000000000, 0.0000000000000000000, 1.000000000000000000 ) ) ;
#125 =( CONVERSION_BASED_UNIT ( 'INCH', #254 ) LENGTH_UNIT ( ) NAMED_UNIT ( #75 ) );
#126 = ORIENTED_EDGE ( 'NONE', *, *, #266, .F. ) ;
#127 = LINE ( 'NONE', #287, #324 ) ;
#128 = LINE ( 'NONE', #258, #4 ) ;
#129 = DIRECTION ( 'NONE',  ( -0.0000000000000000000, -0.0000000000000000000, -1.000000000000000000 ) ) ;
#130 = CIRCLE ( 'NONE', #76, 0.007499999999999999722 ) ;
#131 =( GEOMETRIC_REPRESENTATION_CONTEXT ( 3 ) GLOBAL_UNCERTAINTY_ASSIGNED_CONTEXT ( ( #59 ) ) GLOBAL_UNIT_ASSIGNED_CONTEXT ( ( #101, #70, #46 ) ) REPRESENTATION_CONTEXT ( 'NONE', 'WORKASPACE' ) );
#132 = EDGE_LOOP ( 'NONE', ( #255, #238 ) ) ;
#133 = ORIENTED_EDGE ( 'NONE', *, *, #180, .F. ) ;
#134 = DIRECTION ( 'NONE',  ( -0.0000000000000000000, -0.0000000000000000000, -1.000000000000000000 ) ) ;
#135 = CIRCLE ( 'NONE', #207, 0.3124500000000002276 ) ;
#136 = CARTESIAN_POINT ( 'NONE',  ( 0.0000000000000000000, 0.0000000000000000000, 1.707404996040164512E-17 ) ) ;
#137 = DIRECTION ( 'NONE',  ( -1.000000000000000000, 0.0000000000000000000, 0.0000000000000000000 ) ) ;
#138 = FACE_OUTER_BOUND ( 'NONE', #87, .T. ) ;
#139 = CARTESIAN_POINT ( 'NONE',  ( -0.3125000000000000000, 0.0000000000000000000, 3.500000000000000000 ) ) ;
#140 = ORIENTED_EDGE ( 'NONE', *, *, #83, .T. ) ;
#141 = EDGE_CURVE ( 'NONE', #312, #106, #295, .T. ) ;
#142 = DIRECTION ( 'NONE',  ( -1.000000000000000000, 0.0000000000000000000, 0.0000000000000000000 ) ) ;
#143 = EDGE_CURVE ( 'NONE', #152, #280, #189, .T. ) ;
#144 = VERTEX_POINT ( 'NONE', #316 ) ;
#145 = AXIS2_PLACEMENT_3D ( 'NONE', #41, #42, #163 ) ;
#146 = CARTESIAN_POINT ( 'NONE',  ( 0.0000000000000000000, 0.0000000000000000000, 3.484999999999999432 ) ) ;
#147 = ORIENTED_EDGE ( 'NONE', *, *, #290, .F. ) ;
#148 = CARTESIAN_POINT ( 'NONE',  ( 0.0000000000000000000, 0.0000000000000000000, 1.250000000000000000 ) ) ;
#149 = CARTESIAN_POINT ( 'NONE',  ( 0.0000000000000000000, 0.0000000000000000000, 3.500000000000000000 ) ) ;
#150 = ORIENTED_EDGE ( 'NONE', *, *, #19, .F. ) ;
#151 = VECTOR ( 'NONE', #269, 39.37007874015748143 ) ;
#152 = VERTEX_POINT ( 'NONE', #16 ) ;
#153 = DIRECTION ( 'NONE',  ( 1.000000000000000000, 0.0000000000000000000, -0.0000000000000000000 ) ) ;
#154 = VERTEX_POINT ( 'NONE', #272 ) ;
#155 = AXIS2_PLACEMENT_3D ( 'NONE', #69, #297, #114 ) ;
#156 = PLANE ( 'NONE',  #273 ) ;
#157 = CARTESIAN_POINT ( 'NONE',  ( 0.0000000000000000000, 0.0000000000000000000, 3.500000000000000000 ) ) ;
#158 = DIRECTION ( 'NONE',  ( -0.0000000000000000000, -0.0000000000000000000, -1.000000000000000000 ) ) ;
#159 = EDGE_CURVE ( 'NONE', #154, #104, #233, .T. ) ;
#160 = FACE_OUTER_BOUND ( 'NONE', #174, .T. ) ;
#161 = CLOSED_SHELL ( 'NONE', ( #243, #220, #294, #198, #7, #45, #105, #120, #109, #326, #57 ) ) ;
#162 = AXIS2_PLACEMENT_3D ( 'NONE', #98, #124, #325 ) ;
#163 = DIRECTION ( 'NONE',  ( -1.000000000000000000, 0.0000000000000000000, 0.0000000000000000000 ) ) ;
#164 = DIRECTION ( 'NONE',  ( -0.0000000000000000000, -0.0000000000000000000, -1.000000000000000000 ) ) ;
#165 = CARTESIAN_POINT ( 'NONE',  ( 0.3125000000000000000, 3.827021247335478926E-17, 1.250000000000000000 ) ) ;
#166 = AXIS2_PLACEMENT_3D ( 'NONE', #244, #245, #14 ) ;
#167 = DIRECTION ( 'NONE',  ( 0.0000000000000000000, 0.0000000000000000000, 1.000000000000000000 ) ) ;
#168 = EDGE_LOOP ( 'NONE', ( #150, #82, #140, #184 ) ) ;
#169 = DIRECTION ( 'NONE',  ( 0.0000000000000000000, 0.0000000000000000000, -1.000000000000000000 ) ) ;
#170 =( LENGTH_UNIT ( ) NAMED_UNIT ( * ) SI_UNIT ( $, .METRE. ) );
#171 = DIRECTION ( 'NONE',  ( 1.000000000000000000, 0.0000000000000000000, 0.0000000000000000000 ) ) ;
#172 = ORIENTED_EDGE ( 'NONE', *, *, #213, .F. ) ;
#173 = CARTESIAN_POINT ( 'NONE',  ( -0.3124500000000000610, 3.826408923935906052E-17, 0.3049499999999988331 ) ) ;
#174 = EDGE_LOOP ( 'NONE', ( #284, #305, #35, #86 ) ) ;
#175 = SHAPE_DEFINITION_REPRESENTATION ( #22, #123 ) ;
#176 = ORIENTED_EDGE ( 'NONE', *, *, #37, .T. ) ;
#177 = FILL_AREA_STYLE_COLOUR ( '', #218 ) ;
#178 = VECTOR ( 'NONE', #61, 39.37007874015748143 ) ;
#179 = DIRECTION ( 'NONE',  ( 0.0000000000000000000, 0.0000000000000000000, 1.000000000000000000 ) ) ;
#180 = EDGE_CURVE ( 'NONE', #182, #106, #187, .T. ) ;
#181 = DIMENSIONAL_EXPONENTS ( 1.000000000000000000, 0.0000000000000000000, 0.0000000000000000000, 0.0000000000000000000, 0.0000000000000000000, 0.0000000000000000000, 0.0000000000000000000 ) ;
#182 = VERTEX_POINT ( 'NONE', #190 ) ;
#183 = FACE_OUTER_BOUND ( 'NONE', #132, .T. ) ;
#184 = ORIENTED_EDGE ( 'NONE', *, *, #281, .F. ) ;
#185 = PRODUCT_RELATED_PRODUCT_CATEGORY ( 'part', '', ( #296 ) ) ;
#186 = DIRECTION ( 'NONE',  ( -1.000000000000000000, 0.0000000000000000000, 0.0000000000000000000 ) ) ;
#187 = LINE ( 'NONE', #64, #315 ) ;
#188 = CARTESIAN_POINT ( 'NONE',  ( 0.0000000000000000000, 0.0000000000000000000, 1.250000000000000000 ) ) ;
#189 = CIRCLE ( 'NONE', #155, 0.2975000000000003197 ) ;
#190 = CARTESIAN_POINT ( 'NONE',  ( 0.3124500000000002276, 3.826408923935907901E-17, 1.250000000000000000 ) ) ;
#191 = CARTESIAN_POINT ( 'NONE',  ( 0.007499999999999999722, 0.0000000000000000000, 1.707404996040164512E-17 ) ) ;
#192 = FACE_OUTER_BOUND ( 'NONE', #29, .T. ) ;
#193 = AXIS2_PLACEMENT_3D ( 'NONE', #15, #169, #250 ) ;
#194 = AXIS2_PLACEMENT_3D ( 'NONE', #149, #167, #25 ) ;
#195 = VERTEX_POINT ( 'NONE', #240 ) ;
#196 = LENGTH_MEASURE_WITH_UNIT ( LENGTH_MEASURE( 0.02539999999999999897 ), #49 );
#197 = DIRECTION ( 'NONE',  ( -1.000000000000000000, 0.0000000000000000000, 0.0000000000000000000 ) ) ;
#198 = ADVANCED_FACE ( 'NONE', ( #270 ), #215, .T. ) ;
#199 = DIRECTION ( 'NONE',  ( -1.000000000000000000, 0.0000000000000000000, 0.0000000000000000000 ) ) ;
#200 = ORIENTED_EDGE ( 'NONE', *, *, #83, .F. ) ;
#201 = COLOUR_RGB ( '',0.7921568627450980005, 0.8196078431372548767, 0.9333333333333333481 ) ;
#202 = ORIENTED_EDGE ( 'NONE', *, *, #141, .T. ) ;
#203 = ORIENTED_EDGE ( 'NONE', *, *, #242, .F. ) ;
#204 = SURFACE_STYLE_USAGE ( .BOTH. , #27 ) ;
#205 = ORIENTED_EDGE ( 'NONE', *, *, #274, .T. ) ;
#206 = VECTOR ( 'NONE', #134, 39.37007874015748143 ) ;
#207 = AXIS2_PLACEMENT_3D ( 'NONE', #148, #304, #99 ) ;
#208 = UNCERTAINTY_MEASURE_WITH_UNIT (LENGTH_MEASURE( 1.000000000000000082E-05 ), #125, 'distance_accuracy_value', 'NONE');
#209 = CARTESIAN_POINT ( 'NONE',  ( 0.0000000000000000000, 0.0000000000000000000, 3.500000000000000000 ) ) ;
#210 = ORIENTED_EDGE ( 'NONE', *, *, #268, .F. ) ;
#211 = DIRECTION ( 'NONE',  ( 1.000000000000000000, 0.0000000000000000000, -0.0000000000000000000 ) ) ;
#212 = AXIS2_PLACEMENT_3D ( 'NONE', #77, #298, #26 ) ;
#213 = EDGE_CURVE ( 'NONE', #251, #106, #261, .T. ) ;
#214 = CARTESIAN_POINT ( 'NONE',  ( 0.3124500000000000610, 0.0000000000000000000, 0.3049499999999988331 ) ) ;
#215 = CYLINDRICAL_SURFACE ( 'NONE', #166, 0.3125000000000000000 ) ;
#216 = LINE ( 'NONE', #139, #206 ) ;
#217 = VECTOR ( 'NONE', #43, 39.37007874015748143 ) ;
#218 = COLOUR_RGB ( '',0.7921568627450980005, 0.8196078431372548767, 0.9333333333333333481 ) ;
#219 = LINE ( 'NONE', #291, #151 ) ;
#220 = ADVANCED_FACE ( 'NONE', ( #160 ), #282, .T. ) ;
#221 = SURFACE_STYLE_USAGE ( .BOTH. , #278 ) ;
#222 = CARTESIAN_POINT ( 'NONE',  ( -0.3125000000000000000, 0.0000000000000000000, 3.484999999999999432 ) ) ;
#223 = EDGE_CURVE ( 'NONE', #144, #251, #219, .T. ) ;
#224 = AXIS2_PLACEMENT_3D ( 'NONE', #253, #327, #142 ) ;
#225 = DIRECTION ( 'NONE',  ( -0.0000000000000000000, -0.0000000000000000000, -1.000000000000000000 ) ) ;
#226 = ORIENTED_EDGE ( 'NONE', *, *, #50, .F. ) ;
#227 =( CONVERSION_BASED_UNIT ( 'INCH', #196 ) LENGTH_UNIT ( ) NAMED_UNIT ( #181 ) );
#228 = PRESENTATION_STYLE_ASSIGNMENT (( #204 ) ) ;
#229 = AXIS2_PLACEMENT_3D ( 'NONE', #157, #179, #153 ) ;
#230 = PRESENTATION_LAYER_ASSIGNMENT (  '', '', ( #78 ) ) ;
#231 = CARTESIAN_POINT ( 'NONE',  ( 0.0000000000000000000, 0.0000000000000000000, 1.707404996040164512E-17 ) ) ;
#232 = FACE_OUTER_BOUND ( 'NONE', #264, .T. ) ;
#233 = CIRCLE ( 'NONE', #319, 0.3125000000000000000 ) ;
#234 = AXIS2_PLACEMENT_3D ( 'NONE', #18, #97, #199 ) ;
#235 = EDGE_LOOP ( 'NONE', ( #126, #36 ) ) ;
#236 = ORIENTED_EDGE ( 'NONE', *, *, #290, .T. ) ;
#237 = APPLICATION_CONTEXT ( 'automotive_design' ) ;
#238 = ORIENTED_EDGE ( 'NONE', *, *, #268, .T. ) ;
#239 = AXIS2_PLACEMENT_3D ( 'NONE', #293, #94, #241 ) ;
#240 = CARTESIAN_POINT ( 'NONE',  ( 0.3125000000000000000, 3.827021247335478926E-17, 3.484999999999999432 ) ) ;
#241 = DIRECTION ( 'NONE',  ( -1.000000000000000000, 0.0000000000000000000, 0.0000000000000000000 ) ) ;
#242 = EDGE_CURVE ( 'NONE', #195, #263, #85, .T. ) ;
#243 = ADVANCED_FACE ( 'NONE', ( #121 ), #53, .T. ) ;
#244 = CARTESIAN_POINT ( 'NONE',  ( 0.0000000000000000000, 0.0000000000000000000, 3.500000000000000000 ) ) ;
#245 = DIRECTION ( 'NONE',  ( -0.0000000000000000000, -0.0000000000000000000, -1.000000000000000000 ) ) ;
#246 =( GEOMETRIC_REPRESENTATION_CONTEXT ( 3 ) GLOBAL_UNCERTAINTY_ASSIGNED_CONTEXT ( ( #2 ) ) GLOBAL_UNIT_ASSIGNED_CONTEXT ( ( #227, #5, #252 ) ) REPRESENTATION_CONTEXT ( 'NONE', 'WORKASPACE' ) );
#247 = CARTESIAN_POINT ( 'NONE',  ( 0.0000000000000000000, 0.0000000000000000000, 3.500000000000000000 ) ) ;
#248 = FILL_AREA_STYLE ('',( #3 ) ) ;
#249 = DIMENSIONAL_EXPONENTS ( 1.000000000000000000, 0.0000000000000000000, 0.0000000000000000000, 0.0000000000000000000, 0.0000000000000000000, 0.0000000000000000000, 0.0000000000000000000 ) ;
#250 = DIRECTION ( 'NONE',  ( 1.000000000000000000, 0.0000000000000000000, 0.0000000000000000000 ) ) ;
#251 = VERTEX_POINT ( 'NONE', #173 ) ;
#252 =( NAMED_UNIT ( * ) SI_UNIT ( $, .STERADIAN. ) SOLID_ANGLE_UNIT ( ) );
#253 = CARTESIAN_POINT ( 'NONE',  ( 0.0000000000000000000, 0.0000000000000000000, 3.500000000000000000 ) ) ;
#254 = LENGTH_MEASURE_WITH_UNIT ( LENGTH_MEASURE( 0.02539999999999999897 ), #300 );
#255 = ORIENTED_EDGE ( 'NONE', *, *, #143, .T. ) ;
#256 = APPLICATION_PROTOCOL_DEFINITION ( 'draft international standard', 'automotive_design', 1998, #288 ) ;
#257 =( GEOMETRIC_REPRESENTATION_CONTEXT ( 3 ) GLOBAL_UNCERTAINTY_ASSIGNED_CONTEXT ( ( #208 ) ) GLOBAL_UNIT_ASSIGNED_CONTEXT ( ( #125, #6, #279 ) ) REPRESENTATION_CONTEXT ( 'NONE', 'WORKASPACE' ) );
#258 = CARTESIAN_POINT ( 'NONE',  ( 0.2975000000000003197, 3.643324227463378817E-17, 3.500000000000000000 ) ) ;
#259 = CARTESIAN_POINT ( 'NONE',  ( -0.3124500000000001165, 0.0000000000000000000, 0.0000000000000000000 ) ) ;
#260 = ORIENTED_EDGE ( 'NONE', *, *, #34, .F. ) ;
#261 = CIRCLE ( 'NONE', #299, 0.3124500000000000610 ) ;
#262 = STYLED_ITEM ( 'NONE', ( #228 ), #123 ) ;
#263 = VERTEX_POINT ( 'NONE', #222 ) ;
#264 = EDGE_LOOP ( 'NONE', ( #47, #54 ) ) ;
#265 = DIRECTION ( 'NONE',  ( 0.0000000000000000000, 0.0000000000000000000, -1.000000000000000000 ) ) ;
#266 = EDGE_CURVE ( 'NONE', #111, #182, #135, .T. ) ;
#267 = AXIS2_PLACEMENT_3D ( 'NONE', #67, #164, #186 ) ;
#268 = EDGE_CURVE ( 'NONE', #280, #152, #118, .T. ) ;
#269 = DIRECTION ( 'NONE',  ( -0.7071067811865489050, 8.659560562354950115E-17, 0.7071067811865461294 ) ) ;
#270 = FACE_OUTER_BOUND ( 'NONE', #33, .T. ) ;
#271 = FACE_OUTER_BOUND ( 'NONE', #48, .T. ) ;
#272 = CARTESIAN_POINT ( 'NONE',  ( -0.3125000000000000000, 0.0000000000000000000, 1.250000000000000000 ) ) ;
#273 = AXIS2_PLACEMENT_3D ( 'NONE', #44, #65, #211 ) ;
#274 = EDGE_CURVE ( 'NONE', #106, #251, #56, .T. ) ;
#275 = ORIENTED_EDGE ( 'NONE', *, *, #28, .F. ) ;
#276 = CARTESIAN_POINT ( 'NONE',  ( 0.0000000000000000000, 0.0000000000000000000, 0.3049499999999988331 ) ) ;
#277 = ORIENTED_EDGE ( 'NONE', *, *, #37, .F. ) ;
#278 = SURFACE_SIDE_STYLE ('',( #21 ) ) ;
#279 =( NAMED_UNIT ( * ) SI_UNIT ( $, .STERADIAN. ) SOLID_ANGLE_UNIT ( ) );
#280 = VERTEX_POINT ( 'NONE', #321 ) ;
#281 = EDGE_CURVE ( 'NONE', #104, #154, #307, .T. ) ;
#282 = CONICAL_SURFACE ( 'NONE', #30, 0.007499999999999999722, 0.7853981633974502774 ) ;
#283 = ORIENTED_EDGE ( 'NONE', *, *, #50, .T. ) ;
#284 = ORIENTED_EDGE ( 'NONE', *, *, #95, .F. ) ;
#285 = LINE ( 'NONE', #259, #178 ) ;
#286 = CIRCLE ( 'NONE', #10, 0.3125000000000000000 ) ;
#287 = CARTESIAN_POINT ( 'NONE',  ( -0.2975000000000003197, 0.0000000000000000000, 3.500000000000000000 ) ) ;
#288 = APPLICATION_CONTEXT ( 'automotive_design' ) ;
#289 = DIRECTION ( 'NONE',  ( -0.0000000000000000000, -0.0000000000000000000, -1.000000000000000000 ) ) ;
#290 = EDGE_CURVE ( 'NONE', #263, #195, #286, .T. ) ;
#291 = CARTESIAN_POINT ( 'NONE',  ( -0.007499999999999999722, 9.184850993605147975E-19, 1.707404996040164512E-17 ) ) ;
#292 = CONICAL_SURFACE ( 'NONE', #39, 0.007499999999999999722, 0.7853981633974502774 ) ;
#293 = CARTESIAN_POINT ( 'NONE',  ( 0.0000000000000000000, 0.0000000000000000000, 1.250000000000000000 ) ) ;
#294 = ADVANCED_FACE ( 'NONE', ( #192 ), #96, .T. ) ;
#295 = LINE ( 'NONE', #191, #217 ) ;
#296 = PRODUCT ( 'Micro_DM-625-290X', 'Micro_DM-625-290X', '', ( #1 ) ) ;
#297 = DIRECTION ( 'NONE',  ( 0.0000000000000000000, 0.0000000000000000000, 1.000000000000000000 ) ) ;
#298 = DIRECTION ( 'NONE',  ( -0.0000000000000000000, -0.0000000000000000000, -1.000000000000000000 ) ) ;
#299 = AXIS2_PLACEMENT_3D ( 'NONE', #318, #17, #119 ) ;
#300 =( LENGTH_UNIT ( ) NAMED_UNIT ( * ) SI_UNIT ( $, .METRE. ) );
#301 = ORIENTED_EDGE ( 'NONE', *, *, #159, .T. ) ;
#302 = CARTESIAN_POINT ( 'NONE',  ( 0.007499999999999999722, 0.0000000000000000000, 1.707404996040164512E-17 ) ) ;
#303 = ORIENTED_EDGE ( 'NONE', *, *, #274, .F. ) ;
#304 = DIRECTION ( 'NONE',  ( -0.0000000000000000000, -0.0000000000000000000, -1.000000000000000000 ) ) ;
#305 = ORIENTED_EDGE ( 'NONE', *, *, #223, .T. ) ;
#306 = CIRCLE ( 'NONE', #267, 0.007499999999999999722 ) ;
#307 = CIRCLE ( 'NONE', #212, 0.3125000000000000000 ) ;
#308 = DIRECTION ( 'NONE',  ( -1.000000000000000000, 0.0000000000000000000, 0.0000000000000000000 ) ) ;
#309 = PRODUCT_DEFINITION ( 'UNKNOWN', '', #108, #310 ) ;
#310 = PRODUCT_DEFINITION_CONTEXT ( 'detailed design', #237, 'design' ) ;
#311 = EDGE_LOOP ( 'NONE', ( #133, #72, #283, #303 ) ) ;
#312 = VERTEX_POINT ( 'NONE', #302 ) ;
#313 = ORIENTED_EDGE ( 'NONE', *, *, #266, .T. ) ;
#314 = DIRECTION ( 'NONE',  ( -1.000000000000000000, 0.0000000000000000000, 0.0000000000000000000 ) ) ;
#315 = VECTOR ( 'NONE', #158, 39.37007874015748143 ) ;
#316 = CARTESIAN_POINT ( 'NONE',  ( -0.007499999999999999722, 1.959128716935978978E-17, 1.707404996040164512E-17 ) ) ;
#317 = DIRECTION ( 'NONE',  ( -1.000000000000000000, 0.0000000000000000000, 0.0000000000000000000 ) ) ;
#318 = CARTESIAN_POINT ( 'NONE',  ( 0.0000000000000000000, 0.0000000000000000000, 0.3049499999999988331 ) ) ;
#319 = AXIS2_PLACEMENT_3D ( 'NONE', #188, #289, #317 ) ;
#320 = CARTESIAN_POINT ( 'NONE',  ( 0.0000000000000000000, 0.0000000000000000000, 1.707404996040164512E-17 ) ) ;
#321 = CARTESIAN_POINT ( 'NONE',  ( 0.2975000000000003197, 3.735172737399428256E-17, 3.500000000000000000 ) ) ;
#322 = MANIFOLD_SOLID_BREP ( 'Cut-Revolve4', #161 ) ;
#323 = CYLINDRICAL_SURFACE ( 'NONE', #234, 0.3124500000000001165 ) ;
#324 = VECTOR ( 'NONE', #63, 39.37007874015748143 ) ;
#325 = DIRECTION ( 'NONE',  ( 1.000000000000000000, 0.0000000000000000000, 0.0000000000000000000 ) ) ;
#326 = ADVANCED_FACE ( 'NONE', ( #122 ), #323, .T. ) ;
#327 = DIRECTION ( 'NONE',  ( 0.0000000000000000000, 0.0000000000000000000, -1.000000000000000000 ) ) ;
#328 = ORIENTED_EDGE ( 'NONE', *, *, #180, .T. ) ;
#329 = DIRECTION ( 'NONE',  ( 0.0000000000000000000, 0.0000000000000000000, -1.000000000000000000 ) ) ;
ENDSEC;
END-ISO-10303-21;
