ISO-10303-21;
HEADER;
FILE_DESCRIPTION (( 'STEP AP214' ),
    '1' );
FILE_NAME ('83191.STEP',
    '2023-06-23T08:09:09',
    ( '' ),
    ( '' ),
    'SwSTEP 2.0',
    'SolidWorks 2023',
    '' );
FILE_SCHEMA (( 'AUTOMOTIVE_DESIGN' ));
ENDSEC;

DATA;
#1 = DIRECTION ( 'NONE',  ( -1.000000000000000000, 3.628583108584750472E-17, 0.000000000000000000 ) ) ;
#2 = VECTOR ( 'NONE', #100, 39.37007874015748143 ) ;
#3 = AXIS2_PLACEMENT_3D ( 'NONE', #253, #54, #5 ) ;
#4 = EDGE_CURVE ( 'NONE', #16, #162, #160, .T. ) ;
#5 = DIRECTION ( 'NONE',  ( 1.000000000000000000, 0.000000000000000000, 0.000000000000000000 ) ) ;
#6 = COLOUR_RGB ( '',1.000000000000000000, 0.000000000000000000, 0.000000000000000000 ) ;
#7 = CARTESIAN_POINT ( 'NONE',  ( 0.000000000000000000, 0.000000000000000000, 0.000000000000000000 ) ) ;
#8 =( NAMED_UNIT ( * ) SI_UNIT ( $, .STERADIAN. ) SOLID_ANGLE_UNIT ( ) );
#9 =( CONVERSION_BASED_UNIT ( 'INCH', #166 ) LENGTH_UNIT ( ) NAMED_UNIT ( #56 ) );
#10 = COLOUR_RGB ( '',1.000000000000000000, 0.000000000000000000, 0.000000000000000000 ) ;
#11 = ORIENTED_EDGE ( 'NONE', *, *, #26, .T. ) ;
#12 = PRESENTATION_LAYER_ASSIGNMENT (  '', '', ( #134 ) ) ;
#13 = CARTESIAN_POINT ( 'NONE',  ( 0.09375000000000001388, 2.000000000000000000, 1.148106374200643401E-17 ) ) ;
#14 = SURFACE_STYLE_USAGE ( .BOTH. , #18 ) ;
#15 = DIRECTION ( 'NONE',  ( -0.000000000000000000, -1.000000000000000000, -0.000000000000000000 ) ) ;
#16 = VERTEX_POINT ( 'NONE', #211 ) ;
#17 = LENGTH_MEASURE_WITH_UNIT ( LENGTH_MEASURE( 0.02539999999999999897 ), #249 );
#18 = SURFACE_SIDE_STYLE ('',( #131 ) ) ;
#19 = CARTESIAN_POINT ( 'NONE',  ( 0.000000000000000000, 0.3125000000000000000, 0.000000000000000000 ) ) ;
#20 = COLOUR_RGB ( '',1.000000000000000000, 0.000000000000000000, 0.000000000000000000 ) ;
#21 = AXIS2_PLACEMENT_3D ( 'NONE', #53, #219, #84 ) ;
#22 = VERTEX_POINT ( 'NONE', #114 ) ;
#23 = DIRECTION ( 'NONE',  ( -0.000000000000000000, -1.000000000000000000, -0.000000000000000000 ) ) ;
#24 =( LENGTH_UNIT ( ) NAMED_UNIT ( * ) SI_UNIT ( $, .METRE. ) );
#25 = CYLINDRICAL_SURFACE ( 'NONE', #262, 0.09374999999999997224 ) ;
#26 = EDGE_CURVE ( 'NONE', #107, #232, #218, .T. ) ;
#27 = MECHANICAL_DESIGN_GEOMETRIC_PRESENTATION_REPRESENTATION (  '', ( #134 ), #128 ) ;
#28 = PRODUCT_CONTEXT ( 'NONE', #129, 'mechanical' ) ;
#29 = FACE_OUTER_BOUND ( 'NONE', #165, .T. ) ;
#30 = EDGE_LOOP ( 'NONE', ( #161, #118, #203, #180 ) ) ;
#31 =( CONVERSION_BASED_UNIT ( 'INCH', #35 ) LENGTH_UNIT ( ) NAMED_UNIT ( #141 ) );
#32 = PRESENTATION_STYLE_ASSIGNMENT (( #292 ) ) ;
#33 = FILL_AREA_STYLE ('',( #45 ) ) ;
#34 = ADVANCED_FACE ( 'NONE', ( #233 ), #25, .T. ) ;
#35 = LENGTH_MEASURE_WITH_UNIT ( LENGTH_MEASURE( 0.02539999999999999897 ), #189 );
#36 = STYLED_ITEM ( 'NONE', ( #83 ), #51 ) ;
#37 = ORIENTED_EDGE ( 'NONE', *, *, #4, .T. ) ;
#38 =( NAMED_UNIT ( * ) SI_UNIT ( $, .STERADIAN. ) SOLID_ANGLE_UNIT ( ) );
#39 = DIRECTION ( 'NONE',  ( 0.000000000000000000, 0.000000000000000000, -1.000000000000000000 ) ) ;
#40 = DIRECTION ( 'NONE',  ( 3.628583108584750472E-17, 1.000000000000000000, -0.000000000000000000 ) ) ;
#41 = PRESENTATION_LAYER_ASSIGNMENT (  '', '', ( #48 ) ) ;
#42 = MANIFOLD_SOLID_BREP ( 'Revolve - Tool Body (Straight Shanked)', #299 ) ;
#43 = ORIENTED_EDGE ( 'NONE', *, *, #66, .F. ) ;
#44 =( NAMED_UNIT ( * ) PLANE_ANGLE_UNIT ( ) SI_UNIT ( $, .RADIAN. ) );
#45 = FILL_AREA_STYLE_COLOUR ( '', #245 ) ;
#46 = ORIENTED_EDGE ( 'NONE', *, *, #133, .F. ) ;
#47 = DIRECTION ( 'NONE',  ( -0.000000000000000000, -1.000000000000000000, -0.000000000000000000 ) ) ;
#48 = STYLED_ITEM ( 'NONE', ( #32 ), #60 ) ;
#49 =( GEOMETRIC_REPRESENTATION_CONTEXT ( 3 ) GLOBAL_UNCERTAINTY_ASSIGNED_CONTEXT ( ( #91 ) ) GLOBAL_UNIT_ASSIGNED_CONTEXT ( ( #309, #44, #38 ) ) REPRESENTATION_CONTEXT ( 'NONE', 'WORKASPACE' ) );
#50 = PRESENTATION_STYLE_ASSIGNMENT (( #163 ) ) ;
#51 = ADVANCED_FACE ( 'NONE', ( #221 ), #168, .T. ) ;
#52 = LENGTH_MEASURE_WITH_UNIT ( LENGTH_MEASURE( 0.02539999999999999897 ), #237 );
#53 = CARTESIAN_POINT ( 'NONE',  ( 0.000000000000000000, 0.000000000000000000, 0.000000000000000000 ) ) ;
#54 = DIRECTION ( 'NONE',  ( 0.000000000000000000, 0.000000000000000000, 1.000000000000000000 ) ) ;
#55 =( NAMED_UNIT ( * ) SI_UNIT ( $, .STERADIAN. ) SOLID_ANGLE_UNIT ( ) );
#56 = DIMENSIONAL_EXPONENTS ( 1.000000000000000000, 0.000000000000000000, 0.000000000000000000, 0.000000000000000000, 0.000000000000000000, 0.000000000000000000, 0.000000000000000000 ) ;
#57 = AXIS2_PLACEMENT_3D ( 'NONE', #258, #254, #199 ) ;
#58 =( CONVERSION_BASED_UNIT ( 'INCH', #52 ) LENGTH_UNIT ( ) NAMED_UNIT ( #82 ) );
#59 = SURFACE_STYLE_FILL_AREA ( #142 ) ;
#60 = ADVANCED_FACE ( 'NONE', ( #29 ), #188, .T. ) ;
#61 =( NAMED_UNIT ( * ) SI_UNIT ( $, .STERADIAN. ) SOLID_ANGLE_UNIT ( ) );
#62 = PLANE ( 'NONE',  #159 ) ;
#63 = CARTESIAN_POINT ( 'NONE',  ( -0.09375000000000001388, 0.3125000000000000000, 0.000000000000000000 ) ) ;
#64 = LINE ( 'NONE', #195, #178 ) ;
#65 = MECHANICAL_DESIGN_GEOMETRIC_PRESENTATION_REPRESENTATION (  '', ( #263 ), #175 ) ;
#66 = EDGE_CURVE ( 'NONE', #78, #107, #186, .T. ) ;
#67 = AXIS2_PLACEMENT_3D ( 'NONE', #222, #172, #275 ) ;
#68 = DIRECTION ( 'NONE',  ( 3.628583108584750472E-17, 1.000000000000000000, -0.000000000000000000 ) ) ;
#69 = SURFACE_STYLE_FILL_AREA ( #198 ) ;
#70 = DIRECTION ( 'NONE',  ( -1.000000000000000000, 0.000000000000000000, 0.000000000000000000 ) ) ;
#71 = CARTESIAN_POINT ( 'NONE',  ( 0.000000000000000000, 0.3125000000000000000, 0.000000000000000000 ) ) ;
#72 =( NAMED_UNIT ( * ) SI_UNIT ( $, .STERADIAN. ) SOLID_ANGLE_UNIT ( ) );
#73 =( GEOMETRIC_REPRESENTATION_CONTEXT ( 3 ) GLOBAL_UNCERTAINTY_ASSIGNED_CONTEXT ( ( #77 ) ) GLOBAL_UNIT_ASSIGNED_CONTEXT ( ( #246, #117, #55 ) ) REPRESENTATION_CONTEXT ( 'NONE', 'WORKASPACE' ) );
#74 = DIRECTION ( 'NONE',  ( -1.000000000000000000, 0.000000000000000000, 0.000000000000000000 ) ) ;
#75 = AXIS2_PLACEMENT_3D ( 'NONE', #152, #40, #70 ) ;
#76 = SURFACE_SIDE_STYLE ('',( #266 ) ) ;
#77 = UNCERTAINTY_MEASURE_WITH_UNIT (LENGTH_MEASURE( 1.000000000000000082E-05 ), #246, 'distance_accuracy_value', 'NONE');
#78 = VERTEX_POINT ( 'NONE', #271 ) ;
#79 = SURFACE_SIDE_STYLE ('',( #183 ) ) ;
#80 = PRESENTATION_LAYER_ASSIGNMENT (  '', '', ( #194 ) ) ;
#81 = PRESENTATION_STYLE_ASSIGNMENT (( #103 ) ) ;
#82 = DIMENSIONAL_EXPONENTS ( 1.000000000000000000, 0.000000000000000000, 0.000000000000000000, 0.000000000000000000, 0.000000000000000000, 0.000000000000000000, 0.000000000000000000 ) ;
#83 = PRESENTATION_STYLE_ASSIGNMENT (( #193 ) ) ;
#84 = DIRECTION ( 'NONE',  ( 0.000000000000000000, 0.000000000000000000, -1.000000000000000000 ) ) ;
#85 = FACE_OUTER_BOUND ( 'NONE', #177, .T. ) ;
#86 = PRODUCT_RELATED_PRODUCT_CATEGORY ( 'part', '', ( #302 ) ) ;
#87 = MECHANICAL_DESIGN_GEOMETRIC_PRESENTATION_REPRESENTATION (  '', ( #194 ), #278 ) ;
#88 = DIRECTION ( 'NONE',  ( -3.628583108584750472E-17, -1.000000000000000000, 0.000000000000000000 ) ) ;
#89 = VERTEX_POINT ( 'NONE', #63 ) ;
#90 = DIRECTION ( 'NONE',  ( 0.000000000000000000, 0.000000000000000000, -1.000000000000000000 ) ) ;
#91 = UNCERTAINTY_MEASURE_WITH_UNIT (LENGTH_MEASURE( 1.000000000000000082E-05 ), #309, 'distance_accuracy_value', 'NONE');
#92 = FILL_AREA_STYLE ('',( #205 ) ) ;
#93 = AXIS2_PLACEMENT_3D ( 'NONE', #282, #176, #154 ) ;
#94 = ORIENTED_EDGE ( 'NONE', *, *, #156, .F. ) ;
#95 = ORIENTED_EDGE ( 'NONE', *, *, #256, .T. ) ;
#96 = APPLICATION_PROTOCOL_DEFINITION ( 'draft international standard', 'automotive_design', 1998, #171 ) ;
#97 = CIRCLE ( 'NONE', #93, 0.09375000000000001388 ) ;
#98 = EDGE_LOOP ( 'NONE', ( #157, #11 ) ) ;
#99 = ORIENTED_EDGE ( 'NONE', *, *, #4, .F. ) ;
#100 = DIRECTION ( 'NONE',  ( 3.628583108584750472E-17, 1.000000000000000000, -0.000000000000000000 ) ) ;
#101 = AXIS2_PLACEMENT_3D ( 'NONE', #71, #47, #39 ) ;
#102 =( LENGTH_UNIT ( ) NAMED_UNIT ( * ) SI_UNIT ( $, .METRE. ) );
#103 = SURFACE_STYLE_USAGE ( .BOTH. , #298 ) ;
#104 = CARTESIAN_POINT ( 'NONE',  ( 0.000000000000000000, 0.000000000000000000, 0.000000000000000000 ) ) ;
#105 = APPLICATION_PROTOCOL_DEFINITION ( 'draft international standard', 'automotive_design', 1998, #129 ) ;
#106 =( LENGTH_UNIT ( ) NAMED_UNIT ( * ) SI_UNIT ( $, .METRE. ) );
#107 = VERTEX_POINT ( 'NONE', #13 ) ;
#108 = AXIS2_PLACEMENT_3D ( 'NONE', #109, #68, #1 ) ;
#109 = CARTESIAN_POINT ( 'NONE',  ( 6.171850957456205586E-35, 0.3125000000000000000, 0.000000000000000000 ) ) ;
#110 = CARTESIAN_POINT ( 'NONE',  ( 0.000000000000000000, 0.3125000000000000000, 0.000000000000000000 ) ) ;
#111 = ORIENTED_EDGE ( 'NONE', *, *, #174, .T. ) ;
#112 = CARTESIAN_POINT ( 'NONE',  ( -0.09374999999999990286, 2.000000000000000000, 0.000000000000000000 ) ) ;
#113 = CARTESIAN_POINT ( 'NONE',  ( 0.000000000000000000, 0.000000000000000000, 0.000000000000000000 ) ) ;
#114 = CARTESIAN_POINT ( 'NONE',  ( 1.148106374200643863E-17, 0.3125000000000000000, 0.09375000000000001388 ) ) ;
#115 = ADVANCED_BREP_SHAPE_REPRESENTATION ( '83191', ( #250, #42, #3 ), #49 ) ;
#116 = DIMENSIONAL_EXPONENTS ( 1.000000000000000000, 0.000000000000000000, 0.000000000000000000, 0.000000000000000000, 0.000000000000000000, 0.000000000000000000, 0.000000000000000000 ) ;
#117 =( NAMED_UNIT ( * ) PLANE_ANGLE_UNIT ( ) SI_UNIT ( $, .RADIAN. ) );
#118 = ORIENTED_EDGE ( 'NONE', *, *, #66, .T. ) ;
#119 = DIRECTION ( 'NONE',  ( -0.000000000000000000, -1.000000000000000000, -0.000000000000000000 ) ) ;
#120 = EDGE_CURVE ( 'NONE', #22, #16, #207, .T. ) ;
#121 = CARTESIAN_POINT ( 'NONE',  ( -0.09374999999999987510, 2.000000000000000000, 0.000000000000000000 ) ) ;
#122 = DIMENSIONAL_EXPONENTS ( 1.000000000000000000, 0.000000000000000000, 0.000000000000000000, 0.000000000000000000, 0.000000000000000000, 0.000000000000000000, 0.000000000000000000 ) ;
#123 = AXIS2_PLACEMENT_3D ( 'NONE', #19, #255, #147 ) ;
#124 = EDGE_LOOP ( 'NONE', ( #143, #307 ) ) ;
#125 = FACE_OUTER_BOUND ( 'NONE', #124, .T. ) ;
#126 = ADVANCED_FACE ( 'NONE', ( #300 ), #283, .F. ) ;
#127 = PRESENTATION_LAYER_ASSIGNMENT (  '', '', ( #301 ) ) ;
#128 =( GEOMETRIC_REPRESENTATION_CONTEXT ( 3 ) GLOBAL_UNCERTAINTY_ASSIGNED_CONTEXT ( ( #210 ) ) GLOBAL_UNIT_ASSIGNED_CONTEXT ( ( #58, #140, #72 ) ) REPRESENTATION_CONTEXT ( 'NONE', 'WORKASPACE' ) );
#129 = APPLICATION_CONTEXT ( 'automotive_design' ) ;
#130 =( NAMED_UNIT ( * ) PLANE_ANGLE_UNIT ( ) SI_UNIT ( $, .RADIAN. ) );
#131 = SURFACE_STYLE_FILL_AREA ( #33 ) ;
#132 = LINE ( 'NONE', #112, #270 ) ;
#133 = EDGE_CURVE ( 'NONE', #89, #78, #303, .T. ) ;
#134 = STYLED_ITEM ( 'NONE', ( #50 ), #250 ) ;
#135 = PRODUCT_DEFINITION ( 'UNKNOWN', '', #251, #286 ) ;
#136 = FILL_AREA_STYLE_COLOUR ( '', #6 ) ;
#137 = FILL_AREA_STYLE_COLOUR ( '', #272 ) ;
#138 = CARTESIAN_POINT ( 'NONE',  ( 0.000000000000000000, 0.000000000000000000, -0.09375000000000001388 ) ) ;
#139 = DIRECTION ( 'NONE',  ( 0.000000000000000000, 0.000000000000000000, -1.000000000000000000 ) ) ;
#140 =( NAMED_UNIT ( * ) PLANE_ANGLE_UNIT ( ) SI_UNIT ( $, .RADIAN. ) );
#141 = DIMENSIONAL_EXPONENTS ( 1.000000000000000000, 0.000000000000000000, 0.000000000000000000, 0.000000000000000000, 0.000000000000000000, 0.000000000000000000, 0.000000000000000000 ) ;
#142 = FILL_AREA_STYLE ('',( #196 ) ) ;
#143 = ORIENTED_EDGE ( 'NONE', *, *, #256, .F. ) ;
#144 =( NAMED_UNIT ( * ) SI_UNIT ( $, .STERADIAN. ) SOLID_ANGLE_UNIT ( ) );
#145 = AXIS2_PLACEMENT_3D ( 'NONE', #226, #88, #274 ) ;
#146 = CYLINDRICAL_SURFACE ( 'NONE', #67, 0.09374999999999997224 ) ;
#147 = DIRECTION ( 'NONE',  ( 0.000000000000000000, -0.000000000000000000, 1.000000000000000000 ) ) ;
#148 = FILL_AREA_STYLE_COLOUR ( '', #20 ) ;
#149 = CLOSED_SHELL ( 'NONE', ( #51, #229, #60, #281 ) ) ;
#150 = EDGE_CURVE ( 'NONE', #162, #167, #164, .T. ) ;
#151 = CARTESIAN_POINT ( 'NONE',  ( 0.000000000000000000, 0.000000000000000000, -0.09375000000000001388 ) ) ;
#152 = CARTESIAN_POINT ( 'NONE',  ( 0.000000000000000000, 0.3125000000000000000, 0.000000000000000000 ) ) ;
#153 = DIRECTION ( 'NONE',  ( 3.628583108584750472E-17, 1.000000000000000000, -0.000000000000000000 ) ) ;
#154 = DIRECTION ( 'NONE',  ( -1.000000000000000000, 0.000000000000000000, 0.000000000000000000 ) ) ;
#155 = EDGE_LOOP ( 'NONE', ( #95, #259, #204, #99 ) ) ;
#156 = EDGE_CURVE ( 'NONE', #78, #89, #97, .T. ) ;
#157 = ORIENTED_EDGE ( 'NONE', *, *, #192, .T. ) ;
#158 =( CONVERSION_BASED_UNIT ( 'INCH', #209 ) LENGTH_UNIT ( ) NAMED_UNIT ( #241 ) );
#159 = AXIS2_PLACEMENT_3D ( 'NONE', #104, #243, #296 ) ;
#160 = LINE ( 'NONE', #138, #293 ) ;
#161 = ORIENTED_EDGE ( 'NONE', *, *, #133, .T. ) ;
#162 = VERTEX_POINT ( 'NONE', #151 ) ;
#163 = SURFACE_STYLE_USAGE ( .BOTH. , #79 ) ;
#164 = CIRCLE ( 'NONE', #289, 0.09375000000000001388 ) ;
#165 = EDGE_LOOP ( 'NONE', ( #290, #265, #37, #182 ) ) ;
#166 = LENGTH_MEASURE_WITH_UNIT ( LENGTH_MEASURE( 0.02539999999999999897 ), #102 );
#167 = VERTEX_POINT ( 'NONE', #260 ) ;
#168 = CYLINDRICAL_SURFACE ( 'NONE', #214, 0.09375000000000001388 ) ;
#169 = SURFACE_STYLE_FILL_AREA ( #224 ) ;
#170 = PLANE ( 'NONE',  #123 ) ;
#171 = APPLICATION_CONTEXT ( 'automotive_design' ) ;
#172 = DIRECTION ( 'NONE',  ( 3.628583108584750472E-17, 1.000000000000000000, -0.000000000000000000 ) ) ;
#173 =( GEOMETRIC_REPRESENTATION_CONTEXT ( 3 ) GLOBAL_UNCERTAINTY_ASSIGNED_CONTEXT ( ( #227 ) ) GLOBAL_UNIT_ASSIGNED_CONTEXT ( ( #158, #130, #144 ) ) REPRESENTATION_CONTEXT ( 'NONE', 'WORKASPACE' ) );
#174 = EDGE_CURVE ( 'NONE', #89, #232, #132, .T. ) ;
#175 =( GEOMETRIC_REPRESENTATION_CONTEXT ( 3 ) GLOBAL_UNCERTAINTY_ASSIGNED_CONTEXT ( ( #306 ) ) GLOBAL_UNIT_ASSIGNED_CONTEXT ( ( #31, #216, #8 ) ) REPRESENTATION_CONTEXT ( 'NONE', 'WORKASPACE' ) );
#176 = DIRECTION ( 'NONE',  ( 3.628583108584750472E-17, 1.000000000000000000, -0.000000000000000000 ) ) ;
#177 = EDGE_LOOP ( 'NONE', ( #43, #268, #111, #295 ) ) ;
#178 = VECTOR ( 'NONE', #119, 39.37007874015748143 ) ;
#179 =( NAMED_UNIT ( * ) SI_UNIT ( $, .STERADIAN. ) SOLID_ANGLE_UNIT ( ) );
#180 = ORIENTED_EDGE ( 'NONE', *, *, #174, .F. ) ;
#181 = DIRECTION ( 'NONE',  ( 3.628583108584750472E-17, 1.000000000000000000, -0.000000000000000000 ) ) ;
#182 = ORIENTED_EDGE ( 'NONE', *, *, #244, .F. ) ;
#183 = SURFACE_STYLE_FILL_AREA ( #92 ) ;
#184 = CIRCLE ( 'NONE', #225, 0.09375000000000001388 ) ;
#185 = DIRECTION ( 'NONE',  ( 3.628583108584750472E-17, 1.000000000000000000, -0.000000000000000000 ) ) ;
#186 = LINE ( 'NONE', #215, #2 ) ;
#187 = SHAPE_DEFINITION_REPRESENTATION ( #212, #115 ) ;
#188 = CYLINDRICAL_SURFACE ( 'NONE', #21, 0.09375000000000001388 ) ;
#189 =( LENGTH_UNIT ( ) NAMED_UNIT ( * ) SI_UNIT ( $, .METRE. ) );
#190 = MECHANICAL_DESIGN_GEOMETRIC_PRESENTATION_REPRESENTATION (  '', ( #301 ), #173 ) ;
#191 = COLOUR_RGB ( '',0.7921568627450980005, 0.8196078431372548767, 0.9333333333333333481 ) ;
#192 = EDGE_CURVE ( 'NONE', #232, #107, #294, .T. ) ;
#193 = SURFACE_STYLE_USAGE ( .BOTH. , #76 ) ;
#194 = STYLED_ITEM ( 'NONE', ( #230 ), #229 ) ;
#195 = CARTESIAN_POINT ( 'NONE',  ( 1.148106374200643863E-17, 0.000000000000000000, 0.09375000000000001388 ) ) ;
#196 = FILL_AREA_STYLE_COLOUR ( '', #10 ) ;
#197 = ADVANCED_FACE ( 'NONE', ( #231 ), #223, .F. ) ;
#198 = FILL_AREA_STYLE ('',( #137 ) ) ;
#199 = DIRECTION ( 'NONE',  ( -1.000000000000000000, 0.000000000000000000, 0.000000000000000000 ) ) ;
#200 = AXIS2_PLACEMENT_3D ( 'NONE', #264, #181, #74 ) ;
#201 = UNCERTAINTY_MEASURE_WITH_UNIT (LENGTH_MEASURE( 1.000000000000000082E-05 ), #9, 'distance_accuracy_value', 'NONE');
#202 = LENGTH_MEASURE_WITH_UNIT ( LENGTH_MEASURE( 0.02539999999999999897 ), #106 );
#203 = ORIENTED_EDGE ( 'NONE', *, *, #192, .F. ) ;
#204 = ORIENTED_EDGE ( 'NONE', *, *, #150, .F. ) ;
#205 = FILL_AREA_STYLE_COLOUR ( '', #191 ) ;
#206 = SURFACE_SIDE_STYLE ('',( #69 ) ) ;
#207 = CIRCLE ( 'NONE', #101, 0.09375000000000001388 ) ;
#208 =( NAMED_UNIT ( * ) PLANE_ANGLE_UNIT ( ) SI_UNIT ( $, .RADIAN. ) );
#209 = LENGTH_MEASURE_WITH_UNIT ( LENGTH_MEASURE( 0.02539999999999999897 ), #24 );
#210 = UNCERTAINTY_MEASURE_WITH_UNIT (LENGTH_MEASURE( 1.000000000000000082E-05 ), #58, 'distance_accuracy_value', 'NONE');
#211 = CARTESIAN_POINT ( 'NONE',  ( 0.000000000000000000, 0.3125000000000000000, -0.09375000000000001388 ) ) ;
#212 = PRODUCT_DEFINITION_SHAPE ( 'NONE', 'NONE',  #135 ) ;
#213 = CARTESIAN_POINT ( 'NONE',  ( 6.123233995736766036E-17, 2.000000000000000000, 0.000000000000000000 ) ) ;
#214 = AXIS2_PLACEMENT_3D ( 'NONE', #7, #217, #139 ) ;
#215 = CARTESIAN_POINT ( 'NONE',  ( 0.09375000000000004163, 2.000000000000000000, 1.148106374200643247E-17 ) ) ;
#216 =( NAMED_UNIT ( * ) PLANE_ANGLE_UNIT ( ) SI_UNIT ( $, .RADIAN. ) );
#217 = DIRECTION ( 'NONE',  ( -0.000000000000000000, -1.000000000000000000, -0.000000000000000000 ) ) ;
#218 = CIRCLE ( 'NONE', #200, 0.09374999999999994449 ) ;
#219 = DIRECTION ( 'NONE',  ( -0.000000000000000000, -1.000000000000000000, -0.000000000000000000 ) ) ;
#220 = DIRECTION ( 'NONE',  ( 0.000000000000000000, 0.000000000000000000, -1.000000000000000000 ) ) ;
#221 = FACE_OUTER_BOUND ( 'NONE', #155, .T. ) ;
#222 = CARTESIAN_POINT ( 'NONE',  ( 6.123233995736766036E-17, 2.000000000000000000, 0.000000000000000000 ) ) ;
#223 = PLANE ( 'NONE',  #145 ) ;
#224 = FILL_AREA_STYLE ('',( #148 ) ) ;
#225 = AXIS2_PLACEMENT_3D ( 'NONE', #110, #15, #220 ) ;
#226 = CARTESIAN_POINT ( 'NONE',  ( 0.09375000000000001388, 2.000000000000000000, 0.000000000000000000 ) ) ;
#227 = UNCERTAINTY_MEASURE_WITH_UNIT (LENGTH_MEASURE( 1.000000000000000082E-05 ), #158, 'distance_accuracy_value', 'NONE');
#228 = DIRECTION ( 'NONE',  ( -0.000000000000000000, -1.000000000000000000, -0.000000000000000000 ) ) ;
#229 = ADVANCED_FACE ( 'NONE', ( #125 ), #170, .T. ) ;
#230 = PRESENTATION_STYLE_ASSIGNMENT (( #14 ) ) ;
#231 = FACE_OUTER_BOUND ( 'NONE', #98, .T. ) ;
#232 = VERTEX_POINT ( 'NONE', #121 ) ;
#233 = FACE_OUTER_BOUND ( 'NONE', #30, .T. ) ;
#234 = LENGTH_MEASURE_WITH_UNIT ( LENGTH_MEASURE( 0.02539999999999999897 ), #240 );
#235 = PRESENTATION_LAYER_ASSIGNMENT (  '', '', ( #263 ) ) ;
#236 = DIRECTION ( 'NONE',  ( -1.000000000000000000, 0.000000000000000000, 0.000000000000000000 ) ) ;
#237 =( LENGTH_UNIT ( ) NAMED_UNIT ( * ) SI_UNIT ( $, .METRE. ) );
#238 = DIMENSIONAL_EXPONENTS ( 1.000000000000000000, 0.000000000000000000, 0.000000000000000000, 0.000000000000000000, 0.000000000000000000, 0.000000000000000000, 0.000000000000000000 ) ;
#239 =( NAMED_UNIT ( * ) PLANE_ANGLE_UNIT ( ) SI_UNIT ( $, .RADIAN. ) );
#240 =( LENGTH_UNIT ( ) NAMED_UNIT ( * ) SI_UNIT ( $, .METRE. ) );
#241 = DIMENSIONAL_EXPONENTS ( 1.000000000000000000, 0.000000000000000000, 0.000000000000000000, 0.000000000000000000, 0.000000000000000000, 0.000000000000000000, 0.000000000000000000 ) ;
#242 = ORIENTED_EDGE ( 'NONE', *, *, #244, .T. ) ;
#243 = DIRECTION ( 'NONE',  ( 0.000000000000000000, -1.000000000000000000, -0.000000000000000000 ) ) ;
#244 = EDGE_CURVE ( 'NONE', #167, #162, #273, .T. ) ;
#245 = COLOUR_RGB ( '',1.000000000000000000, 0.000000000000000000, 0.000000000000000000 ) ;
#246 =( CONVERSION_BASED_UNIT ( 'INCH', #234 ) LENGTH_UNIT ( ) NAMED_UNIT ( #238 ) );
#247 = CARTESIAN_POINT ( 'NONE',  ( 0.000000000000000000, 0.000000000000000000, 0.000000000000000000 ) ) ;
#248 = EDGE_LOOP ( 'NONE', ( #305, #242 ) ) ;
#249 =( LENGTH_UNIT ( ) NAMED_UNIT ( * ) SI_UNIT ( $, .METRE. ) );
#250 = MANIFOLD_SOLID_BREP ( 'Revolve - Cutting Edge', #149 ) ;
#251 = PRODUCT_DEFINITION_FORMATION_WITH_SPECIFIED_SOURCE ( 'ANY', '', #302, .NOT_KNOWN. ) ;
#252 = EDGE_CURVE ( 'NONE', #22, #167, #64, .T. ) ;
#253 = CARTESIAN_POINT ( 'NONE',  ( 0.000000000000000000, 0.000000000000000000, 0.000000000000000000 ) ) ;
#254 = DIRECTION ( 'NONE',  ( 3.628583108584750472E-17, 1.000000000000000000, -0.000000000000000000 ) ) ;
#255 = DIRECTION ( 'NONE',  ( 0.000000000000000000, 1.000000000000000000, 0.000000000000000000 ) ) ;
#256 = EDGE_CURVE ( 'NONE', #16, #22, #184, .T. ) ;
#257 = MECHANICAL_DESIGN_GEOMETRIC_PRESENTATION_REPRESENTATION (  '', ( #36 ), #73 ) ;
#258 = CARTESIAN_POINT ( 'NONE',  ( 6.123233995736766036E-17, 2.000000000000000000, 0.000000000000000000 ) ) ;
#259 = ORIENTED_EDGE ( 'NONE', *, *, #252, .T. ) ;
#260 = CARTESIAN_POINT ( 'NONE',  ( 1.148106374200643863E-17, 0.000000000000000000, 0.09375000000000001388 ) ) ;
#261 = SURFACE_STYLE_USAGE ( .BOTH. , #206 ) ;
#262 = AXIS2_PLACEMENT_3D ( 'NONE', #213, #185, #236 ) ;
#263 = STYLED_ITEM ( 'NONE', ( #81 ), #281 ) ;
#264 = CARTESIAN_POINT ( 'NONE',  ( 6.123233995736766036E-17, 2.000000000000000000, 0.000000000000000000 ) ) ;
#265 = ORIENTED_EDGE ( 'NONE', *, *, #120, .T. ) ;
#266 = SURFACE_STYLE_FILL_AREA ( #297 ) ;
#267 = UNCERTAINTY_MEASURE_WITH_UNIT (LENGTH_MEASURE( 1.000000000000000082E-05 ), #287, 'distance_accuracy_value', 'NONE');
#268 = ORIENTED_EDGE ( 'NONE', *, *, #156, .T. ) ;
#269 =( GEOMETRIC_REPRESENTATION_CONTEXT ( 3 ) GLOBAL_UNCERTAINTY_ASSIGNED_CONTEXT ( ( #201 ) ) GLOBAL_UNIT_ASSIGNED_CONTEXT ( ( #9, #239, #61 ) ) REPRESENTATION_CONTEXT ( 'NONE', 'WORKASPACE' ) );
#270 = VECTOR ( 'NONE', #153, 39.37007874015748143 ) ;
#271 = CARTESIAN_POINT ( 'NONE',  ( 0.09375000000000001388, 0.3125000000000000000, 1.148106374200643401E-17 ) ) ;
#272 = COLOUR_RGB ( '',0.7921568627450980005, 0.8196078431372548767, 0.9333333333333333481 ) ;
#273 = CIRCLE ( 'NONE', #285, 0.09375000000000001388 ) ;
#274 = DIRECTION ( 'NONE',  ( 1.000000000000000000, -3.628583108584750472E-17, 0.000000000000000000 ) ) ;
#275 = DIRECTION ( 'NONE',  ( -1.000000000000000000, 0.000000000000000000, 0.000000000000000000 ) ) ;
#276 = FACE_OUTER_BOUND ( 'NONE', #248, .T. ) ;
#277 = PRESENTATION_LAYER_ASSIGNMENT (  '', '', ( #36 ) ) ;
#278 =( GEOMETRIC_REPRESENTATION_CONTEXT ( 3 ) GLOBAL_UNCERTAINTY_ASSIGNED_CONTEXT ( ( #267 ) ) GLOBAL_UNIT_ASSIGNED_CONTEXT ( ( #287, #208, #179 ) ) REPRESENTATION_CONTEXT ( 'NONE', 'WORKASPACE' ) );
#279 = DIRECTION ( 'NONE',  ( -0.000000000000000000, -1.000000000000000000, -0.000000000000000000 ) ) ;
#280 = EDGE_LOOP ( 'NONE', ( #46, #94 ) ) ;
#281 = ADVANCED_FACE ( 'NONE', ( #276 ), #62, .T. ) ;
#282 = CARTESIAN_POINT ( 'NONE',  ( 0.000000000000000000, 0.3125000000000000000, 0.000000000000000000 ) ) ;
#283 = PLANE ( 'NONE',  #108 ) ;
#284 = MECHANICAL_DESIGN_GEOMETRIC_PRESENTATION_REPRESENTATION (  '', ( #48 ), #269 ) ;
#285 = AXIS2_PLACEMENT_3D ( 'NONE', #247, #228, #308 ) ;
#286 = PRODUCT_DEFINITION_CONTEXT ( 'detailed design', #171, 'design' ) ;
#287 =( CONVERSION_BASED_UNIT ( 'INCH', #202 ) LENGTH_UNIT ( ) NAMED_UNIT ( #122 ) );
#288 = PRESENTATION_STYLE_ASSIGNMENT (( #261 ) ) ;
#289 = AXIS2_PLACEMENT_3D ( 'NONE', #113, #279, #90 ) ;
#290 = ORIENTED_EDGE ( 'NONE', *, *, #252, .F. ) ;
#291 = SURFACE_SIDE_STYLE ('',( #59 ) ) ;
#292 = SURFACE_STYLE_USAGE ( .BOTH. , #291 ) ;
#293 = VECTOR ( 'NONE', #23, 39.37007874015748143 ) ;
#294 = CIRCLE ( 'NONE', #57, 0.09374999999999994449 ) ;
#295 = ORIENTED_EDGE ( 'NONE', *, *, #26, .F. ) ;
#296 = DIRECTION ( 'NONE',  ( 0.000000000000000000, 0.000000000000000000, -1.000000000000000000 ) ) ;
#297 = FILL_AREA_STYLE ('',( #136 ) ) ;
#298 = SURFACE_SIDE_STYLE ('',( #169 ) ) ;
#299 = CLOSED_SHELL ( 'NONE', ( #34, #126, #304, #197 ) ) ;
#300 = FACE_OUTER_BOUND ( 'NONE', #280, .T. ) ;
#301 = STYLED_ITEM ( 'NONE', ( #288 ), #42 ) ;
#302 = PRODUCT ( '83191', '83191', '', ( #28 ) ) ;
#303 = CIRCLE ( 'NONE', #75, 0.09375000000000001388 ) ;
#304 = ADVANCED_FACE ( 'NONE', ( #85 ), #146, .T. ) ;
#305 = ORIENTED_EDGE ( 'NONE', *, *, #150, .T. ) ;
#306 = UNCERTAINTY_MEASURE_WITH_UNIT (LENGTH_MEASURE( 1.000000000000000082E-05 ), #31, 'distance_accuracy_value', 'NONE');
#307 = ORIENTED_EDGE ( 'NONE', *, *, #120, .F. ) ;
#308 = DIRECTION ( 'NONE',  ( 0.000000000000000000, 0.000000000000000000, -1.000000000000000000 ) ) ;
#309 =( CONVERSION_BASED_UNIT ( 'INCH', #17 ) LENGTH_UNIT ( ) NAMED_UNIT ( #116 ) );
ENDSEC;
END-ISO-10303-21;
