ISO-10303-21;
HEADER;
FILE_DESCRIPTION (( 'STEP AP214' ),
    '1' );
FILE_NAME ('59782.STEP',
    '2023-07-24T15:38:38',
    ( '' ),
    ( '' ),
    'SwSTEP 2.0',
    'SolidWorks 2023',
    '' );
FILE_SCHEMA (( 'AUTOMOTIVE_DESIGN' ));
ENDSEC;

DATA;
#1 = FILL_AREA_STYLE ('',( #138 ) ) ;
#2 = MECHANICAL_DESIGN_GEOMETRIC_PRESENTATION_REPRESENTATION (  '', ( #215 ), #99 ) ;
#3 =( GEOMETRIC_REPRESENTATION_CONTEXT ( 3 ) GLOBAL_UNCERTAINTY_ASSIGNED_CONTEXT ( ( #241 ) ) GLOBAL_UNIT_ASSIGNED_CONTEXT ( ( #259, #114, #257 ) ) REPRESENTATION_CONTEXT ( 'NONE', 'WORKASPACE' ) );
#4 = STYLED_ITEM ( 'NONE', ( #145 ), #358 ) ;
#5 = FACE_OUTER_BOUND ( 'NONE', #205, .T. ) ;
#6 = CARTESIAN_POINT ( 'NONE',  ( -1.714505518806293652E-15, 89.00000000000000000, 0.000000000000000000 ) ) ;
#7 = VERTEX_POINT ( 'NONE', #275 ) ;
#8 = LINE ( 'NONE', #65, #16 ) ;
#9 = DIRECTION ( 'NONE',  ( 1.000000000000000000, 0.000000000000000000, -1.224646799147353207E-16 ) ) ;
#10 = CLOSED_SHELL ( 'NONE', ( #104, #326, #160, #301, #358, #180 ) ) ;
#11 = AXIS2_PLACEMENT_3D ( 'NONE', #299, #316, #353 ) ;
#12 = CIRCLE ( 'NONE', #51, 7.000000000000000000 ) ;
#13 = CARTESIAN_POINT ( 'NONE',  ( -8.000000000000000000, 89.00000000000000000, 0.000000000000000000 ) ) ;
#14 = ORIENTED_EDGE ( 'NONE', *, *, #227, .F. ) ;
#15 = VERTEX_POINT ( 'NONE', #296 ) ;
#16 = VECTOR ( 'NONE', #39, 1000.000000000000000 ) ;
#17 = AXIS2_PLACEMENT_3D ( 'NONE', #130, #334, #161 ) ;
#18 = FILL_AREA_STYLE_COLOUR ( '', #293 ) ;
#19 = UNCERTAINTY_MEASURE_WITH_UNIT (LENGTH_MEASURE( 1.000000000000000082E-05 ), #222, 'distance_accuracy_value', 'NONE');
#20 = SURFACE_STYLE_FILL_AREA ( #285 ) ;
#21 = FACE_OUTER_BOUND ( 'NONE', #42, .T. ) ;
#22 = FACE_OUTER_BOUND ( 'NONE', #231, .T. ) ;
#23 = AXIS2_PLACEMENT_3D ( 'NONE', #352, #94, #211 ) ;
#24 =( GEOMETRIC_REPRESENTATION_CONTEXT ( 3 ) GLOBAL_UNCERTAINTY_ASSIGNED_CONTEXT ( ( #102 ) ) GLOBAL_UNIT_ASSIGNED_CONTEXT ( ( #67, #238, #270 ) ) REPRESENTATION_CONTEXT ( 'NONE', 'WORKASPACE' ) );
#25 = EDGE_CURVE ( 'NONE', #239, #45, #207, .T. ) ;
#26 = FILL_AREA_STYLE_COLOUR ( '', #73 ) ;
#27 = PRESENTATION_STYLE_ASSIGNMENT (( #117 ) ) ;
#28 = DIRECTION ( 'NONE',  ( -0.000000000000000000, -1.000000000000000000, -0.000000000000000000 ) ) ;
#29 = EDGE_CURVE ( 'NONE', #45, #239, #253, .T. ) ;
#30 = SURFACE_STYLE_USAGE ( .BOTH. , #163 ) ;
#31 = MECHANICAL_DESIGN_GEOMETRIC_PRESENTATION_REPRESENTATION (  '', ( #313 ), #3 ) ;
#32 =( NAMED_UNIT ( * ) SI_UNIT ( $, .STERADIAN. ) SOLID_ANGLE_UNIT ( ) );
#33 = DIRECTION ( 'NONE',  ( 1.000000000000000000, 1.279215233315390572E-16, 0.000000000000000000 ) ) ;
#34 =( NAMED_UNIT ( * ) SI_UNIT ( $, .STERADIAN. ) SOLID_ANGLE_UNIT ( ) );
#35 = EDGE_CURVE ( 'NONE', #152, #312, #271, .T. ) ;
#36 = DIRECTION ( 'NONE',  ( -1.279215233315390572E-16, 1.000000000000000000, -0.000000000000000000 ) ) ;
#37 = AXIS2_PLACEMENT_3D ( 'NONE', #188, #48, #52 ) ;
#38 =( GEOMETRIC_REPRESENTATION_CONTEXT ( 3 ) GLOBAL_UNCERTAINTY_ASSIGNED_CONTEXT ( ( #218 ) ) GLOBAL_UNIT_ASSIGNED_CONTEXT ( ( #339, #169, #137 ) ) REPRESENTATION_CONTEXT ( 'NONE', 'WORKASPACE' ) );
#39 = DIRECTION ( 'NONE',  ( -0.000000000000000000, -1.000000000000000000, -0.000000000000000000 ) ) ;
#40 = VERTEX_POINT ( 'NONE', #209 ) ;
#41 = PRODUCT_DEFINITION_SHAPE ( 'NONE', 'NONE',  #202 ) ;
#42 = EDGE_LOOP ( 'NONE', ( #89, #260 ) ) ;
#43 = ORIENTED_EDGE ( 'NONE', *, *, #246, .F. ) ;
#44 = UNCERTAINTY_MEASURE_WITH_UNIT (LENGTH_MEASURE( 1.000000000000000082E-05 ), #58, 'distance_accuracy_value', 'NONE');
#45 = VERTEX_POINT ( 'NONE', #66 ) ;
#46 = SURFACE_STYLE_FILL_AREA ( #291 ) ;
#47 = TOROIDAL_SURFACE ( 'NONE', #17, 7.000000000000000000, 1.000000000000000000 ) ;
#48 = DIRECTION ( 'NONE',  ( -1.279215233315390572E-16, 1.000000000000000000, -0.000000000000000000 ) ) ;
#49 = UNCERTAINTY_MEASURE_WITH_UNIT (LENGTH_MEASURE( 1.000000000000000082E-05 ), #232, 'distance_accuracy_value', 'NONE');
#50 = EDGE_CURVE ( 'NONE', #312, #7, #131, .T. ) ;
#51 = AXIS2_PLACEMENT_3D ( 'NONE', #308, #28, #251 ) ;
#52 = DIRECTION ( 'NONE',  ( -1.000000000000000000, 0.000000000000000000, 0.000000000000000000 ) ) ;
#53 = FACE_OUTER_BOUND ( 'NONE', #356, .T. ) ;
#54 = EDGE_CURVE ( 'NONE', #312, #121, #182, .T. ) ;
#55 = FACE_OUTER_BOUND ( 'NONE', #233, .T. ) ;
#56 = CARTESIAN_POINT ( 'NONE',  ( 9.797174393178825657E-16, 40.00000000000000000, 8.000000000000000000 ) ) ;
#57 = EDGE_LOOP ( 'NONE', ( #144, #72, #258, #179 ) ) ;
#58 =( LENGTH_UNIT ( ) NAMED_UNIT ( * ) SI_UNIT ( .MILLI., .METRE. ) );
#59 = VERTEX_POINT ( 'NONE', #68 ) ;
#60 = PRODUCT_CONTEXT ( 'NONE', #332, 'mechanical' ) ;
#61 = DIRECTION ( 'NONE',  ( 0.000000000000000000, 0.000000000000000000, 1.000000000000000000 ) ) ;
#62 = PLANE ( 'NONE',  #127 ) ;
#63 = ORIENTED_EDGE ( 'NONE', *, *, #29, .F. ) ;
#64 = MECHANICAL_DESIGN_GEOMETRIC_PRESENTATION_REPRESENTATION (  '', ( #118 ), #247 ) ;
#65 = CARTESIAN_POINT ( 'NONE',  ( 0.000000000000000000, 0.000000000000000000, -8.000000000000000000 ) ) ;
#66 = CARTESIAN_POINT ( 'NONE',  ( 8.000000000000000000, 89.00000000000000000, 9.797174393178825657E-16 ) ) ;
#67 =( LENGTH_UNIT ( ) NAMED_UNIT ( * ) SI_UNIT ( .MILLI., .METRE. ) );
#68 = CARTESIAN_POINT ( 'NONE',  ( 0.000000000000000000, 40.00000000000000000, -8.000000000000000000 ) ) ;
#69 = ORIENTED_EDGE ( 'NONE', *, *, #88, .F. ) ;
#70 = AXIS2_PLACEMENT_3D ( 'NONE', #148, #274, #153 ) ;
#71 = CIRCLE ( 'NONE', #281, 7.999999999999994671 ) ;
#72 = ORIENTED_EDGE ( 'NONE', *, *, #50, .T. ) ;
#73 = COLOUR_RGB ( '',1.000000000000000000, 0.000000000000000000, 0.000000000000000000 ) ;
#74 =( NAMED_UNIT ( * ) PLANE_ANGLE_UNIT ( ) SI_UNIT ( $, .RADIAN. ) );
#75 = AXIS2_PLACEMENT_3D ( 'NONE', #198, #226, #343 ) ;
#76 = DIRECTION ( 'NONE',  ( 0.000000000000000000, 0.000000000000000000, -1.000000000000000000 ) ) ;
#77 = FILL_AREA_STYLE ('',( #340 ) ) ;
#78 = SURFACE_STYLE_FILL_AREA ( #1 ) ;
#79 = SURFACE_STYLE_USAGE ( .BOTH. , #110 ) ;
#80 = FACE_OUTER_BOUND ( 'NONE', #341, .T. ) ;
#81 = CLOSED_SHELL ( 'NONE', ( #290, #97, #219, #115 ) ) ;
#82 = PRESENTATION_LAYER_ASSIGNMENT (  '', '', ( #4 ) ) ;
#83 = DIRECTION ( 'NONE',  ( -1.000000000000000000, -1.279215233315390572E-16, 0.000000000000000000 ) ) ;
#84 = CYLINDRICAL_SURFACE ( 'NONE', #174, 7.999999999999998224 ) ;
#85 = ORIENTED_EDGE ( 'NONE', *, *, #193, .T. ) ;
#86 =( NAMED_UNIT ( * ) SI_UNIT ( $, .STERADIAN. ) SOLID_ANGLE_UNIT ( ) );
#87 = PRESENTATION_STYLE_ASSIGNMENT (( #95 ) ) ;
#88 = EDGE_CURVE ( 'NONE', #7, #96, #90, .T. ) ;
#89 = ORIENTED_EDGE ( 'NONE', *, *, #155, .F. ) ;
#90 = CIRCLE ( 'NONE', #70, 7.000000000000000000 ) ;
#91 = TOROIDAL_SURFACE ( 'NONE', #194, 7.000000000000000000, 1.000000000000000000 ) ;
#92 = DIRECTION ( 'NONE',  ( -1.279215233315390572E-16, 1.000000000000000000, -0.000000000000000000 ) ) ;
#93 = ADVANCED_BREP_SHAPE_REPRESENTATION ( '59782', ( #369, #245, #106 ), #38 ) ;
#94 = DIRECTION ( 'NONE',  ( -0.000000000000000000, -1.000000000000000000, -0.000000000000000000 ) ) ;
#95 = SURFACE_STYLE_USAGE ( .BOTH. , #349 ) ;
#96 = VERTEX_POINT ( 'NONE', #306 ) ;
#97 = ADVANCED_FACE ( 'NONE', ( #21 ), #191, .F. ) ;
#98 = DIRECTION ( 'NONE',  ( -1.279215233315390572E-16, 1.000000000000000000, -0.000000000000000000 ) ) ;
#99 =( GEOMETRIC_REPRESENTATION_CONTEXT ( 3 ) GLOBAL_UNCERTAINTY_ASSIGNED_CONTEXT ( ( #44 ) ) GLOBAL_UNIT_ASSIGNED_CONTEXT ( ( #58, #336, #34 ) ) REPRESENTATION_CONTEXT ( 'NONE', 'WORKASPACE' ) );
#100 = PRESENTATION_LAYER_ASSIGNMENT (  '', '', ( #313 ) ) ;
#101 = MECHANICAL_DESIGN_GEOMETRIC_PRESENTATION_REPRESENTATION (  '', ( #4 ), #176 ) ;
#102 = UNCERTAINTY_MEASURE_WITH_UNIT (LENGTH_MEASURE( 1.000000000000000082E-05 ), #67, 'distance_accuracy_value', 'NONE');
#103 = SURFACE_STYLE_FILL_AREA ( #166 ) ;
#104 = ADVANCED_FACE ( 'NONE', ( #338 ), #286, .T. ) ;
#105 = CIRCLE ( 'NONE', #183, 8.000000000000000000 ) ;
#106 = AXIS2_PLACEMENT_3D ( 'NONE', #139, #261, #370 ) ;
#107 = CARTESIAN_POINT ( 'NONE',  ( 9.797174393178825657E-16, 1.000000000000000000, 8.000000000000000000 ) ) ;
#108 = SURFACE_STYLE_USAGE ( .BOTH. , #249 ) ;
#109 = CARTESIAN_POINT ( 'NONE',  ( 0.000000000000000000, 40.00000000000000000, 0.000000000000000000 ) ) ;
#110 = SURFACE_SIDE_STYLE ('',( #363 ) ) ;
#111 = DIRECTION ( 'NONE',  ( 0.000000000000000000, 0.000000000000000000, -1.000000000000000000 ) ) ;
#112 = DIRECTION ( 'NONE',  ( -0.000000000000000000, -1.000000000000000000, -0.000000000000000000 ) ) ;
#113 =( LENGTH_UNIT ( ) NAMED_UNIT ( * ) SI_UNIT ( .MILLI., .METRE. ) );
#114 =( NAMED_UNIT ( * ) PLANE_ANGLE_UNIT ( ) SI_UNIT ( $, .RADIAN. ) );
#115 = ADVANCED_FACE ( 'NONE', ( #53 ), #347, .F. ) ;
#116 = SURFACE_SIDE_STYLE ('',( #172 ) ) ;
#117 = SURFACE_STYLE_USAGE ( .BOTH. , #315 ) ;
#118 = STYLED_ITEM ( 'NONE', ( #87 ), #180 ) ;
#119 = CARTESIAN_POINT ( 'NONE',  ( 9.797174393178825657E-16, 0.000000000000000000, 8.000000000000000000 ) ) ;
#120 =( LENGTH_UNIT ( ) NAMED_UNIT ( * ) SI_UNIT ( .MILLI., .METRE. ) );
#121 = VERTEX_POINT ( 'NONE', #311 ) ;
#122 = ORIENTED_EDGE ( 'NONE', *, *, #35, .F. ) ;
#123 = PRESENTATION_LAYER_ASSIGNMENT (  '', '', ( #287 ) ) ;
#124 = SURFACE_STYLE_FILL_AREA ( #235 ) ;
#125 = ORIENTED_EDGE ( 'NONE', *, *, #227, .T. ) ;
#126 = PRODUCT ( '59782', '59782', '', ( #60 ) ) ;
#127 = AXIS2_PLACEMENT_3D ( 'NONE', #278, #297, #230 ) ;
#128 = CARTESIAN_POINT ( 'NONE',  ( 0.000000000000000000, 1.000000000000000000, -7.000000000000000000 ) ) ;
#129 = CYLINDRICAL_SURFACE ( 'NONE', #255, 7.999999999999998224 ) ;
#130 = CARTESIAN_POINT ( 'NONE',  ( 0.000000000000000000, 1.000000000000000000, 0.000000000000000000 ) ) ;
#131 = CIRCLE ( 'NONE', #344, 1.000000000000000000 ) ;
#132 = STYLED_ITEM ( 'NONE', ( #359 ), #301 ) ;
#133 = FILL_AREA_STYLE_COLOUR ( '', #294 ) ;
#134 = PRESENTATION_STYLE_ASSIGNMENT (( #30 ) ) ;
#135 = PRESENTATION_LAYER_ASSIGNMENT (  '', '', ( #215 ) ) ;
#136 = ORIENTED_EDGE ( 'NONE', *, *, #185, .T. ) ;
#137 =( NAMED_UNIT ( * ) SI_UNIT ( $, .STERADIAN. ) SOLID_ANGLE_UNIT ( ) );
#138 = FILL_AREA_STYLE_COLOUR ( '', #264 ) ;
#139 = CARTESIAN_POINT ( 'NONE',  ( 0.000000000000000000, 0.000000000000000000, 0.000000000000000000 ) ) ;
#140 = DIRECTION ( 'NONE',  ( -0.000000000000000000, -1.000000000000000000, -0.000000000000000000 ) ) ;
#141 = DIRECTION ( 'NONE',  ( -1.000000000000000000, 0.000000000000000000, 0.000000000000000000 ) ) ;
#142 = ORIENTED_EDGE ( 'NONE', *, *, #263, .F. ) ;
#143 = SURFACE_STYLE_USAGE ( .BOTH. , #243 ) ;
#144 = ORIENTED_EDGE ( 'NONE', *, *, #263, .T. ) ;
#145 = PRESENTATION_STYLE_ASSIGNMENT (( #79 ) ) ;
#146 = CARTESIAN_POINT ( 'NONE',  ( -8.000000000000003553, 89.00000000000000000, 0.000000000000000000 ) ) ;
#147 = EDGE_LOOP ( 'NONE', ( #43, #302, #85, #63 ) ) ;
#148 = CARTESIAN_POINT ( 'NONE',  ( 0.000000000000000000, 0.000000000000000000, 0.000000000000000000 ) ) ;
#149 = VECTOR ( 'NONE', #350, 1000.000000000000000 ) ;
#150 = MECHANICAL_DESIGN_GEOMETRIC_PRESENTATION_REPRESENTATION (  '', ( #157 ), #309 ) ;
#151 = EDGE_CURVE ( 'NONE', #152, #59, #105, .T. ) ;
#152 = VERTEX_POINT ( 'NONE', #56 ) ;
#153 = DIRECTION ( 'NONE',  ( 0.000000000000000000, 0.000000000000000000, -1.000000000000000000 ) ) ;
#154 = CIRCLE ( 'NONE', #11, 8.000000000000000000 ) ;
#155 = EDGE_CURVE ( 'NONE', #15, #40, #71, .T. ) ;
#156 =( NAMED_UNIT ( * ) PLANE_ANGLE_UNIT ( ) SI_UNIT ( $, .RADIAN. ) );
#157 = STYLED_ITEM ( 'NONE', ( #203 ), #369 ) ;
#158 = FACE_OUTER_BOUND ( 'NONE', #57, .T. ) ;
#159 = PRODUCT_DEFINITION_CONTEXT ( 'detailed design', #324, 'design' ) ;
#160 = ADVANCED_FACE ( 'NONE', ( #80 ), #250, .T. ) ;
#161 = DIRECTION ( 'NONE',  ( 0.000000000000000000, 0.000000000000000000, -1.000000000000000000 ) ) ;
#162 = COLOUR_RGB ( '',1.000000000000000000, 0.000000000000000000, 0.000000000000000000 ) ;
#163 = SURFACE_SIDE_STYLE ('',( #78 ) ) ;
#164 = DIRECTION ( 'NONE',  ( -1.279215233315390572E-16, 1.000000000000000000, -0.000000000000000000 ) ) ;
#165 = ORIENTED_EDGE ( 'NONE', *, *, #155, .T. ) ;
#166 = FILL_AREA_STYLE ('',( #244 ) ) ;
#167 = EDGE_CURVE ( 'NONE', #59, #152, #364, .T. ) ;
#168 = SURFACE_STYLE_FILL_AREA ( #77 ) ;
#169 =( NAMED_UNIT ( * ) PLANE_ANGLE_UNIT ( ) SI_UNIT ( $, .RADIAN. ) );
#170 = SHAPE_DEFINITION_REPRESENTATION ( #41, #93 ) ;
#171 = LINE ( 'NONE', #13, #307 ) ;
#172 = SURFACE_STYLE_FILL_AREA ( #225 ) ;
#173 = DIRECTION ( 'NONE',  ( -0.000000000000000000, -1.000000000000000000, -0.000000000000000000 ) ) ;
#174 = AXIS2_PLACEMENT_3D ( 'NONE', #204, #210, #320 ) ;
#175 = ORIENTED_EDGE ( 'NONE', *, *, #54, .T. ) ;
#176 =( GEOMETRIC_REPRESENTATION_CONTEXT ( 3 ) GLOBAL_UNCERTAINTY_ASSIGNED_CONTEXT ( ( #276 ) ) GLOBAL_UNIT_ASSIGNED_CONTEXT ( ( #113, #206, #86 ) ) REPRESENTATION_CONTEXT ( 'NONE', 'WORKASPACE' ) );
#177 = ORIENTED_EDGE ( 'NONE', *, *, #25, .F. ) ;
#178 = CARTESIAN_POINT ( 'NONE',  ( 7.999999999999996447, 89.00000000000000000, 9.797174393178823685E-16 ) ) ;
#179 = ORIENTED_EDGE ( 'NONE', *, *, #185, .F. ) ;
#180 = ADVANCED_FACE ( 'NONE', ( #5 ), #62, .T. ) ;
#181 = EDGE_LOOP ( 'NONE', ( #165, #213, #177, #323 ) ) ;
#182 = CIRCLE ( 'NONE', #23, 8.000000000000000000 ) ;
#183 = AXIS2_PLACEMENT_3D ( 'NONE', #229, #262, #200 ) ;
#184 = ORIENTED_EDGE ( 'NONE', *, *, #151, .F. ) ;
#185 = EDGE_CURVE ( 'NONE', #121, #96, #357, .T. ) ;
#186 = PRESENTATION_STYLE_ASSIGNMENT (( #143 ) ) ;
#187 = MECHANICAL_DESIGN_GEOMETRIC_PRESENTATION_REPRESENTATION (  '', ( #132 ), #346 ) ;
#188 = CARTESIAN_POINT ( 'NONE',  ( 4.553649124439119412E-15, 40.00000000000000000, 0.000000000000000000 ) ) ;
#189 = UNCERTAINTY_MEASURE_WITH_UNIT (LENGTH_MEASURE( 1.000000000000000082E-05 ), #120, 'distance_accuracy_value', 'NONE');
#190 = PRESENTATION_STYLE_ASSIGNMENT (( #108 ) ) ;
#191 = PLANE ( 'NONE',  #280 ) ;
#192 = SURFACE_SIDE_STYLE ('',( #103 ) ) ;
#193 = EDGE_CURVE ( 'NONE', #15, #239, #171, .T. ) ;
#194 = AXIS2_PLACEMENT_3D ( 'NONE', #248, #196, #76 ) ;
#195 = CARTESIAN_POINT ( 'NONE',  ( 4.553649124439118623E-15, 40.00000000000000000, 0.000000000000000000 ) ) ;
#196 = DIRECTION ( 'NONE',  ( -0.000000000000000000, -1.000000000000000000, -0.000000000000000000 ) ) ;
#197 = DIRECTION ( 'NONE',  ( -1.279215233315390572E-16, 1.000000000000000000, 0.000000000000000000 ) ) ;
#198 = CARTESIAN_POINT ( 'NONE',  ( 0.000000000000000000, 0.000000000000000000, 0.000000000000000000 ) ) ;
#199 = PRESENTATION_LAYER_ASSIGNMENT (  '', '', ( #118 ) ) ;
#200 = DIRECTION ( 'NONE',  ( 0.000000000000000000, 0.000000000000000000, -1.000000000000000000 ) ) ;
#201 = APPLICATION_PROTOCOL_DEFINITION ( 'draft international standard', 'automotive_design', 1998, #332 ) ;
#202 = PRODUCT_DEFINITION ( 'UNKNOWN', '', #256, #159 ) ;
#203 = PRESENTATION_STYLE_ASSIGNMENT (( #292 ) ) ;
#204 = CARTESIAN_POINT ( 'NONE',  ( -1.714505518806293849E-15, 89.00000000000000000, 0.000000000000000000 ) ) ;
#205 = EDGE_LOOP ( 'NONE', ( #304, #184 ) ) ;
#206 =( NAMED_UNIT ( * ) PLANE_ANGLE_UNIT ( ) SI_UNIT ( $, .RADIAN. ) );
#207 = CIRCLE ( 'NONE', #242, 8.000000000000001776 ) ;
#208 = COLOUR_RGB ( '',0.7921568627450980005, 0.8196078431372548767, 0.9333333333333333481 ) ;
#209 = CARTESIAN_POINT ( 'NONE',  ( 8.000000000000000000, 40.00000000000000000, 9.797174393178825657E-16 ) ) ;
#210 = DIRECTION ( 'NONE',  ( -1.279215233315390572E-16, 1.000000000000000000, -0.000000000000000000 ) ) ;
#211 = DIRECTION ( 'NONE',  ( 0.000000000000000000, 0.000000000000000000, -1.000000000000000000 ) ) ;
#212 = FACE_OUTER_BOUND ( 'NONE', #147, .T. ) ;
#213 = ORIENTED_EDGE ( 'NONE', *, *, #246, .T. ) ;
#214 = DIRECTION ( 'NONE',  ( -1.000000000000000000, 0.000000000000000000, 0.000000000000000000 ) ) ;
#215 = STYLED_ITEM ( 'NONE', ( #27 ), #104 ) ;
#216 = AXIS2_PLACEMENT_3D ( 'NONE', #288, #140, #111 ) ;
#217 = MECHANICAL_DESIGN_GEOMETRIC_PRESENTATION_REPRESENTATION (  '', ( #287 ), #273 ) ;
#218 = UNCERTAINTY_MEASURE_WITH_UNIT (LENGTH_MEASURE( 1.000000000000000082E-05 ), #339, 'distance_accuracy_value', 'NONE');
#219 = ADVANCED_FACE ( 'NONE', ( #212 ), #84, .T. ) ;
#220 =( NAMED_UNIT ( * ) SI_UNIT ( $, .STERADIAN. ) SOLID_ANGLE_UNIT ( ) );
#221 = DIRECTION ( 'NONE',  ( -1.000000000000000000, 0.000000000000000000, 0.000000000000000000 ) ) ;
#222 =( LENGTH_UNIT ( ) NAMED_UNIT ( * ) SI_UNIT ( .MILLI., .METRE. ) );
#223 = DIRECTION ( 'NONE',  ( 1.279215233315390572E-16, -1.000000000000000000, 0.000000000000000000 ) ) ;
#224 = ORIENTED_EDGE ( 'NONE', *, *, #25, .T. ) ;
#225 = FILL_AREA_STYLE ('',( #365 ) ) ;
#226 = DIRECTION ( 'NONE',  ( 0.000000000000000000, -1.000000000000000000, -0.000000000000000000 ) ) ;
#227 = EDGE_CURVE ( 'NONE', #59, #121, #8, .T. ) ;
#228 = PRESENTATION_LAYER_ASSIGNMENT (  '', '', ( #132 ) ) ;
#229 = CARTESIAN_POINT ( 'NONE',  ( 0.000000000000000000, 40.00000000000000000, 0.000000000000000000 ) ) ;
#230 = DIRECTION ( 'NONE',  ( 0.000000000000000000, -0.000000000000000000, 1.000000000000000000 ) ) ;
#231 = EDGE_LOOP ( 'NONE', ( #122, #268, #125, #354 ) ) ;
#232 =( LENGTH_UNIT ( ) NAMED_UNIT ( * ) SI_UNIT ( .MILLI., .METRE. ) );
#233 = EDGE_LOOP ( 'NONE', ( #289, #175, #136, #69 ) ) ;
#234 = AXIS2_PLACEMENT_3D ( 'NONE', #368, #223, #33 ) ;
#235 = FILL_AREA_STYLE ('',( #272 ) ) ;
#236 = MECHANICAL_DESIGN_GEOMETRIC_PRESENTATION_REPRESENTATION (  '', ( #328 ), #24 ) ;
#237 = DIRECTION ( 'NONE',  ( -1.224646799147353454E-16, 0.000000000000000000, -1.000000000000000000 ) ) ;
#238 =( NAMED_UNIT ( * ) PLANE_ANGLE_UNIT ( ) SI_UNIT ( $, .RADIAN. ) );
#239 = VERTEX_POINT ( 'NONE', #146 ) ;
#240 = DIRECTION ( 'NONE',  ( -1.279215233315390572E-16, 1.000000000000000000, -0.000000000000000000 ) ) ;
#241 = UNCERTAINTY_MEASURE_WITH_UNIT (LENGTH_MEASURE( 1.000000000000000082E-05 ), #259, 'distance_accuracy_value', 'NONE');
#242 = AXIS2_PLACEMENT_3D ( 'NONE', #300, #240, #329 ) ;
#243 = SURFACE_SIDE_STYLE ('',( #124 ) ) ;
#244 = FILL_AREA_STYLE_COLOUR ( '', #162 ) ;
#245 = MANIFOLD_SOLID_BREP ( 'Revolve - Tool Body (Straight Shanked)', #81 ) ;
#246 = EDGE_CURVE ( 'NONE', #40, #45, #322, .T. ) ;
#247 =( GEOMETRIC_REPRESENTATION_CONTEXT ( 3 ) GLOBAL_UNCERTAINTY_ASSIGNED_CONTEXT ( ( #189 ) ) GLOBAL_UNIT_ASSIGNED_CONTEXT ( ( #120, #156, #266 ) ) REPRESENTATION_CONTEXT ( 'NONE', 'WORKASPACE' ) );
#248 = CARTESIAN_POINT ( 'NONE',  ( 0.000000000000000000, 1.000000000000000000, 0.000000000000000000 ) ) ;
#249 = SURFACE_SIDE_STYLE ('',( #20 ) ) ;
#250 = PLANE ( 'NONE',  #75 ) ;
#251 = DIRECTION ( 'NONE',  ( 0.000000000000000000, 0.000000000000000000, -1.000000000000000000 ) ) ;
#252 = CARTESIAN_POINT ( 'NONE',  ( 4.553649124439119412E-15, 40.00000000000000000, 0.000000000000000000 ) ) ;
#253 = CIRCLE ( 'NONE', #333, 8.000000000000001776 ) ;
#254 = CARTESIAN_POINT ( 'NONE',  ( -1.714505518806293849E-15, 89.00000000000000000, 0.000000000000000000 ) ) ;
#255 = AXIS2_PLACEMENT_3D ( 'NONE', #254, #164, #310 ) ;
#256 = PRODUCT_DEFINITION_FORMATION_WITH_SPECIFIED_SOURCE ( 'ANY', '', #126, .NOT_KNOWN. ) ;
#257 =( NAMED_UNIT ( * ) SI_UNIT ( $, .STERADIAN. ) SOLID_ANGLE_UNIT ( ) );
#258 = ORIENTED_EDGE ( 'NONE', *, *, #355, .F. ) ;
#259 =( LENGTH_UNIT ( ) NAMED_UNIT ( * ) SI_UNIT ( .MILLI., .METRE. ) );
#260 = ORIENTED_EDGE ( 'NONE', *, *, #317, .F. ) ;
#261 = DIRECTION ( 'NONE',  ( 0.000000000000000000, 0.000000000000000000, 1.000000000000000000 ) ) ;
#262 = DIRECTION ( 'NONE',  ( -0.000000000000000000, -1.000000000000000000, -0.000000000000000000 ) ) ;
#263 = EDGE_CURVE ( 'NONE', #121, #312, #154, .T. ) ;
#264 = COLOUR_RGB ( '',1.000000000000000000, 0.000000000000000000, 0.000000000000000000 ) ;
#265 = AXIS2_PLACEMENT_3D ( 'NONE', #128, #141, #61 ) ;
#266 =( NAMED_UNIT ( * ) SI_UNIT ( $, .STERADIAN. ) SOLID_ANGLE_UNIT ( ) );
#267 = COLOUR_RGB ( '',0.7921568627450980005, 0.8196078431372548767, 0.9333333333333333481 ) ;
#268 = ORIENTED_EDGE ( 'NONE', *, *, #151, .T. ) ;
#269 = ORIENTED_EDGE ( 'NONE', *, *, #355, .T. ) ;
#270 =( NAMED_UNIT ( * ) SI_UNIT ( $, .STERADIAN. ) SOLID_ANGLE_UNIT ( ) );
#271 = LINE ( 'NONE', #119, #149 ) ;
#272 = FILL_AREA_STYLE_COLOUR ( '', #208 ) ;
#273 =( GEOMETRIC_REPRESENTATION_CONTEXT ( 3 ) GLOBAL_UNCERTAINTY_ASSIGNED_CONTEXT ( ( #19 ) ) GLOBAL_UNIT_ASSIGNED_CONTEXT ( ( #222, #74, #220 ) ) REPRESENTATION_CONTEXT ( 'NONE', 'WORKASPACE' ) );
#274 = DIRECTION ( 'NONE',  ( -0.000000000000000000, -1.000000000000000000, -0.000000000000000000 ) ) ;
#275 = CARTESIAN_POINT ( 'NONE',  ( 9.184850993605147944E-16, 0.000000000000000000, 7.000000000000000000 ) ) ;
#276 = UNCERTAINTY_MEASURE_WITH_UNIT (LENGTH_MEASURE( 1.000000000000000082E-05 ), #113, 'distance_accuracy_value', 'NONE');
#277 = PRESENTATION_LAYER_ASSIGNMENT (  '', '', ( #328 ) ) ;
#278 = CARTESIAN_POINT ( 'NONE',  ( 0.000000000000000000, 40.00000000000000000, 0.000000000000000000 ) ) ;
#279 =( NAMED_UNIT ( * ) PLANE_ANGLE_UNIT ( ) SI_UNIT ( $, .RADIAN. ) );
#280 = AXIS2_PLACEMENT_3D ( 'NONE', #195, #197, #83 ) ;
#281 = AXIS2_PLACEMENT_3D ( 'NONE', #252, #362, #221 ) ;
#282 = CYLINDRICAL_SURFACE ( 'NONE', #314, 8.000000000000000000 ) ;
#283 = PRESENTATION_LAYER_ASSIGNMENT (  '', '', ( #157 ) ) ;
#284 =( LENGTH_UNIT ( ) NAMED_UNIT ( * ) SI_UNIT ( .MILLI., .METRE. ) );
#285 = FILL_AREA_STYLE ('',( #26 ) ) ;
#286 = CYLINDRICAL_SURFACE ( 'NONE', #216, 8.000000000000000000 ) ;
#287 = STYLED_ITEM ( 'NONE', ( #190 ), #326 ) ;
#288 = CARTESIAN_POINT ( 'NONE',  ( 0.000000000000000000, 0.000000000000000000, 0.000000000000000000 ) ) ;
#289 = ORIENTED_EDGE ( 'NONE', *, *, #50, .F. ) ;
#290 = ADVANCED_FACE ( 'NONE', ( #335 ), #129, .T. ) ;
#291 = FILL_AREA_STYLE ('',( #18 ) ) ;
#292 = SURFACE_STYLE_USAGE ( .BOTH. , #116 ) ;
#293 = COLOUR_RGB ( '',1.000000000000000000, 0.000000000000000000, 0.000000000000000000 ) ;
#294 = COLOUR_RGB ( '',1.000000000000000000, 0.000000000000000000, 0.000000000000000000 ) ;
#295 = DIRECTION ( 'NONE',  ( 0.000000000000000000, 0.000000000000000000, -1.000000000000000000 ) ) ;
#296 = CARTESIAN_POINT ( 'NONE',  ( -7.999999999999989342, 40.00000000000000000, 0.000000000000000000 ) ) ;
#297 = DIRECTION ( 'NONE',  ( 0.000000000000000000, 1.000000000000000000, 0.000000000000000000 ) ) ;
#298 = CARTESIAN_POINT ( 'NONE',  ( 8.572527594031473190E-16, 1.000000000000000000, 7.000000000000000000 ) ) ;
#299 = CARTESIAN_POINT ( 'NONE',  ( 0.000000000000000000, 1.000000000000000000, 0.000000000000000000 ) ) ;
#300 = CARTESIAN_POINT ( 'NONE',  ( -1.714505518806293652E-15, 89.00000000000000000, 0.000000000000000000 ) ) ;
#301 = ADVANCED_FACE ( 'NONE', ( #55 ), #91, .T. ) ;
#302 = ORIENTED_EDGE ( 'NONE', *, *, #317, .T. ) ;
#303 = UNCERTAINTY_MEASURE_WITH_UNIT (LENGTH_MEASURE( 1.000000000000000082E-05 ), #284, 'distance_accuracy_value', 'NONE');
#304 = ORIENTED_EDGE ( 'NONE', *, *, #167, .F. ) ;
#305 = CIRCLE ( 'NONE', #37, 7.999999999999994671 ) ;
#306 = CARTESIAN_POINT ( 'NONE',  ( 0.000000000000000000, 0.000000000000000000, -7.000000000000000000 ) ) ;
#307 = VECTOR ( 'NONE', #92, 1000.000000000000000 ) ;
#308 = CARTESIAN_POINT ( 'NONE',  ( 0.000000000000000000, 0.000000000000000000, 0.000000000000000000 ) ) ;
#309 =( GEOMETRIC_REPRESENTATION_CONTEXT ( 3 ) GLOBAL_UNCERTAINTY_ASSIGNED_CONTEXT ( ( #49 ) ) GLOBAL_UNIT_ASSIGNED_CONTEXT ( ( #232, #342, #32 ) ) REPRESENTATION_CONTEXT ( 'NONE', 'WORKASPACE' ) );
#310 = DIRECTION ( 'NONE',  ( -1.000000000000000000, 0.000000000000000000, 0.000000000000000000 ) ) ;
#311 = CARTESIAN_POINT ( 'NONE',  ( 0.000000000000000000, 1.000000000000000000, -8.000000000000000000 ) ) ;
#312 = VERTEX_POINT ( 'NONE', #107 ) ;
#313 = STYLED_ITEM ( 'NONE', ( #134 ), #160 ) ;
#314 = AXIS2_PLACEMENT_3D ( 'NONE', #345, #112, #367 ) ;
#315 = SURFACE_SIDE_STYLE ('',( #168 ) ) ;
#316 = DIRECTION ( 'NONE',  ( -0.000000000000000000, -1.000000000000000000, -0.000000000000000000 ) ) ;
#317 = EDGE_CURVE ( 'NONE', #40, #15, #305, .T. ) ;
#318 = EDGE_LOOP ( 'NONE', ( #325, #348, #142, #14 ) ) ;
#319 = APPLICATION_PROTOCOL_DEFINITION ( 'draft international standard', 'automotive_design', 1998, #324 ) ;
#320 = DIRECTION ( 'NONE',  ( -1.000000000000000000, 0.000000000000000000, 0.000000000000000000 ) ) ;
#321 = ORIENTED_EDGE ( 'NONE', *, *, #29, .T. ) ;
#322 = LINE ( 'NONE', #178, #351 ) ;
#323 = ORIENTED_EDGE ( 'NONE', *, *, #193, .F. ) ;
#324 = APPLICATION_CONTEXT ( 'automotive_design' ) ;
#325 = ORIENTED_EDGE ( 'NONE', *, *, #167, .T. ) ;
#326 = ADVANCED_FACE ( 'NONE', ( #158 ), #47, .T. ) ;
#327 = COLOUR_RGB ( '',1.000000000000000000, 0.000000000000000000, 0.000000000000000000 ) ;
#328 = STYLED_ITEM ( 'NONE', ( #186 ), #245 ) ;
#329 = DIRECTION ( 'NONE',  ( -1.000000000000000000, 0.000000000000000000, 0.000000000000000000 ) ) ;
#330 = PRODUCT_RELATED_PRODUCT_CATEGORY ( 'part', '', ( #126 ) ) ;
#331 = SURFACE_STYLE_USAGE ( .BOTH. , #192 ) ;
#332 = APPLICATION_CONTEXT ( 'automotive_design' ) ;
#333 = AXIS2_PLACEMENT_3D ( 'NONE', #6, #98, #214 ) ;
#334 = DIRECTION ( 'NONE',  ( -0.000000000000000000, -1.000000000000000000, -0.000000000000000000 ) ) ;
#335 = FACE_OUTER_BOUND ( 'NONE', #181, .T. ) ;
#336 =( NAMED_UNIT ( * ) PLANE_ANGLE_UNIT ( ) SI_UNIT ( $, .RADIAN. ) );
#337 =( NAMED_UNIT ( * ) SI_UNIT ( $, .STERADIAN. ) SOLID_ANGLE_UNIT ( ) );
#338 = FACE_OUTER_BOUND ( 'NONE', #318, .T. ) ;
#339 =( LENGTH_UNIT ( ) NAMED_UNIT ( * ) SI_UNIT ( .MILLI., .METRE. ) );
#340 = FILL_AREA_STYLE_COLOUR ( '', #327 ) ;
#341 = EDGE_LOOP ( 'NONE', ( #269, #366 ) ) ;
#342 =( NAMED_UNIT ( * ) PLANE_ANGLE_UNIT ( ) SI_UNIT ( $, .RADIAN. ) );
#343 = DIRECTION ( 'NONE',  ( 0.000000000000000000, 0.000000000000000000, -1.000000000000000000 ) ) ;
#344 = AXIS2_PLACEMENT_3D ( 'NONE', #298, #9, #237 ) ;
#345 = CARTESIAN_POINT ( 'NONE',  ( 0.000000000000000000, 0.000000000000000000, 0.000000000000000000 ) ) ;
#346 =( GEOMETRIC_REPRESENTATION_CONTEXT ( 3 ) GLOBAL_UNCERTAINTY_ASSIGNED_CONTEXT ( ( #303 ) ) GLOBAL_UNIT_ASSIGNED_CONTEXT ( ( #284, #279, #337 ) ) REPRESENTATION_CONTEXT ( 'NONE', 'WORKASPACE' ) );
#347 = PLANE ( 'NONE',  #234 ) ;
#348 = ORIENTED_EDGE ( 'NONE', *, *, #35, .T. ) ;
#349 = SURFACE_SIDE_STYLE ('',( #46 ) ) ;
#350 = DIRECTION ( 'NONE',  ( -0.000000000000000000, -1.000000000000000000, -0.000000000000000000 ) ) ;
#351 = VECTOR ( 'NONE', #36, 1000.000000000000000 ) ;
#352 = CARTESIAN_POINT ( 'NONE',  ( 0.000000000000000000, 1.000000000000000000, 0.000000000000000000 ) ) ;
#353 = DIRECTION ( 'NONE',  ( 0.000000000000000000, 0.000000000000000000, -1.000000000000000000 ) ) ;
#354 = ORIENTED_EDGE ( 'NONE', *, *, #54, .F. ) ;
#355 = EDGE_CURVE ( 'NONE', #96, #7, #12, .T. ) ;
#356 = EDGE_LOOP ( 'NONE', ( #224, #321 ) ) ;
#357 = CIRCLE ( 'NONE', #265, 1.000000000000000000 ) ;
#358 = ADVANCED_FACE ( 'NONE', ( #22 ), #282, .T. ) ;
#359 = PRESENTATION_STYLE_ASSIGNMENT (( #331 ) ) ;
#360 = AXIS2_PLACEMENT_3D ( 'NONE', #109, #173, #295 ) ;
#361 = FILL_AREA_STYLE ('',( #133 ) ) ;
#362 = DIRECTION ( 'NONE',  ( -1.279215233315390572E-16, 1.000000000000000000, -0.000000000000000000 ) ) ;
#363 = SURFACE_STYLE_FILL_AREA ( #361 ) ;
#364 = CIRCLE ( 'NONE', #360, 8.000000000000000000 ) ;
#365 = FILL_AREA_STYLE_COLOUR ( '', #267 ) ;
#366 = ORIENTED_EDGE ( 'NONE', *, *, #88, .T. ) ;
#367 = DIRECTION ( 'NONE',  ( 0.000000000000000000, 0.000000000000000000, -1.000000000000000000 ) ) ;
#368 = CARTESIAN_POINT ( 'NONE',  ( 8.000000000000000000, 89.00000000000000000, 0.000000000000000000 ) ) ;
#369 = MANIFOLD_SOLID_BREP ( 'Revolve - Cutting Edge', #10 ) ;
#370 = DIRECTION ( 'NONE',  ( 1.000000000000000000, 0.000000000000000000, 0.000000000000000000 ) ) ;
ENDSEC;
END-ISO-10303-21;
