ISO-10303-21;
HEADER;
FILE_DESCRIPTION (( 'STEP AP214' ),
    '1' );
FILE_NAME ('59479.STEP',
    '2023-07-24T15:47:52',
    ( '' ),
    ( '' ),
    'SwSTEP 2.0',
    'SolidWorks 2023',
    '' );
FILE_SCHEMA (( 'AUTOMOTIVE_DESIGN' ));
ENDSEC;

DATA;
#1 = DIRECTION ( 'NONE',  ( -0.000000000000000000, -1.000000000000000000, -0.000000000000000000 ) ) ;
#2 =( LENGTH_UNIT ( ) NAMED_UNIT ( * ) SI_UNIT ( .MILLI., .METRE. ) );
#3 = CIRCLE ( 'NONE', #162, 4.000000000000000000 ) ;
#4 = CARTESIAN_POINT ( 'NONE',  ( 4.898587196589412829E-16, 0.000000000000000000, 4.000000000000000000 ) ) ;
#5 = LINE ( 'NONE', #198, #219 ) ;
#6 = PLANE ( 'NONE',  #156 ) ;
#7 = CARTESIAN_POINT ( 'NONE',  ( 3.184081677783117402E-15, 63.00000000000000000, 0.000000000000000000 ) ) ;
#8 = MECHANICAL_DESIGN_GEOMETRIC_PRESENTATION_REPRESENTATION (  '', ( #155 ), #175 ) ;
#9 = STYLED_ITEM ( 'NONE', ( #273 ), #226 ) ;
#10 = CARTESIAN_POINT ( 'NONE',  ( 0.000000000000000000, 0.000000000000000000, 0.000000000000000000 ) ) ;
#11 =( LENGTH_UNIT ( ) NAMED_UNIT ( * ) SI_UNIT ( .MILLI., .METRE. ) );
#12 = CIRCLE ( 'NONE', #229, 4.000000000000000000 ) ;
#13 = MECHANICAL_DESIGN_GEOMETRIC_PRESENTATION_REPRESENTATION (  '', ( #91 ), #75 ) ;
#14 = FACE_OUTER_BOUND ( 'NONE', #238, .T. ) ;
#15 = EDGE_LOOP ( 'NONE', ( #254, #123 ) ) ;
#16 = UNCERTAINTY_MEASURE_WITH_UNIT (LENGTH_MEASURE( 1.000000000000000082E-05 ), #52, 'distance_accuracy_value', 'NONE');
#17 = FILL_AREA_STYLE_COLOUR ( '', #122 ) ;
#18 = EDGE_LOOP ( 'NONE', ( #215, #288 ) ) ;
#19 = AXIS2_PLACEMENT_3D ( 'NONE', #53, #236, #37 ) ;
#20 = EDGE_CURVE ( 'NONE', #152, #258, #3, .T. ) ;
#21 = ORIENTED_EDGE ( 'NONE', *, *, #242, .T. ) ;
#22 = CARTESIAN_POINT ( 'NONE',  ( 4.000000000000000000, 16.00000000000000000, 4.898587196589411843E-16 ) ) ;
#23 = CARTESIAN_POINT ( 'NONE',  ( 4.898587196589412829E-16, 16.00000000000000000, 4.000000000000000000 ) ) ;
#24 = DIRECTION ( 'NONE',  ( 6.774641867623654571E-17, 1.000000000000000000, -0.000000000000000000 ) ) ;
#25 = CARTESIAN_POINT ( 'NONE',  ( -3.999999999999993339, 63.00000000000000000, 0.000000000000000000 ) ) ;
#26 = DIRECTION ( 'NONE',  ( 6.774641867623654571E-17, 1.000000000000000000, -0.000000000000000000 ) ) ;
#27 =( NAMED_UNIT ( * ) PLANE_ANGLE_UNIT ( ) SI_UNIT ( $, .RADIAN. ) );
#28 = SURFACE_SIDE_STYLE ('',( #117 ) ) ;
#29 = EDGE_CURVE ( 'NONE', #233, #102, #261, .T. ) ;
#30 = FILL_AREA_STYLE_COLOUR ( '', #42 ) ;
#31 =( GEOMETRIC_REPRESENTATION_CONTEXT ( 3 ) GLOBAL_UNCERTAINTY_ASSIGNED_CONTEXT ( ( #36 ) ) GLOBAL_UNIT_ASSIGNED_CONTEXT ( ( #149, #170, #151 ) ) REPRESENTATION_CONTEXT ( 'NONE', 'WORKASPACE' ) );
#32 = ADVANCED_FACE ( 'NONE', ( #282 ), #74, .T. ) ;
#33 = CARTESIAN_POINT ( 'NONE',  ( -3.851859888774471706E-31, 16.00000000000000000, 0.000000000000000000 ) ) ;
#34 = DIRECTION ( 'NONE',  ( 0.000000000000000000, 0.000000000000000000, 1.000000000000000000 ) ) ;
#35 = ORIENTED_EDGE ( 'NONE', *, *, #150, .F. ) ;
#36 = UNCERTAINTY_MEASURE_WITH_UNIT (LENGTH_MEASURE( 1.000000000000000082E-05 ), #149, 'distance_accuracy_value', 'NONE');
#37 = DIRECTION ( 'NONE',  ( 0.000000000000000000, 0.000000000000000000, -1.000000000000000000 ) ) ;
#38 = MECHANICAL_DESIGN_GEOMETRIC_PRESENTATION_REPRESENTATION (  '', ( #145 ), #31 ) ;
#39 = COLOUR_RGB ( '',0.7921568627450980005, 0.8196078431372548767, 0.9333333333333333481 ) ;
#40 = SURFACE_STYLE_FILL_AREA ( #186 ) ;
#41 = DIRECTION ( 'NONE',  ( 0.000000000000000000, 0.000000000000000000, -1.000000000000000000 ) ) ;
#42 = COLOUR_RGB ( '',1.000000000000000000, 0.000000000000000000, 0.000000000000000000 ) ;
#43 = DIRECTION ( 'NONE',  ( -1.000000000000000000, 0.000000000000000000, 0.000000000000000000 ) ) ;
#44 = VECTOR ( 'NONE', #178, 1000.000000000000000 ) ;
#45 = DIRECTION ( 'NONE',  ( 0.000000000000000000, 1.000000000000000000, 0.000000000000000000 ) ) ;
#46 =( GEOMETRIC_REPRESENTATION_CONTEXT ( 3 ) GLOBAL_UNCERTAINTY_ASSIGNED_CONTEXT ( ( #16 ) ) GLOBAL_UNIT_ASSIGNED_CONTEXT ( ( #52, #287, #232 ) ) REPRESENTATION_CONTEXT ( 'NONE', 'WORKASPACE' ) );
#47 = FILL_AREA_STYLE ('',( #118 ) ) ;
#48 = CIRCLE ( 'NONE', #128, 4.000000000000000000 ) ;
#49 = PRESENTATION_LAYER_ASSIGNMENT (  '', '', ( #9 ) ) ;
#50 = EDGE_CURVE ( 'NONE', #258, #152, #12, .T. ) ;
#51 = DIRECTION ( 'NONE',  ( 6.774641867623654571E-17, 1.000000000000000000, -0.000000000000000000 ) ) ;
#52 =( LENGTH_UNIT ( ) NAMED_UNIT ( * ) SI_UNIT ( .MILLI., .METRE. ) );
#53 = CARTESIAN_POINT ( 'NONE',  ( 0.000000000000000000, 16.00000000000000000, 0.000000000000000000 ) ) ;
#54 = VERTEX_POINT ( 'NONE', #25 ) ;
#55 =( GEOMETRIC_REPRESENTATION_CONTEXT ( 3 ) GLOBAL_UNCERTAINTY_ASSIGNED_CONTEXT ( ( #213 ) ) GLOBAL_UNIT_ASSIGNED_CONTEXT ( ( #67, #27, #70 ) ) REPRESENTATION_CONTEXT ( 'NONE', 'WORKASPACE' ) );
#56 = PRESENTATION_STYLE_ASSIGNMENT (( #78 ) ) ;
#57 = ORIENTED_EDGE ( 'NONE', *, *, #29, .T. ) ;
#58 = PRESENTATION_STYLE_ASSIGNMENT (( #99 ) ) ;
#59 = ORIENTED_EDGE ( 'NONE', *, *, #242, .F. ) ;
#60 = ORIENTED_EDGE ( 'NONE', *, *, #271, .F. ) ;
#61 = DIRECTION ( 'NONE',  ( 1.000000000000000000, -6.774641867623654571E-17, 0.000000000000000000 ) ) ;
#62 = PRESENTATION_STYLE_ASSIGNMENT (( #270 ) ) ;
#63 = DIRECTION ( 'NONE',  ( -0.000000000000000000, -1.000000000000000000, -0.000000000000000000 ) ) ;
#64 = CARTESIAN_POINT ( 'NONE',  ( 0.000000000000000000, 0.000000000000000000, 0.000000000000000000 ) ) ;
#65 = CARTESIAN_POINT ( 'NONE',  ( 0.000000000000000000, 16.00000000000000000, 0.000000000000000000 ) ) ;
#66 =( NAMED_UNIT ( * ) SI_UNIT ( $, .STERADIAN. ) SOLID_ANGLE_UNIT ( ) );
#67 =( LENGTH_UNIT ( ) NAMED_UNIT ( * ) SI_UNIT ( .MILLI., .METRE. ) );
#68 = SURFACE_STYLE_USAGE ( .BOTH. , #224 ) ;
#69 = PRODUCT_DEFINITION_FORMATION_WITH_SPECIFIED_SOURCE ( 'ANY', '', #286, .NOT_KNOWN. ) ;
#70 =( NAMED_UNIT ( * ) SI_UNIT ( $, .STERADIAN. ) SOLID_ANGLE_UNIT ( ) );
#71 = CARTESIAN_POINT ( 'NONE',  ( 3.184081677783117402E-15, 63.00000000000000000, 0.000000000000000000 ) ) ;
#72 = ORIENTED_EDGE ( 'NONE', *, *, #259, .T. ) ;
#73 = SHAPE_DEFINITION_REPRESENTATION ( #188, #249 ) ;
#74 = CYLINDRICAL_SURFACE ( 'NONE', #172, 4.000000000000000000 ) ;
#75 =( GEOMETRIC_REPRESENTATION_CONTEXT ( 3 ) GLOBAL_UNCERTAINTY_ASSIGNED_CONTEXT ( ( #228 ) ) GLOBAL_UNIT_ASSIGNED_CONTEXT ( ( #244, #110, #114 ) ) REPRESENTATION_CONTEXT ( 'NONE', 'WORKASPACE' ) );
#76 = APPLICATION_CONTEXT ( 'automotive_design' ) ;
#77 = PRODUCT_CONTEXT ( 'NONE', #201, 'mechanical' ) ;
#78 = SURFACE_STYLE_USAGE ( .BOTH. , #168 ) ;
#79 = CARTESIAN_POINT ( 'NONE',  ( 4.898587196589412829E-16, 0.000000000000000000, 4.000000000000000000 ) ) ;
#80 = ORIENTED_EDGE ( 'NONE', *, *, #103, .T. ) ;
#81 = EDGE_CURVE ( 'NONE', #102, #279, #154, .T. ) ;
#82 = DIRECTION ( 'NONE',  ( -0.000000000000000000, -1.000000000000000000, -0.000000000000000000 ) ) ;
#83 = ORIENTED_EDGE ( 'NONE', *, *, #81, .T. ) ;
#84 = MECHANICAL_DESIGN_GEOMETRIC_PRESENTATION_REPRESENTATION (  '', ( #87 ), #272 ) ;
#85 = CIRCLE ( 'NONE', #262, 3.999999999999996447 ) ;
#86 = SURFACE_STYLE_FILL_AREA ( #177 ) ;
#87 = STYLED_ITEM ( 'NONE', ( #58 ), #280 ) ;
#88 =( NAMED_UNIT ( * ) SI_UNIT ( $, .STERADIAN. ) SOLID_ANGLE_UNIT ( ) );
#89 = FILL_AREA_STYLE_COLOUR ( '', #256 ) ;
#90 = CARTESIAN_POINT ( 'NONE',  ( 0.000000000000000000, 0.000000000000000000, -4.000000000000000000 ) ) ;
#91 = STYLED_ITEM ( 'NONE', ( #158 ), #185 ) ;
#92 = PLANE ( 'NONE',  #248 ) ;
#93 = ADVANCED_FACE ( 'NONE', ( #157 ), #223, .F. ) ;
#94 = PRESENTATION_STYLE_ASSIGNMENT (( #274 ) ) ;
#95 = CLOSED_SHELL ( 'NONE', ( #275, #251, #237, #93 ) ) ;
#96 = AXIS2_PLACEMENT_3D ( 'NONE', #10, #225, #276 ) ;
#97 = DIRECTION ( 'NONE',  ( 6.774641867623654571E-17, 1.000000000000000000, -0.000000000000000000 ) ) ;
#98 = ORIENTED_EDGE ( 'NONE', *, *, #81, .F. ) ;
#99 = SURFACE_STYLE_USAGE ( .BOTH. , #169 ) ;
#100 = ORIENTED_EDGE ( 'NONE', *, *, #161, .T. ) ;
#101 = EDGE_LOOP ( 'NONE', ( #21, #212 ) ) ;
#102 = VERTEX_POINT ( 'NONE', #23 ) ;
#103 = EDGE_CURVE ( 'NONE', #196, #279, #246, .T. ) ;
#104 =( NAMED_UNIT ( * ) SI_UNIT ( $, .STERADIAN. ) SOLID_ANGLE_UNIT ( ) );
#105 = ORIENTED_EDGE ( 'NONE', *, *, #150, .T. ) ;
#106 = EDGE_CURVE ( 'NONE', #152, #119, #5, .T. ) ;
#107 = LINE ( 'NONE', #131, #183 ) ;
#108 = AXIS2_PLACEMENT_3D ( 'NONE', #64, #221, #113 ) ;
#109 = VECTOR ( 'NONE', #278, 1000.000000000000000 ) ;
#110 =( NAMED_UNIT ( * ) PLANE_ANGLE_UNIT ( ) SI_UNIT ( $, .RADIAN. ) );
#111 = FILL_AREA_STYLE ('',( #89 ) ) ;
#112 = AXIS2_PLACEMENT_3D ( 'NONE', #257, #34, #167 ) ;
#113 = DIRECTION ( 'NONE',  ( 0.000000000000000000, 0.000000000000000000, -1.000000000000000000 ) ) ;
#114 =( NAMED_UNIT ( * ) SI_UNIT ( $, .STERADIAN. ) SOLID_ANGLE_UNIT ( ) );
#115 =( GEOMETRIC_REPRESENTATION_CONTEXT ( 3 ) GLOBAL_UNCERTAINTY_ASSIGNED_CONTEXT ( ( #231 ) ) GLOBAL_UNIT_ASSIGNED_CONTEXT ( ( #11, #200, #66 ) ) REPRESENTATION_CONTEXT ( 'NONE', 'WORKASPACE' ) );
#116 = CARTESIAN_POINT ( 'NONE',  ( 3.184081677783117402E-15, 63.00000000000000000, 0.000000000000000000 ) ) ;
#117 = SURFACE_STYLE_FILL_AREA ( #277 ) ;
#118 = FILL_AREA_STYLE_COLOUR ( '', #39 ) ;
#119 = VERTEX_POINT ( 'NONE', #239 ) ;
#120 = PRODUCT_DEFINITION_CONTEXT ( 'detailed design', #76, 'design' ) ;
#121 = CARTESIAN_POINT ( 'NONE',  ( -3.999999999999994671, 63.00000000000000000, 0.000000000000000000 ) ) ;
#122 = COLOUR_RGB ( '',1.000000000000000000, 0.000000000000000000, 0.000000000000000000 ) ;
#123 = ORIENTED_EDGE ( 'NONE', *, *, #20, .F. ) ;
#124 = PRODUCT_DEFINITION ( 'UNKNOWN', '', #69, #120 ) ;
#125 = APPLICATION_PROTOCOL_DEFINITION ( 'draft international standard', 'automotive_design', 1998, #201 ) ;
#126 = FILL_AREA_STYLE_COLOUR ( '', #135 ) ;
#127 = CLOSED_SHELL ( 'NONE', ( #280, #192, #32, #185 ) ) ;
#128 = AXIS2_PLACEMENT_3D ( 'NONE', #218, #159, #41 ) ;
#129 = EDGE_LOOP ( 'NONE', ( #255, #263, #59, #60 ) ) ;
#130 = DIRECTION ( 'NONE',  ( 6.774641867623654571E-17, 1.000000000000000000, -0.000000000000000000 ) ) ;
#131 = CARTESIAN_POINT ( 'NONE',  ( 0.000000000000000000, 0.000000000000000000, -4.000000000000000000 ) ) ;
#132 = AXIS2_PLACEMENT_3D ( 'NONE', #217, #208, #189 ) ;
#133 = FACE_OUTER_BOUND ( 'NONE', #205, .T. ) ;
#134 = MANIFOLD_SOLID_BREP ( 'Revolve - Tool Body (Straight Shanked)', #95 ) ;
#135 = COLOUR_RGB ( '',1.000000000000000000, 0.000000000000000000, 0.000000000000000000 ) ;
#136 = AXIS2_PLACEMENT_3D ( 'NONE', #116, #26, #182 ) ;
#137 = FACE_OUTER_BOUND ( 'NONE', #171, .T. ) ;
#138 = PRODUCT_RELATED_PRODUCT_CATEGORY ( 'part', '', ( #286 ) ) ;
#139 = SURFACE_STYLE_FILL_AREA ( #47 ) ;
#140 = CIRCLE ( 'NONE', #136, 3.999999999999996447 ) ;
#141 = CARTESIAN_POINT ( 'NONE',  ( 0.000000000000000000, 16.00000000000000000, -4.000000000000000000 ) ) ;
#142 = CARTESIAN_POINT ( 'NONE',  ( -4.000000000000000000, 16.00000000000000000, 0.000000000000000000 ) ) ;
#143 =( NAMED_UNIT ( * ) PLANE_ANGLE_UNIT ( ) SI_UNIT ( $, .RADIAN. ) );
#144 = UNCERTAINTY_MEASURE_WITH_UNIT (LENGTH_MEASURE( 1.000000000000000082E-05 ), #253, 'distance_accuracy_value', 'NONE');
#145 = STYLED_ITEM ( 'NONE', ( #56 ), #32 ) ;
#146 = DIRECTION ( 'NONE',  ( -1.000000000000000000, 0.000000000000000000, 0.000000000000000000 ) ) ;
#147 = ORIENTED_EDGE ( 'NONE', *, *, #20, .T. ) ;
#148 = DIRECTION ( 'NONE',  ( 6.774641867623654571E-17, 1.000000000000000000, -0.000000000000000000 ) ) ;
#149 =( LENGTH_UNIT ( ) NAMED_UNIT ( * ) SI_UNIT ( .MILLI., .METRE. ) );
#150 = EDGE_CURVE ( 'NONE', #279, #196, #48, .T. ) ;
#151 =( NAMED_UNIT ( * ) SI_UNIT ( $, .STERADIAN. ) SOLID_ANGLE_UNIT ( ) );
#152 = VERTEX_POINT ( 'NONE', #22 ) ;
#153 =( NAMED_UNIT ( * ) PLANE_ANGLE_UNIT ( ) SI_UNIT ( $, .RADIAN. ) );
#154 = LINE ( 'NONE', #4, #44 ) ;
#155 = STYLED_ITEM ( 'NONE', ( #62 ), #134 ) ;
#156 = AXIS2_PLACEMENT_3D ( 'NONE', #65, #45, #184 ) ;
#157 = FACE_OUTER_BOUND ( 'NONE', #101, .T. ) ;
#158 = PRESENTATION_STYLE_ASSIGNMENT (( #269 ) ) ;
#159 = DIRECTION ( 'NONE',  ( -0.000000000000000000, -1.000000000000000000, -0.000000000000000000 ) ) ;
#160 = MECHANICAL_DESIGN_GEOMETRIC_PRESENTATION_REPRESENTATION (  '', ( #241 ), #115 ) ;
#161 = EDGE_CURVE ( 'NONE', #233, #196, #107, .T. ) ;
#162 = AXIS2_PLACEMENT_3D ( 'NONE', #33, #210, #146 ) ;
#163 = FACE_OUTER_BOUND ( 'NONE', #15, .T. ) ;
#164 = UNCERTAINTY_MEASURE_WITH_UNIT (LENGTH_MEASURE( 1.000000000000000082E-05 ), #2, 'distance_accuracy_value', 'NONE');
#165 = ORIENTED_EDGE ( 'NONE', *, *, #106, .F. ) ;
#166 = FILL_AREA_STYLE ('',( #126 ) ) ;
#167 = DIRECTION ( 'NONE',  ( 1.000000000000000000, 0.000000000000000000, 0.000000000000000000 ) ) ;
#168 = SURFACE_SIDE_STYLE ('',( #235 ) ) ;
#169 = SURFACE_SIDE_STYLE ('',( #40 ) ) ;
#170 =( NAMED_UNIT ( * ) PLANE_ANGLE_UNIT ( ) SI_UNIT ( $, .RADIAN. ) );
#171 = EDGE_LOOP ( 'NONE', ( #165, #147, #187, #195 ) ) ;
#172 = AXIS2_PLACEMENT_3D ( 'NONE', #199, #63, #240 ) ;
#173 = PRESENTATION_LAYER_ASSIGNMENT (  '', '', ( #87 ) ) ;
#174 = SURFACE_SIDE_STYLE ('',( #86 ) ) ;
#175 =( GEOMETRIC_REPRESENTATION_CONTEXT ( 3 ) GLOBAL_UNCERTAINTY_ASSIGNED_CONTEXT ( ( #164 ) ) GLOBAL_UNIT_ASSIGNED_CONTEXT ( ( #2, #153, #88 ) ) REPRESENTATION_CONTEXT ( 'NONE', 'WORKASPACE' ) );
#176 = COLOUR_RGB ( '',1.000000000000000000, 0.000000000000000000, 0.000000000000000000 ) ;
#177 = FILL_AREA_STYLE ('',( #220 ) ) ;
#178 = DIRECTION ( 'NONE',  ( -0.000000000000000000, -1.000000000000000000, -0.000000000000000000 ) ) ;
#179 = MECHANICAL_DESIGN_GEOMETRIC_PRESENTATION_REPRESENTATION (  '', ( #9 ), #55 ) ;
#180 = DIRECTION ( 'NONE',  ( -1.000000000000000000, 6.774641867623654571E-17, 0.000000000000000000 ) ) ;
#181 = DIRECTION ( 'NONE',  ( -1.000000000000000000, 0.000000000000000000, 0.000000000000000000 ) ) ;
#182 = DIRECTION ( 'NONE',  ( -1.000000000000000000, 0.000000000000000000, 0.000000000000000000 ) ) ;
#183 = VECTOR ( 'NONE', #1, 1000.000000000000000 ) ;
#184 = DIRECTION ( 'NONE',  ( 0.000000000000000000, -0.000000000000000000, 1.000000000000000000 ) ) ;
#185 = ADVANCED_FACE ( 'NONE', ( #133 ), #222, .T. ) ;
#186 = FILL_AREA_STYLE ('',( #17 ) ) ;
#187 = ORIENTED_EDGE ( 'NONE', *, *, #271, .T. ) ;
#188 = PRODUCT_DEFINITION_SHAPE ( 'NONE', 'NONE',  #124 ) ;
#189 = DIRECTION ( 'NONE',  ( 0.000000000000000000, 0.000000000000000000, -1.000000000000000000 ) ) ;
#190 = PRESENTATION_LAYER_ASSIGNMENT (  '', '', ( #155 ) ) ;
#191 = CYLINDRICAL_SURFACE ( 'NONE', #247, 4.000000000000000000 ) ;
#192 = ADVANCED_FACE ( 'NONE', ( #227 ), #6, .T. ) ;
#193 = ORIENTED_EDGE ( 'NONE', *, *, #161, .F. ) ;
#194 = DIRECTION ( 'NONE',  ( -1.000000000000000000, 0.000000000000000000, 0.000000000000000000 ) ) ;
#195 = ORIENTED_EDGE ( 'NONE', *, *, #268, .F. ) ;
#196 = VERTEX_POINT ( 'NONE', #90 ) ;
#197 = DIRECTION ( 'NONE',  ( -6.774641867623654571E-17, -1.000000000000000000, 0.000000000000000000 ) ) ;
#198 = CARTESIAN_POINT ( 'NONE',  ( 4.000000000000001776, 63.00000000000000000, 4.898587196589410857E-16 ) ) ;
#199 = CARTESIAN_POINT ( 'NONE',  ( 0.000000000000000000, 0.000000000000000000, 0.000000000000000000 ) ) ;
#200 =( NAMED_UNIT ( * ) PLANE_ANGLE_UNIT ( ) SI_UNIT ( $, .RADIAN. ) );
#201 = APPLICATION_CONTEXT ( 'automotive_design' ) ;
#202 = PRESENTATION_LAYER_ASSIGNMENT (  '', '', ( #241 ) ) ;
#203 = CYLINDRICAL_SURFACE ( 'NONE', #250, 3.999999999999998224 ) ;
#204 = DIRECTION ( 'NONE',  ( 6.774641867623654571E-17, 1.000000000000000000, -0.000000000000000000 ) ) ;
#205 = EDGE_LOOP ( 'NONE', ( #80, #105 ) ) ;
#206 = AXIS2_PLACEMENT_3D ( 'NONE', #245, #197, #61 ) ;
#207 = LINE ( 'NONE', #121, #109 ) ;
#208 = DIRECTION ( 'NONE',  ( -0.000000000000000000, -1.000000000000000000, -0.000000000000000000 ) ) ;
#209 = APPLICATION_PROTOCOL_DEFINITION ( 'draft international standard', 'automotive_design', 1998, #76 ) ;
#210 = DIRECTION ( 'NONE',  ( 6.774641867623654571E-17, 1.000000000000000000, -0.000000000000000000 ) ) ;
#211 = CARTESIAN_POINT ( 'NONE',  ( 3.184081677783117402E-15, 63.00000000000000000, 0.000000000000000000 ) ) ;
#212 = ORIENTED_EDGE ( 'NONE', *, *, #268, .T. ) ;
#213 = UNCERTAINTY_MEASURE_WITH_UNIT (LENGTH_MEASURE( 1.000000000000000082E-05 ), #67, 'distance_accuracy_value', 'NONE');
#214 = AXIS2_PLACEMENT_3D ( 'NONE', #71, #97, #284 ) ;
#215 = ORIENTED_EDGE ( 'NONE', *, *, #29, .F. ) ;
#216 = DIRECTION ( 'NONE',  ( 0.000000000000000000, 0.000000000000000000, -1.000000000000000000 ) ) ;
#217 = CARTESIAN_POINT ( 'NONE',  ( 0.000000000000000000, 16.00000000000000000, 0.000000000000000000 ) ) ;
#218 = CARTESIAN_POINT ( 'NONE',  ( 0.000000000000000000, 0.000000000000000000, 0.000000000000000000 ) ) ;
#219 = VECTOR ( 'NONE', #130, 1000.000000000000000 ) ;
#220 = FILL_AREA_STYLE_COLOUR ( '', #176 ) ;
#221 = DIRECTION ( 'NONE',  ( -0.000000000000000000, -1.000000000000000000, -0.000000000000000000 ) ) ;
#222 = PLANE ( 'NONE',  #96 ) ;
#223 = PLANE ( 'NONE',  #206 ) ;
#224 = SURFACE_SIDE_STYLE ('',( #139 ) ) ;
#225 = DIRECTION ( 'NONE',  ( 0.000000000000000000, -1.000000000000000000, -0.000000000000000000 ) ) ;
#226 = MANIFOLD_SOLID_BREP ( 'Revolve - Cutting Edge', #127 ) ;
#227 = FACE_OUTER_BOUND ( 'NONE', #18, .T. ) ;
#228 = UNCERTAINTY_MEASURE_WITH_UNIT (LENGTH_MEASURE( 1.000000000000000082E-05 ), #244, 'distance_accuracy_value', 'NONE');
#229 = AXIS2_PLACEMENT_3D ( 'NONE', #264, #24, #43 ) ;
#230 = ORIENTED_EDGE ( 'NONE', *, *, #103, .F. ) ;
#231 = UNCERTAINTY_MEASURE_WITH_UNIT (LENGTH_MEASURE( 1.000000000000000082E-05 ), #11, 'distance_accuracy_value', 'NONE');
#232 =( NAMED_UNIT ( * ) SI_UNIT ( $, .STERADIAN. ) SOLID_ANGLE_UNIT ( ) );
#233 = VERTEX_POINT ( 'NONE', #141 ) ;
#234 = CYLINDRICAL_SURFACE ( 'NONE', #214, 3.999999999999998224 ) ;
#235 = SURFACE_STYLE_FILL_AREA ( #166 ) ;
#236 = DIRECTION ( 'NONE',  ( -0.000000000000000000, -1.000000000000000000, -0.000000000000000000 ) ) ;
#237 = ADVANCED_FACE ( 'NONE', ( #137 ), #203, .T. ) ;
#238 = EDGE_LOOP ( 'NONE', ( #57, #83, #230, #193 ) ) ;
#239 = CARTESIAN_POINT ( 'NONE',  ( 4.000000000000000000, 63.00000000000000000, 4.898587196589411843E-16 ) ) ;
#240 = DIRECTION ( 'NONE',  ( 0.000000000000000000, 0.000000000000000000, -1.000000000000000000 ) ) ;
#241 = STYLED_ITEM ( 'NONE', ( #94 ), #192 ) ;
#242 = EDGE_CURVE ( 'NONE', #54, #119, #140, .T. ) ;
#243 = SURFACE_STYLE_FILL_AREA ( #111 ) ;
#244 =( LENGTH_UNIT ( ) NAMED_UNIT ( * ) SI_UNIT ( .MILLI., .METRE. ) );
#245 = CARTESIAN_POINT ( 'NONE',  ( 4.000000000000000000, 63.00000000000000000, 0.000000000000000000 ) ) ;
#246 = CIRCLE ( 'NONE', #108, 4.000000000000000000 ) ;
#247 = AXIS2_PLACEMENT_3D ( 'NONE', #281, #82, #216 ) ;
#248 = AXIS2_PLACEMENT_3D ( 'NONE', #252, #51, #180 ) ;
#249 = ADVANCED_BREP_SHAPE_REPRESENTATION ( '59479', ( #226, #134, #112 ), #46 ) ;
#250 = AXIS2_PLACEMENT_3D ( 'NONE', #7, #204, #181 ) ;
#251 = ADVANCED_FACE ( 'NONE', ( #163 ), #92, .F. ) ;
#252 = CARTESIAN_POINT ( 'NONE',  ( 9.179154486911863099E-33, 16.00000000000000000, 0.000000000000000000 ) ) ;
#253 =( LENGTH_UNIT ( ) NAMED_UNIT ( * ) SI_UNIT ( .MILLI., .METRE. ) );
#254 = ORIENTED_EDGE ( 'NONE', *, *, #50, .F. ) ;
#255 = ORIENTED_EDGE ( 'NONE', *, *, #50, .T. ) ;
#256 = COLOUR_RGB ( '',0.7921568627450980005, 0.8196078431372548767, 0.9333333333333333481 ) ;
#257 = CARTESIAN_POINT ( 'NONE',  ( 0.000000000000000000, 0.000000000000000000, 0.000000000000000000 ) ) ;
#258 = VERTEX_POINT ( 'NONE', #142 ) ;
#259 = EDGE_CURVE ( 'NONE', #102, #233, #267, .T. ) ;
#260 = FACE_OUTER_BOUND ( 'NONE', #129, .T. ) ;
#261 = CIRCLE ( 'NONE', #132, 4.000000000000000000 ) ;
#262 = AXIS2_PLACEMENT_3D ( 'NONE', #211, #148, #194 ) ;
#263 = ORIENTED_EDGE ( 'NONE', *, *, #106, .T. ) ;
#264 = CARTESIAN_POINT ( 'NONE',  ( -3.851859888774471706E-31, 16.00000000000000000, 0.000000000000000000 ) ) ;
#265 = SURFACE_SIDE_STYLE ('',( #243 ) ) ;
#266 = PRESENTATION_LAYER_ASSIGNMENT (  '', '', ( #145 ) ) ;
#267 = CIRCLE ( 'NONE', #19, 4.000000000000000000 ) ;
#268 = EDGE_CURVE ( 'NONE', #119, #54, #85, .T. ) ;
#269 = SURFACE_STYLE_USAGE ( .BOTH. , #174 ) ;
#270 = SURFACE_STYLE_USAGE ( .BOTH. , #265 ) ;
#271 = EDGE_CURVE ( 'NONE', #258, #54, #207, .T. ) ;
#272 =( GEOMETRIC_REPRESENTATION_CONTEXT ( 3 ) GLOBAL_UNCERTAINTY_ASSIGNED_CONTEXT ( ( #144 ) ) GLOBAL_UNIT_ASSIGNED_CONTEXT ( ( #253, #143, #104 ) ) REPRESENTATION_CONTEXT ( 'NONE', 'WORKASPACE' ) );
#273 = PRESENTATION_STYLE_ASSIGNMENT (( #68 ) ) ;
#274 = SURFACE_STYLE_USAGE ( .BOTH. , #28 ) ;
#275 = ADVANCED_FACE ( 'NONE', ( #260 ), #234, .T. ) ;
#276 = DIRECTION ( 'NONE',  ( 0.000000000000000000, 0.000000000000000000, -1.000000000000000000 ) ) ;
#277 = FILL_AREA_STYLE ('',( #30 ) ) ;
#278 = DIRECTION ( 'NONE',  ( 6.774641867623654571E-17, 1.000000000000000000, -0.000000000000000000 ) ) ;
#279 = VERTEX_POINT ( 'NONE', #79 ) ;
#280 = ADVANCED_FACE ( 'NONE', ( #14 ), #191, .T. ) ;
#281 = CARTESIAN_POINT ( 'NONE',  ( 0.000000000000000000, 0.000000000000000000, 0.000000000000000000 ) ) ;
#282 = FACE_OUTER_BOUND ( 'NONE', #285, .T. ) ;
#283 = PRESENTATION_LAYER_ASSIGNMENT (  '', '', ( #91 ) ) ;
#284 = DIRECTION ( 'NONE',  ( -1.000000000000000000, 0.000000000000000000, 0.000000000000000000 ) ) ;
#285 = EDGE_LOOP ( 'NONE', ( #98, #72, #100, #35 ) ) ;
#286 = PRODUCT ( '59479', '59479', '', ( #77 ) ) ;
#287 =( NAMED_UNIT ( * ) PLANE_ANGLE_UNIT ( ) SI_UNIT ( $, .RADIAN. ) );
#288 = ORIENTED_EDGE ( 'NONE', *, *, #259, .F. ) ;
ENDSEC;
END-ISO-10303-21;
