ISO-10303-21;
HEADER;
FILE_DESCRIPTION (( 'STEP AP214' ),
    '1' );
FILE_NAME ('Micro_GEM-078-4.STEP',
    '2021-09-01T19:11:29',
    ( '' ),
    ( '' ),
    'SwSTEP 2.0',
    'SolidWorks 2020',
    '' );
FILE_SCHEMA (( 'AUTOMOTIVE_DESIGN' ));
ENDSEC;

DATA;
#1 = ORIENTED_EDGE ( 'NONE', *, *, #230, .T. ) ;
#2 = APPLICATION_CONTEXT ( 'automotive_design' ) ;
#3 = FACE_OUTER_BOUND ( 'NONE', #25, .T. ) ;
#4 = CONICAL_SURFACE ( 'NONE', #124, 0.03901095000000000257, 0.1745329251994338915 ) ;
#5 = FACE_OUTER_BOUND ( 'NONE', #66, .T. ) ;
#6 = FACE_OUTER_BOUND ( 'NONE', #232, .T. ) ;
#7 = CARTESIAN_POINT ( 'NONE',  ( 2.302335982397025094E-17, 0.0000000000000000000, 0.1880000000000000282 ) ) ;
#8 = VECTOR ( 'NONE', #18, 39.37007874015747433 ) ;
#9 = EDGE_CURVE ( 'NONE', #20, #165, #54, .T. ) ;
#10 = PRESENTATION_STYLE_ASSIGNMENT (( #102 ) ) ;
#11 =( NAMED_UNIT ( * ) PLANE_ANGLE_UNIT ( ) SI_UNIT ( $, .RADIAN. ) );
#12 = PLANE ( 'NONE',  #56 ) ;
#13 = LINE ( 'NONE', #247, #279 ) ;
#14 =( NAMED_UNIT ( * ) SI_UNIT ( $, .STERADIAN. ) SOLID_ANGLE_UNIT ( ) );
#15 = CARTESIAN_POINT ( 'NONE',  ( 0.0000000000000000000, 0.0000000000000000000, 1.500000000000000222 ) ) ;
#16 = APPLICATION_PROTOCOL_DEFINITION ( 'draft international standard', 'automotive_design', 1998, #2 ) ;
#17 = EDGE_CURVE ( 'NONE', #36, #215, #244, .T. ) ;
#18 = DIRECTION ( 'NONE',  ( -0.1736481776669311916, 2.126576849575783316E-17, 0.9848077530122080203 ) ) ;
#19 =( GEOMETRIC_REPRESENTATION_CONTEXT ( 3 ) GLOBAL_UNCERTAINTY_ASSIGNED_CONTEXT ( ( #104 ) ) GLOBAL_UNIT_ASSIGNED_CONTEXT ( ( #249, #61, #14 ) ) REPRESENTATION_CONTEXT ( 'NONE', 'WORKASPACE' ) );
#20 = VERTEX_POINT ( 'NONE', #69 ) ;
#21 = CARTESIAN_POINT ( 'NONE',  ( 0.0000000000000000000, 0.0000000000000000000, 0.0000000000000000000 ) ) ;
#22 = EDGE_LOOP ( 'NONE', ( #89, #94, #235, #187 ) ) ;
#23 = DIRECTION ( 'NONE',  ( -1.224646799147353700E-16, -0.0000000000000000000, -1.000000000000000000 ) ) ;
#24 = COLOUR_RGB ( '',0.7921568627450980005, 0.8196078431372548767, 0.9333333333333333481 ) ;
#25 = EDGE_LOOP ( 'NONE', ( #114, #62, #140, #47 ) ) ;
#26 = DIRECTION ( 'NONE',  ( 0.0000000000000000000, 0.0000000000000000000, -1.000000000000000000 ) ) ;
#27 = CARTESIAN_POINT ( 'NONE',  ( 0.0000000000000000000, 0.0000000000000000000, 1.500000000000000222 ) ) ;
#28 = DIRECTION ( 'NONE',  ( -1.224646799147353700E-16, -0.0000000000000000000, -1.000000000000000000 ) ) ;
#29 = VECTOR ( 'NONE', #128, 39.37007874015748854 ) ;
#30 = CIRCLE ( 'NONE', #254, 0.03901095000000000257 ) ;
#31 = FACE_OUTER_BOUND ( 'NONE', #42, .T. ) ;
#32 = DIRECTION ( 'NONE',  ( -1.000000000000000000, 0.0000000000000000000, 0.0000000000000000000 ) ) ;
#33 = VECTOR ( 'NONE', #250, 39.37007874015748143 ) ;
#34 = DIRECTION ( 'NONE',  ( -1.224646799147353700E-16, -0.0000000000000000000, -1.000000000000000000 ) ) ;
#35 = EDGE_CURVE ( 'NONE', #20, #46, #278, .T. ) ;
#36 = VERTEX_POINT ( 'NONE', #123 ) ;
#37 = ADVANCED_FACE ( 'NONE', ( #5 ), #259, .T. ) ;
#38 =( LENGTH_UNIT ( ) NAMED_UNIT ( * ) SI_UNIT ( $, .METRE. ) );
#39 = ORIENTED_EDGE ( 'NONE', *, *, #113, .F. ) ;
#40 = ADVANCED_FACE ( 'NONE', ( #3 ), #257, .T. ) ;
#41 = PRODUCT_CONTEXT ( 'NONE', #2, 'mechanical' ) ;
#42 = EDGE_LOOP ( 'NONE', ( #251, #190, #86, #255 ) ) ;
#43 = SURFACE_STYLE_USAGE ( .BOTH. , #119 ) ;
#44 = ORIENTED_EDGE ( 'NONE', *, *, #223, .T. ) ;
#45 = COLOUR_RGB ( '',0.7921568627450980005, 0.8196078431372548767, 0.9333333333333333481 ) ;
#46 = VERTEX_POINT ( 'NONE', #261 ) ;
#47 = ORIENTED_EDGE ( 'NONE', *, *, #252, .F. ) ;
#48 = DIRECTION ( 'NONE',  ( -1.224646799147353700E-16, -0.0000000000000000000, -1.000000000000000000 ) ) ;
#49 = PRESENTATION_LAYER_ASSIGNMENT (  '', '', ( #108 ) ) ;
#50 = CARTESIAN_POINT ( 'NONE',  ( 0.0000000000000000000, 0.0000000000000000000, 1.500000000000000222 ) ) ;
#51 = CONICAL_SURFACE ( 'NONE', #245, 0.04750000000000064587, 0.7853981633974466137 ) ;
#52 = SURFACE_STYLE_FILL_AREA ( #224 ) ;
#53 = DIRECTION ( 'NONE',  ( 1.000000000000000000, 0.0000000000000000000, 0.0000000000000000000 ) ) ;
#54 = CIRCLE ( 'NONE', #163, 0.03901095000000000257 ) ;
#55 = CIRCLE ( 'NONE', #98, 0.06250000000000002776 ) ;
#56 = AXIS2_PLACEMENT_3D ( 'NONE', #186, #107, #272 ) ;
#57 = CARTESIAN_POINT ( 'NONE',  ( 0.0000000000000000000, 0.0000000000000000000, 1.485000000000000764 ) ) ;
#58 = FACE_OUTER_BOUND ( 'NONE', #212, .T. ) ;
#59 =( LENGTH_UNIT ( ) NAMED_UNIT ( * ) SI_UNIT ( $, .METRE. ) );
#60 = FACE_OUTER_BOUND ( 'NONE', #194, .T. ) ;
#61 =( NAMED_UNIT ( * ) PLANE_ANGLE_UNIT ( ) SI_UNIT ( $, .RADIAN. ) );
#62 = ORIENTED_EDGE ( 'NONE', *, *, #35, .T. ) ;
#63 = FACE_OUTER_BOUND ( 'NONE', #280, .T. ) ;
#64 = VECTOR ( 'NONE', #208, 39.37007874015748143 ) ;
#65 =( NAMED_UNIT ( * ) PLANE_ANGLE_UNIT ( ) SI_UNIT ( $, .RADIAN. ) );
#66 = EDGE_LOOP ( 'NONE', ( #299, #111, #198, #92 ) ) ;
#67 = ORIENTED_EDGE ( 'NONE', *, *, #121, .T. ) ;
#68 = FILL_AREA_STYLE ('',( #298 ) ) ;
#69 = CARTESIAN_POINT ( 'NONE',  ( -0.03901094999999998175, 6.215752999795353296E-18, 0.1880000000000000282 ) ) ;
#70 = CIRCLE ( 'NONE', #82, 0.04750000000000064587 ) ;
#71 = EDGE_CURVE ( 'NONE', #146, #209, #87, .T. ) ;
#72 = DIRECTION ( 'NONE',  ( -1.000000000000000000, 0.0000000000000000000, 0.0000000000000000000 ) ) ;
#73 =( CONVERSION_BASED_UNIT ( 'INCH', #95 ) LENGTH_UNIT ( ) NAMED_UNIT ( #221 ) );
#74 = CARTESIAN_POINT ( 'NONE',  ( 0.0000000000000000000, 0.0000000000000000000, 1.485000000000000764 ) ) ;
#75 = DIRECTION ( 'NONE',  ( 1.224646799147353700E-16, 0.0000000000000000000, 1.000000000000000000 ) ) ;
#76 = AXIS2_PLACEMENT_3D ( 'NONE', #274, #167, #99 ) ;
#77 = CARTESIAN_POINT ( 'NONE',  ( 3.933724995124051744E-17, 0.0000000000000000000, 0.3212130222250907940 ) ) ;
#78 = DIMENSIONAL_EXPONENTS ( 1.000000000000000000, 0.0000000000000000000, 0.0000000000000000000, 0.0000000000000000000, 0.0000000000000000000, 0.0000000000000000000, 0.0000000000000000000 ) ;
#79 = DIRECTION ( 'NONE',  ( 1.000000000000000000, 0.0000000000000000000, 0.0000000000000000000 ) ) ;
#80 =( LENGTH_UNIT ( ) NAMED_UNIT ( * ) SI_UNIT ( $, .METRE. ) );
#81 = FACE_OUTER_BOUND ( 'NONE', #296, .T. ) ;
#82 = AXIS2_PLACEMENT_3D ( 'NONE', #177, #282, #179 ) ;
#83 = CARTESIAN_POINT ( 'NONE',  ( 5.850705389343265247E-34, 0.0000000000000000000, 4.777463504919746737E-18 ) ) ;
#84 = DIRECTION ( 'NONE',  ( -1.000000000000000000, 0.0000000000000000000, 1.224646799147353947E-16 ) ) ;
#85 = CYLINDRICAL_SURFACE ( 'NONE', #170, 0.03901095000000000257 ) ;
#86 = ORIENTED_EDGE ( 'NONE', *, *, #158, .F. ) ;
#87 = CIRCLE ( 'NONE', #218, 0.03901095000000000257 ) ;
#88 = DIRECTION ( 'NONE',  ( -1.224646799147353700E-16, -0.0000000000000000000, -1.000000000000000000 ) ) ;
#89 = ORIENTED_EDGE ( 'NONE', *, *, #35, .F. ) ;
#90 = PLANE ( 'NONE',  #248 ) ;
#91 = SURFACE_STYLE_FILL_AREA ( #68 ) ;
#92 = ORIENTED_EDGE ( 'NONE', *, *, #275, .F. ) ;
#93 =( GEOMETRIC_REPRESENTATION_CONTEXT ( 3 ) GLOBAL_UNCERTAINTY_ASSIGNED_CONTEXT ( ( #225 ) ) GLOBAL_UNIT_ASSIGNED_CONTEXT ( ( #73, #65, #234 ) ) REPRESENTATION_CONTEXT ( 'NONE', 'WORKASPACE' ) );
#94 = ORIENTED_EDGE ( 'NONE', *, *, #153, .F. ) ;
#95 = LENGTH_MEASURE_WITH_UNIT ( LENGTH_MEASURE( 0.02539999999999999897 ), #38 );
#96 = CARTESIAN_POINT ( 'NONE',  ( 2.302335982397025094E-17, 0.0000000000000000000, 0.1880000000000000282 ) ) ;
#97 = CARTESIAN_POINT ( 'NONE',  ( 2.302335982397025094E-17, 0.0000000000000000000, 0.1880000000000000282 ) ) ;
#98 = AXIS2_PLACEMENT_3D ( 'NONE', #77, #28, #53 ) ;
#99 = DIRECTION ( 'NONE',  ( -1.000000000000000000, 0.0000000000000000000, 1.224646799147353947E-16 ) ) ;
#100 = CARTESIAN_POINT ( 'NONE',  ( 0.0000000000000000000, 0.0000000000000000000, 1.500000000000000222 ) ) ;
#101 = EDGE_CURVE ( 'NONE', #236, #126, #131, .T. ) ;
#102 = SURFACE_STYLE_USAGE ( .BOTH. , #152 ) ;
#103 = LENGTH_MEASURE_WITH_UNIT ( LENGTH_MEASURE( 0.02539999999999999897 ), #80 );
#104 = UNCERTAINTY_MEASURE_WITH_UNIT (LENGTH_MEASURE( 1.000000000000000082E-05 ), #249, 'distance_accuracy_value', 'NONE');
#105 = DIRECTION ( 'NONE',  ( 1.000000000000000000, 0.0000000000000000000, 0.0000000000000000000 ) ) ;
#106 = PRODUCT_DEFINITION_CONTEXT ( 'detailed design', #178, 'design' ) ;
#107 = DIRECTION ( 'NONE',  ( 0.0000000000000000000, 0.0000000000000000000, 1.000000000000000000 ) ) ;
#108 = STYLED_ITEM ( 'NONE', ( #10 ), #183 ) ;
#109 = AXIS2_PLACEMENT_3D ( 'NONE', #21, #141, #197 ) ;
#110 = CARTESIAN_POINT ( 'NONE',  ( 0.0000000000000000000, 0.0000000000000000000, 0.0000000000000000000 ) ) ;
#111 = ORIENTED_EDGE ( 'NONE', *, *, #153, .T. ) ;
#112 = FACE_OUTER_BOUND ( 'NONE', #147, .T. ) ;
#113 = EDGE_CURVE ( 'NONE', #215, #36, #283, .T. ) ;
#114 = ORIENTED_EDGE ( 'NONE', *, *, #9, .F. ) ;
#115 = CIRCLE ( 'NONE', #277, 0.03901095000000000257 ) ;
#116 = CARTESIAN_POINT ( 'NONE',  ( 0.03901095000000000257, 4.777463504919744426E-18, 0.0000000000000000000 ) ) ;
#117 = ORIENTED_EDGE ( 'NONE', *, *, #258, .T. ) ;
#118 = ORIENTED_EDGE ( 'NONE', *, *, #101, .F. ) ;
#119 = SURFACE_SIDE_STYLE ('',( #91 ) ) ;
#120 = ORIENTED_EDGE ( 'NONE', *, *, #135, .T. ) ;
#121 = EDGE_CURVE ( 'NONE', #236, #36, #242, .T. ) ;
#122 = APPLICATION_PROTOCOL_DEFINITION ( 'draft international standard', 'automotive_design', 1998, #178 ) ;
#123 = CARTESIAN_POINT ( 'NONE',  ( 0.06250000000000002776, 7.654042494670959086E-18, 1.485000000000000764 ) ) ;
#124 = AXIS2_PLACEMENT_3D ( 'NONE', #199, #75, #266 ) ;
#125 = STYLED_ITEM ( 'NONE', ( #145 ), #127 ) ;
#126 = VERTEX_POINT ( 'NONE', #157 ) ;
#127 = ADVANCED_BREP_SHAPE_REPRESENTATION ( 'Micro_GEM-078-4', ( #183, #109 ), #19 ) ;
#128 = DIRECTION ( 'NONE',  ( 0.7071067811865462405, 8.659560562354916834E-17, -0.7071067811865486830 ) ) ;
#129 = DIRECTION ( 'NONE',  ( -1.000000000000000000, 0.0000000000000000000, 0.0000000000000000000 ) ) ;
#130 = ADVANCED_FACE ( 'NONE', ( #31 ), #220, .T. ) ;
#131 = CIRCLE ( 'NONE', #196, 0.04750000000000064587 ) ;
#132 = CIRCLE ( 'NONE', #175, 0.06250000000000002776 ) ;
#133 = CARTESIAN_POINT ( 'NONE',  ( -0.03901095000000000257, 0.0000000000000000000, 9.554927009839493473E-18 ) ) ;
#134 =( NAMED_UNIT ( * ) SI_UNIT ( $, .STERADIAN. ) SOLID_ANGLE_UNIT ( ) );
#135 = EDGE_CURVE ( 'NONE', #126, #236, #70, .T. ) ;
#136 = CARTESIAN_POINT ( 'NONE',  ( 0.03901095000000000257, 4.777463504919744426E-18, -4.777463504919746737E-18 ) ) ;
#137 = CARTESIAN_POINT ( 'NONE',  ( -0.04750000000000064587, 0.0000000000000000000, 1.500000000000000222 ) ) ;
#138 = DIRECTION ( 'NONE',  ( 1.000000000000000000, 0.0000000000000000000, -0.0000000000000000000 ) ) ;
#139 = DIRECTION ( 'NONE',  ( 0.1736481776669313859, 0.0000000000000000000, 0.9848077530122077983 ) ) ;
#140 = ORIENTED_EDGE ( 'NONE', *, *, #158, .T. ) ;
#141 = DIRECTION ( 'NONE',  ( 0.0000000000000000000, 0.0000000000000000000, 1.000000000000000000 ) ) ;
#142 = ORIENTED_EDGE ( 'NONE', *, *, #223, .F. ) ;
#143 = ORIENTED_EDGE ( 'NONE', *, *, #71, .F. ) ;
#144 = PRODUCT_DEFINITION_SHAPE ( 'NONE', 'NONE',  #285 ) ;
#145 = PRESENTATION_STYLE_ASSIGNMENT (( #43 ) ) ;
#146 = VERTEX_POINT ( 'NONE', #133 ) ;
#147 = EDGE_LOOP ( 'NONE', ( #120, #260 ) ) ;
#148 = ORIENTED_EDGE ( 'NONE', *, *, #71, .T. ) ;
#149 = VERTEX_POINT ( 'NONE', #264 ) ;
#150 = AXIS2_PLACEMENT_3D ( 'NONE', #100, #287, #201 ) ;
#151 = CARTESIAN_POINT ( 'NONE',  ( 0.03901095000000003032, 0.0000000000000000000, 0.1880000000000000282 ) ) ;
#152 = SURFACE_SIDE_STYLE ('',( #52 ) ) ;
#153 = EDGE_CURVE ( 'NONE', #165, #20, #115, .T. ) ;
#154 = ADVANCED_FACE ( 'NONE', ( #6 ), #281, .T. ) ;
#155 = PRESENTATION_LAYER_ASSIGNMENT (  '', '', ( #125 ) ) ;
#156 = DIRECTION ( 'NONE',  ( -0.0000000000000000000, -0.0000000000000000000, -1.000000000000000000 ) ) ;
#157 = CARTESIAN_POINT ( 'NONE',  ( -0.04750000000000064587, 0.0000000000000000000, 1.500000000000000222 ) ) ;
#158 = EDGE_CURVE ( 'NONE', #46, #149, #55, .T. ) ;
#159 = LINE ( 'NONE', #137, #228 ) ;
#160 = DIRECTION ( 'NONE',  ( -1.000000000000000000, 0.0000000000000000000, 1.224646799147353947E-16 ) ) ;
#161 = MECHANICAL_DESIGN_GEOMETRIC_PRESENTATION_REPRESENTATION (  '', ( #108 ), #284 ) ;
#162 = CARTESIAN_POINT ( 'NONE',  ( 0.06250000000000002776, 7.654042494670959086E-18, 1.500000000000000222 ) ) ;
#163 = AXIS2_PLACEMENT_3D ( 'NONE', #96, #23, #72 ) ;
#164 = SHAPE_DEFINITION_REPRESENTATION ( #144, #127 ) ;
#165 = VERTEX_POINT ( 'NONE', #151 ) ;
#166 = ADVANCED_FACE ( 'NONE', ( #222 ), #4, .T. ) ;
#167 = DIRECTION ( 'NONE',  ( -1.224646799147353700E-16, -0.0000000000000000000, -1.000000000000000000 ) ) ;
#168 = CARTESIAN_POINT ( 'NONE',  ( -0.03901094999999998175, 4.777463504919744426E-18, 0.1880000000000000282 ) ) ;
#169 = AXIS2_PLACEMENT_3D ( 'NONE', #74, #217, #276 ) ;
#170 = AXIS2_PLACEMENT_3D ( 'NONE', #110, #88, #160 ) ;
#171 = CARTESIAN_POINT ( 'NONE',  ( 5.850705389343265247E-34, 0.0000000000000000000, 4.777463504919746737E-18 ) ) ;
#172 = ADVANCED_FACE ( 'NONE', ( #81 ), #204, .T. ) ;
#173 = ORIENTED_EDGE ( 'NONE', *, *, #240, .F. ) ;
#174 = CARTESIAN_POINT ( 'NONE',  ( 0.0000000000000000000, 0.0000000000000000000, 1.500000000000000222 ) ) ;
#175 = AXIS2_PLACEMENT_3D ( 'NONE', #206, #184, #295 ) ;
#176 = DIRECTION ( 'NONE',  ( -1.000000000000000000, 0.0000000000000000000, 1.224646799147353947E-16 ) ) ;
#177 = CARTESIAN_POINT ( 'NONE',  ( 0.0000000000000000000, 0.0000000000000000000, 1.500000000000000222 ) ) ;
#178 = APPLICATION_CONTEXT ( 'automotive_design' ) ;
#179 = DIRECTION ( 'NONE',  ( 1.000000000000000000, 0.0000000000000000000, 0.0000000000000000000 ) ) ;
#180 = VECTOR ( 'NONE', #294, 39.37007874015748143 ) ;
#181 =( CONVERSION_BASED_UNIT ( 'INCH', #103 ) LENGTH_UNIT ( ) NAMED_UNIT ( #78 ) );
#182 = DIMENSIONAL_EXPONENTS ( 1.000000000000000000, 0.0000000000000000000, 0.0000000000000000000, 0.0000000000000000000, 0.0000000000000000000, 0.0000000000000000000, 0.0000000000000000000 ) ;
#183 = MANIFOLD_SOLID_BREP ( 'Cut-Revolve1', #270 ) ;
#184 = DIRECTION ( 'NONE',  ( -1.224646799147353700E-16, -0.0000000000000000000, -1.000000000000000000 ) ) ;
#185 = ORIENTED_EDGE ( 'NONE', *, *, #9, .T. ) ;
#186 = CARTESIAN_POINT ( 'NONE',  ( 0.0000000000000000000, 0.0000000000000000000, 1.500000000000000222 ) ) ;
#187 = ORIENTED_EDGE ( 'NONE', *, *, #267, .T. ) ;
#188 = LENGTH_MEASURE_WITH_UNIT ( LENGTH_MEASURE( 0.02539999999999999897 ), #59 );
#189 = PRODUCT_RELATED_PRODUCT_CATEGORY ( 'part', '', ( #269 ) ) ;
#190 = ORIENTED_EDGE ( 'NONE', *, *, #203, .T. ) ;
#191 = LINE ( 'NONE', #136, #33 ) ;
#192 = ORIENTED_EDGE ( 'NONE', *, *, #121, .F. ) ;
#193 = ORIENTED_EDGE ( 'NONE', *, *, #135, .F. ) ;
#194 = EDGE_LOOP ( 'NONE', ( #185, #117, #143, #173 ) ) ;
#195 = DIRECTION ( 'NONE',  ( 1.000000000000000000, 0.0000000000000000000, 0.0000000000000000000 ) ) ;
#196 = AXIS2_PLACEMENT_3D ( 'NONE', #174, #243, #79 ) ;
#197 = DIRECTION ( 'NONE',  ( 1.000000000000000000, 0.0000000000000000000, 0.0000000000000000000 ) ) ;
#198 = ORIENTED_EDGE ( 'NONE', *, *, #240, .T. ) ;
#199 = CARTESIAN_POINT ( 'NONE',  ( 2.302335982397025094E-17, 0.0000000000000000000, 0.1880000000000000282 ) ) ;
#200 = DIRECTION ( 'NONE',  ( -1.000000000000000000, 0.0000000000000000000, 0.0000000000000000000 ) ) ;
#201 = DIRECTION ( 'NONE',  ( -1.000000000000000000, 0.0000000000000000000, 0.0000000000000000000 ) ) ;
#202 = DIRECTION ( 'NONE',  ( -1.224646799147353700E-16, -0.0000000000000000000, -1.000000000000000000 ) ) ;
#203 = EDGE_CURVE ( 'NONE', #36, #149, #226, .T. ) ;
#204 = CONICAL_SURFACE ( 'NONE', #239, 0.04750000000000064587, 0.7853981633974466137 ) ;
#205 = PRODUCT_DEFINITION_FORMATION_WITH_SPECIFIED_SOURCE ( 'ANY', '', #269, .NOT_KNOWN. ) ;
#206 = CARTESIAN_POINT ( 'NONE',  ( 3.933724995124051744E-17, 0.0000000000000000000, 0.3212130222250907940 ) ) ;
#207 = LINE ( 'NONE', #211, #288 ) ;
#208 = DIRECTION ( 'NONE',  ( -0.0000000000000000000, -0.0000000000000000000, -1.000000000000000000 ) ) ;
#209 = VERTEX_POINT ( 'NONE', #116 ) ;
#210 = AXIS2_PLACEMENT_3D ( 'NONE', #27, #156, #200 ) ;
#211 = CARTESIAN_POINT ( 'NONE',  ( 0.03901095000000003032, 0.0000000000000000000, 0.1880000000000000282 ) ) ;
#212 = EDGE_LOOP ( 'NONE', ( #148, #273 ) ) ;
#213 = ADVANCED_FACE ( 'NONE', ( #58 ), #90, .F. ) ;
#214 = ORIENTED_EDGE ( 'NONE', *, *, #17, .F. ) ;
#215 = VERTEX_POINT ( 'NONE', #291 ) ;
#216 = ORIENTED_EDGE ( 'NONE', *, *, #203, .F. ) ;
#217 = DIRECTION ( 'NONE',  ( 0.0000000000000000000, 0.0000000000000000000, -1.000000000000000000 ) ) ;
#218 = AXIS2_PLACEMENT_3D ( 'NONE', #171, #48, #176 ) ;
#219 = MECHANICAL_DESIGN_GEOMETRIC_PRESENTATION_REPRESENTATION (  '', ( #125 ), #93 ) ;
#220 = CYLINDRICAL_SURFACE ( 'NONE', #210, 0.06250000000000002776 ) ;
#221 = DIMENSIONAL_EXPONENTS ( 1.000000000000000000, 0.0000000000000000000, 0.0000000000000000000, 0.0000000000000000000, 0.0000000000000000000, 0.0000000000000000000, 0.0000000000000000000 ) ;
#222 = FACE_OUTER_BOUND ( 'NONE', #22, .T. ) ;
#223 = EDGE_CURVE ( 'NONE', #126, #215, #159, .T. ) ;
#224 = FILL_AREA_STYLE ('',( #286 ) ) ;
#225 = UNCERTAINTY_MEASURE_WITH_UNIT (LENGTH_MEASURE( 1.000000000000000082E-05 ), #73, 'distance_accuracy_value', 'NONE');
#226 = LINE ( 'NONE', #162, #64 ) ;
#227 = CARTESIAN_POINT ( 'NONE',  ( 0.04750000000000064587, 6.735557395310483192E-18, 1.500000000000000222 ) ) ;
#228 = VECTOR ( 'NONE', #229, 39.37007874015748854 ) ;
#229 = DIRECTION ( 'NONE',  ( -0.7071067811865462405, 0.0000000000000000000, -0.7071067811865486830 ) ) ;
#230 = EDGE_CURVE ( 'NONE', #215, #46, #253, .T. ) ;
#231 = CARTESIAN_POINT ( 'NONE',  ( 0.0000000000000000000, 0.0000000000000000000, 0.0000000000000000000 ) ) ;
#232 = EDGE_LOOP ( 'NONE', ( #216, #238, #1, #233 ) ) ;
#233 = ORIENTED_EDGE ( 'NONE', *, *, #267, .F. ) ;
#234 =( NAMED_UNIT ( * ) SI_UNIT ( $, .STERADIAN. ) SOLID_ANGLE_UNIT ( ) );
#235 = ORIENTED_EDGE ( 'NONE', *, *, #252, .T. ) ;
#236 = VERTEX_POINT ( 'NONE', #227 ) ;
#237 = ADVANCED_FACE ( 'NONE', ( #60 ), #85, .T. ) ;
#238 = ORIENTED_EDGE ( 'NONE', *, *, #17, .T. ) ;
#239 = AXIS2_PLACEMENT_3D ( 'NONE', #50, #246, #241 ) ;
#240 = EDGE_CURVE ( 'NONE', #20, #146, #13, .T. ) ;
#241 = DIRECTION ( 'NONE',  ( -1.000000000000000000, 0.0000000000000000000, 0.0000000000000000000 ) ) ;
#242 = LINE ( 'NONE', #263, #29 ) ;
#243 = DIRECTION ( 'NONE',  ( 0.0000000000000000000, 0.0000000000000000000, 1.000000000000000000 ) ) ;
#244 = CIRCLE ( 'NONE', #169, 0.06250000000000002776 ) ;
#245 = AXIS2_PLACEMENT_3D ( 'NONE', #15, #268, #32 ) ;
#246 = DIRECTION ( 'NONE',  ( 0.0000000000000000000, 0.0000000000000000000, -1.000000000000000000 ) ) ;
#247 = CARTESIAN_POINT ( 'NONE',  ( -0.03901095000000000257, 0.0000000000000000000, 4.777463504919746737E-18 ) ) ;
#248 = AXIS2_PLACEMENT_3D ( 'NONE', #231, #289, #138 ) ;
#249 =( CONVERSION_BASED_UNIT ( 'INCH', #188 ) LENGTH_UNIT ( ) NAMED_UNIT ( #182 ) );
#250 = DIRECTION ( 'NONE',  ( -1.224646799147353700E-16, -0.0000000000000000000, -1.000000000000000000 ) ) ;
#251 = ORIENTED_EDGE ( 'NONE', *, *, #113, .T. ) ;
#252 = EDGE_CURVE ( 'NONE', #165, #149, #207, .T. ) ;
#253 = LINE ( 'NONE', #271, #180 ) ;
#254 = AXIS2_PLACEMENT_3D ( 'NONE', #83, #290, #84 ) ;
#255 = ORIENTED_EDGE ( 'NONE', *, *, #230, .F. ) ;
#256 = DIRECTION ( 'NONE',  ( 1.224646799147353700E-16, 0.0000000000000000000, 1.000000000000000000 ) ) ;
#257 = CONICAL_SURFACE ( 'NONE', #297, 0.03901095000000000257, 0.1745329251994338915 ) ;
#258 = EDGE_CURVE ( 'NONE', #165, #209, #191, .T. ) ;
#259 = CYLINDRICAL_SURFACE ( 'NONE', #76, 0.03901095000000000257 ) ;
#260 = ORIENTED_EDGE ( 'NONE', *, *, #101, .T. ) ;
#261 = CARTESIAN_POINT ( 'NONE',  ( -0.06249999999999997918, 0.0000000000000000000, 0.3212130222250907940 ) ) ;
#262 = ADVANCED_FACE ( 'NONE', ( #112 ), #12, .T. ) ;
#263 = CARTESIAN_POINT ( 'NONE',  ( 0.04750000000000064587, 5.817072295950006528E-18, 1.500000000000000222 ) ) ;
#264 = CARTESIAN_POINT ( 'NONE',  ( 0.06250000000000006939, 7.654042494670963708E-18, 0.3212130222250907940 ) ) ;
#265 = UNCERTAINTY_MEASURE_WITH_UNIT (LENGTH_MEASURE( 1.000000000000000082E-05 ), #181, 'distance_accuracy_value', 'NONE');
#266 = DIRECTION ( 'NONE',  ( 1.000000000000000000, 0.0000000000000000000, 0.0000000000000000000 ) ) ;
#267 = EDGE_CURVE ( 'NONE', #149, #46, #132, .T. ) ;
#268 = DIRECTION ( 'NONE',  ( 0.0000000000000000000, 0.0000000000000000000, -1.000000000000000000 ) ) ;
#269 = PRODUCT ( 'Micro_GEM-078-4', 'Micro_GEM-078-4', '', ( #41 ) ) ;
#270 = CLOSED_SHELL ( 'NONE', ( #237, #40, #293, #130, #154, #262, #172, #166, #37, #213 ) ) ;
#271 = CARTESIAN_POINT ( 'NONE',  ( -0.06250000000000002776, 0.0000000000000000000, 1.500000000000000222 ) ) ;
#272 = DIRECTION ( 'NONE',  ( 1.000000000000000000, 0.0000000000000000000, -0.0000000000000000000 ) ) ;
#273 = ORIENTED_EDGE ( 'NONE', *, *, #275, .T. ) ;
#274 = CARTESIAN_POINT ( 'NONE',  ( 0.0000000000000000000, 0.0000000000000000000, 0.0000000000000000000 ) ) ;
#275 = EDGE_CURVE ( 'NONE', #209, #146, #30, .T. ) ;
#276 = DIRECTION ( 'NONE',  ( 1.000000000000000000, 0.0000000000000000000, 0.0000000000000000000 ) ) ;
#277 = AXIS2_PLACEMENT_3D ( 'NONE', #7, #202, #129 ) ;
#278 = LINE ( 'NONE', #168, #8 ) ;
#279 = VECTOR ( 'NONE', #34, 39.37007874015748143 ) ;
#280 = EDGE_LOOP ( 'NONE', ( #118, #67, #39, #142 ) ) ;
#281 = CYLINDRICAL_SURFACE ( 'NONE', #150, 0.06250000000000002776 ) ;
#282 = DIRECTION ( 'NONE',  ( 0.0000000000000000000, 0.0000000000000000000, 1.000000000000000000 ) ) ;
#283 = CIRCLE ( 'NONE', #292, 0.06250000000000002776 ) ;
#284 =( GEOMETRIC_REPRESENTATION_CONTEXT ( 3 ) GLOBAL_UNCERTAINTY_ASSIGNED_CONTEXT ( ( #265 ) ) GLOBAL_UNIT_ASSIGNED_CONTEXT ( ( #181, #11, #134 ) ) REPRESENTATION_CONTEXT ( 'NONE', 'WORKASPACE' ) );
#285 = PRODUCT_DEFINITION ( 'UNKNOWN', '', #205, #106 ) ;
#286 = FILL_AREA_STYLE_COLOUR ( '', #24 ) ;
#287 = DIRECTION ( 'NONE',  ( -0.0000000000000000000, -0.0000000000000000000, -1.000000000000000000 ) ) ;
#288 = VECTOR ( 'NONE', #139, 39.37007874015748143 ) ;
#289 = DIRECTION ( 'NONE',  ( 0.0000000000000000000, 0.0000000000000000000, 1.000000000000000000 ) ) ;
#290 = DIRECTION ( 'NONE',  ( -1.224646799147353700E-16, -0.0000000000000000000, -1.000000000000000000 ) ) ;
#291 = CARTESIAN_POINT ( 'NONE',  ( -0.06250000000000002776, 0.0000000000000000000, 1.485000000000000764 ) ) ;
#292 = AXIS2_PLACEMENT_3D ( 'NONE', #57, #26, #105 ) ;
#293 = ADVANCED_FACE ( 'NONE', ( #63 ), #51, .T. ) ;
#294 = DIRECTION ( 'NONE',  ( -0.0000000000000000000, -0.0000000000000000000, -1.000000000000000000 ) ) ;
#295 = DIRECTION ( 'NONE',  ( 1.000000000000000000, 0.0000000000000000000, 0.0000000000000000000 ) ) ;
#296 = EDGE_LOOP ( 'NONE', ( #192, #193, #44, #214 ) ) ;
#297 = AXIS2_PLACEMENT_3D ( 'NONE', #97, #256, #195 ) ;
#298 = FILL_AREA_STYLE_COLOUR ( '', #45 ) ;
#299 = ORIENTED_EDGE ( 'NONE', *, *, #258, .F. ) ;
ENDSEC;
END-ISO-10303-21;
