ISO-10303-21;
HEADER;
FILE_DESCRIPTION (( 'STEP AP214' ),
    '1' );
FILE_NAME ('17255.STEP',
    '2023-06-30T21:53:15',
    ( '' ),
    ( '' ),
    'SwSTEP 2.0',
    'SolidWorks 2023',
    '' );
FILE_SCHEMA (( 'AUTOMOTIVE_DESIGN' ));
ENDSEC;

DATA;
#1 =( CONVERSION_BASED_UNIT ( 'INCH', #97 ) LENGTH_UNIT ( ) NAMED_UNIT ( #27 ) );
#2 = LENGTH_MEASURE_WITH_UNIT ( LENGTH_MEASURE( 0.02539999999999999897 ), #4 );
#3 = SHAPE_DEFINITION_REPRESENTATION ( #30, #321 ) ;
#4 =( LENGTH_UNIT ( ) NAMED_UNIT ( * ) SI_UNIT ( $, .METRE. ) );
#5 = UNCERTAINTY_MEASURE_WITH_UNIT (LENGTH_MEASURE( 1.000000000000000082E-05 ), #362, 'distance_accuracy_value', 'NONE');
#6 = CYLINDRICAL_SURFACE ( 'NONE', #356, 0.1562499999999999445 ) ;
#7 = AXIS2_PLACEMENT_3D ( 'NONE', #53, #277, #169 ) ;
#8 = AXIS2_PLACEMENT_3D ( 'NONE', #193, #311, #31 ) ;
#9 = SURFACE_STYLE_FILL_AREA ( #266 ) ;
#10 = ORIENTED_EDGE ( 'NONE', *, *, #134, .F. ) ;
#11 = SURFACE_SIDE_STYLE ('',( #305 ) ) ;
#12 = COLOUR_RGB ( '',1.000000000000000000, 0.000000000000000000, 0.000000000000000000 ) ;
#13 = AXIS2_PLACEMENT_3D ( 'NONE', #26, #310, #194 ) ;
#14 = PRODUCT_DEFINITION_CONTEXT ( 'detailed design', #283, 'design' ) ;
#15 = ORIENTED_EDGE ( 'NONE', *, *, #39, .T. ) ;
#16 = AXIS2_PLACEMENT_3D ( 'NONE', #184, #133, #163 ) ;
#17 = FILL_AREA_STYLE_COLOUR ( '', #123 ) ;
#18 = CARTESIAN_POINT ( 'NONE',  ( -9.567553118338698857E-18, 0.000000000000000000, 0.000000000000000000 ) ) ;
#19 = CARTESIAN_POINT ( 'NONE',  ( 0.000000000000000000, 0.000000000000000000, 0.000000000000000000 ) ) ;
#20 = DIMENSIONAL_EXPONENTS ( 1.000000000000000000, 0.000000000000000000, 0.000000000000000000, 0.000000000000000000, 0.000000000000000000, 0.000000000000000000, 0.000000000000000000 ) ;
#21 = STYLED_ITEM ( 'NONE', ( #148 ), #359 ) ;
#22 = DIRECTION ( 'NONE',  ( -1.000000000000000000, -1.224646799147353207E-16, 0.000000000000000000 ) ) ;
#23 = CARTESIAN_POINT ( 'NONE',  ( 1.913510623667738539E-17, 0.000000000000000000, 0.1562499999999999445 ) ) ;
#24 = PLANE ( 'NONE',  #352 ) ;
#25 = EDGE_LOOP ( 'NONE', ( #233, #38, #110, #173 ) ) ;
#26 = CARTESIAN_POINT ( 'NONE',  ( -6.123233995736766036E-17, 2.500000000000000000, 0.000000000000000000 ) ) ;
#27 = DIMENSIONAL_EXPONENTS ( 1.000000000000000000, 0.000000000000000000, 0.000000000000000000, 0.000000000000000000, 0.000000000000000000, 0.000000000000000000, 0.000000000000000000 ) ;
#28 = EDGE_CURVE ( 'NONE', #100, #319, #67, .T. ) ;
#29 = STYLED_ITEM ( 'NONE', ( #65 ), #158 ) ;
#30 = PRODUCT_DEFINITION_SHAPE ( 'NONE', 'NONE',  #243 ) ;
#31 = DIRECTION ( 'NONE',  ( -1.000000000000000000, 0.000000000000000000, 0.000000000000000000 ) ) ;
#32 = DIMENSIONAL_EXPONENTS ( 1.000000000000000000, 0.000000000000000000, 0.000000000000000000, 0.000000000000000000, 0.000000000000000000, 0.000000000000000000, 0.000000000000000000 ) ;
#33 = ORIENTED_EDGE ( 'NONE', *, *, #28, .F. ) ;
#34 =( NAMED_UNIT ( * ) SI_UNIT ( $, .STERADIAN. ) SOLID_ANGLE_UNIT ( ) );
#35 = SURFACE_STYLE_FILL_AREA ( #125 ) ;
#36 = FILL_AREA_STYLE_COLOUR ( '', #346 ) ;
#37 = DIRECTION ( 'NONE',  ( 0.000000000000000000, 0.000000000000000000, -1.000000000000000000 ) ) ;
#38 = ORIENTED_EDGE ( 'NONE', *, *, #76, .T. ) ;
#39 = EDGE_CURVE ( 'NONE', #100, #63, #116, .T. ) ;
#40 =( CONVERSION_BASED_UNIT ( 'INCH', #204 ) LENGTH_UNIT ( ) NAMED_UNIT ( #72 ) );
#41 = AXIS2_PLACEMENT_3D ( 'NONE', #223, #338, #206 ) ;
#42 = AXIS2_PLACEMENT_3D ( 'NONE', #19, #157, #326 ) ;
#43 = CARTESIAN_POINT ( 'NONE',  ( -1.913510623667739771E-17, 0.1562500000000000278, 0.000000000000000000 ) ) ;
#44 = CARTESIAN_POINT ( 'NONE',  ( 0.000000000000000000, 0.000000000000000000, -0.1562499999999999445 ) ) ;
#45 = ORIENTED_EDGE ( 'NONE', *, *, #190, .T. ) ;
#46 = DIRECTION ( 'NONE',  ( -0.000000000000000000, -1.000000000000000000, -0.000000000000000000 ) ) ;
#47 =( GEOMETRIC_REPRESENTATION_CONTEXT ( 3 ) GLOBAL_UNCERTAINTY_ASSIGNED_CONTEXT ( ( #303 ) ) GLOBAL_UNIT_ASSIGNED_CONTEXT ( ( #329, #51, #115 ) ) REPRESENTATION_CONTEXT ( 'NONE', 'WORKASPACE' ) );
#48 = UNCERTAINTY_MEASURE_WITH_UNIT (LENGTH_MEASURE( 1.000000000000000082E-05 ), #167, 'distance_accuracy_value', 'NONE');
#49 = CARTESIAN_POINT ( 'NONE',  ( 0.1562500000000000000, 0.1562500000000000833, 0.000000000000000000 ) ) ;
#50 =( CONVERSION_BASED_UNIT ( 'INCH', #103 ) LENGTH_UNIT ( ) NAMED_UNIT ( #32 ) );
#51 =( NAMED_UNIT ( * ) PLANE_ANGLE_UNIT ( ) SI_UNIT ( $, .RADIAN. ) );
#52 =( GEOMETRIC_REPRESENTATION_CONTEXT ( 3 ) GLOBAL_UNCERTAINTY_ASSIGNED_CONTEXT ( ( #166 ) ) GLOBAL_UNIT_ASSIGNED_CONTEXT ( ( #122, #291, #34 ) ) REPRESENTATION_CONTEXT ( 'NONE', 'WORKASPACE' ) );
#53 = CARTESIAN_POINT ( 'NONE',  ( 1.454268073987481856E-16, 0.8125000000000001110, 0.000000000000000000 ) ) ;
#54 = ORIENTED_EDGE ( 'NONE', *, *, #39, .F. ) ;
#55 = FILL_AREA_STYLE_COLOUR ( '', #222 ) ;
#56 = DIMENSIONAL_EXPONENTS ( 1.000000000000000000, 0.000000000000000000, 0.000000000000000000, 0.000000000000000000, 0.000000000000000000, 0.000000000000000000, 0.000000000000000000 ) ;
#57 = VERTEX_POINT ( 'NONE', #149 ) ;
#58 = DIMENSIONAL_EXPONENTS ( 1.000000000000000000, 0.000000000000000000, 0.000000000000000000, 0.000000000000000000, 0.000000000000000000, 0.000000000000000000, 0.000000000000000000 ) ;
#59 = VECTOR ( 'NONE', #278, 39.37007874015748143 ) ;
#60 = FILL_AREA_STYLE ('',( #246 ) ) ;
#61 = MECHANICAL_DESIGN_GEOMETRIC_PRESENTATION_REPRESENTATION (  '', ( #21 ), #296 ) ;
#62 = AXIS2_PLACEMENT_3D ( 'NONE', #228, #343, #92 ) ;
#63 = VERTEX_POINT ( 'NONE', #225 ) ;
#64 = DIRECTION ( 'NONE',  ( -1.224646799147353207E-16, 1.000000000000000000, -0.000000000000000000 ) ) ;
#65 = PRESENTATION_STYLE_ASSIGNMENT (( #349 ) ) ;
#66 = ADVANCED_FACE ( 'NONE', ( #83 ), #192, .T. ) ;
#67 = CIRCLE ( 'NONE', #241, 0.1562499999999999167 ) ;
#68 = CARTESIAN_POINT ( 'NONE',  ( 0.1562499999999999167, 2.500000000000000000, 0.000000000000000000 ) ) ;
#69 = STYLED_ITEM ( 'NONE', ( #109 ), #182 ) ;
#70 = ORIENTED_EDGE ( 'NONE', *, *, #248, .T. ) ;
#71 = UNCERTAINTY_MEASURE_WITH_UNIT (LENGTH_MEASURE( 1.000000000000000082E-05 ), #1, 'distance_accuracy_value', 'NONE');
#72 = DIMENSIONAL_EXPONENTS ( 1.000000000000000000, 0.000000000000000000, 0.000000000000000000, 0.000000000000000000, 0.000000000000000000, 0.000000000000000000, 0.000000000000000000 ) ;
#73 = AXIS2_PLACEMENT_3D ( 'NONE', #316, #147, #368 ) ;
#74 =( NAMED_UNIT ( * ) SI_UNIT ( $, .STERADIAN. ) SOLID_ANGLE_UNIT ( ) );
#75 = PRESENTATION_LAYER_ASSIGNMENT (  '', '', ( #256 ) ) ;
#76 = EDGE_CURVE ( 'NONE', #350, #57, #270, .T. ) ;
#77 = SURFACE_STYLE_USAGE ( .BOTH. , #191 ) ;
#78 = EDGE_LOOP ( 'NONE', ( #10, #237 ) ) ;
#79 = SURFACE_STYLE_FILL_AREA ( #306 ) ;
#80 = VERTEX_POINT ( 'NONE', #313 ) ;
#81 = CARTESIAN_POINT ( 'NONE',  ( 1.454268073987481856E-16, 0.8125000000000000000, 0.000000000000000000 ) ) ;
#82 = EDGE_CURVE ( 'NONE', #319, #100, #301, .T. ) ;
#83 = FACE_OUTER_BOUND ( 'NONE', #25, .T. ) ;
#84 = SURFACE_STYLE_FILL_AREA ( #60 ) ;
#85 = ORIENTED_EDGE ( 'NONE', *, *, #106, .T. ) ;
#86 = DIRECTION ( 'NONE',  ( 1.000000000000000000, 0.000000000000000000, 0.000000000000000000 ) ) ;
#87 = VERTEX_POINT ( 'NONE', #144 ) ;
#88 = VECTOR ( 'NONE', #324, 39.37007874015748143 ) ;
#89 = ORIENTED_EDGE ( 'NONE', *, *, #286, .T. ) ;
#90 = DIRECTION ( 'NONE',  ( -1.000000000000000000, 0.000000000000000000, 0.000000000000000000 ) ) ;
#91 =( NAMED_UNIT ( * ) PLANE_ANGLE_UNIT ( ) SI_UNIT ( $, .RADIAN. ) );
#92 = DIRECTION ( 'NONE',  ( 1.000000000000000000, 0.000000000000000000, 0.000000000000000000 ) ) ;
#93 = CLOSED_SHELL ( 'NONE', ( #139, #158, #299, #182, #304 ) ) ;
#94 = MECHANICAL_DESIGN_GEOMETRIC_PRESENTATION_REPRESENTATION (  '', ( #309 ), #347 ) ;
#95 = SPHERICAL_SURFACE ( 'NONE', #186, 0.1562500000000000278 ) ;
#96 = EDGE_CURVE ( 'NONE', #57, #151, #171, .T. ) ;
#97 = LENGTH_MEASURE_WITH_UNIT ( LENGTH_MEASURE( 0.02539999999999999897 ), #257 );
#98 = SURFACE_STYLE_USAGE ( .BOTH. , #130 ) ;
#99 =( NAMED_UNIT ( * ) SI_UNIT ( $, .STERADIAN. ) SOLID_ANGLE_UNIT ( ) );
#100 = VERTEX_POINT ( 'NONE', #280 ) ;
#101 = SURFACE_STYLE_FILL_AREA ( #105 ) ;
#102 = EDGE_CURVE ( 'NONE', #350, #87, #201, .T. ) ;
#103 = LENGTH_MEASURE_WITH_UNIT ( LENGTH_MEASURE( 0.02539999999999999897 ), #297 );
#104 = PRESENTATION_STYLE_ASSIGNMENT (( #238 ) ) ;
#105 = FILL_AREA_STYLE ('',( #17 ) ) ;
#106 = EDGE_CURVE ( 'NONE', #281, #224, #221, .T. ) ;
#107 =( GEOMETRIC_REPRESENTATION_CONTEXT ( 3 ) GLOBAL_UNCERTAINTY_ASSIGNED_CONTEXT ( ( #154 ) ) GLOBAL_UNIT_ASSIGNED_CONTEXT ( ( #254, #202, #345 ) ) REPRESENTATION_CONTEXT ( 'NONE', 'WORKASPACE' ) );
#108 = PRESENTATION_LAYER_ASSIGNMENT (  '', '', ( #263 ) ) ;
#109 = PRESENTATION_STYLE_ASSIGNMENT (( #274 ) ) ;
#110 = ORIENTED_EDGE ( 'NONE', *, *, #96, .T. ) ;
#111 =( NAMED_UNIT ( * ) SI_UNIT ( $, .STERADIAN. ) SOLID_ANGLE_UNIT ( ) );
#112 = DIRECTION ( 'NONE',  ( -0.000000000000000000, -1.000000000000000000, -0.000000000000000000 ) ) ;
#113 = AXIS2_PLACEMENT_3D ( 'NONE', #312, #251, #247 ) ;
#114 = MECHANICAL_DESIGN_GEOMETRIC_PRESENTATION_REPRESENTATION (  '', ( #69 ), #161 ) ;
#115 =( NAMED_UNIT ( * ) SI_UNIT ( $, .STERADIAN. ) SOLID_ANGLE_UNIT ( ) );
#116 = LINE ( 'NONE', #23, #289 ) ;
#117 = CYLINDRICAL_SURFACE ( 'NONE', #41, 0.1562499999999998612 ) ;
#118 =( NAMED_UNIT ( * ) SI_UNIT ( $, .STERADIAN. ) SOLID_ANGLE_UNIT ( ) );
#119 = ORIENTED_EDGE ( 'NONE', *, *, #286, .F. ) ;
#120 = ADVANCED_FACE ( 'NONE', ( #164 ), #117, .T. ) ;
#121 = MECHANICAL_DESIGN_GEOMETRIC_PRESENTATION_REPRESENTATION (  '', ( #276 ), #128 ) ;
#122 =( CONVERSION_BASED_UNIT ( 'INCH', #372 ) LENGTH_UNIT ( ) NAMED_UNIT ( #56 ) );
#123 = COLOUR_RGB ( '',1.000000000000000000, 0.000000000000000000, 0.000000000000000000 ) ;
#124 = DIRECTION ( 'NONE',  ( 1.000000000000000000, 0.000000000000000000, 0.000000000000000000 ) ) ;
#125 = FILL_AREA_STYLE ('',( #287 ) ) ;
#126 = FILL_AREA_STYLE ('',( #203 ) ) ;
#127 = SURFACE_SIDE_STYLE ('',( #253 ) ) ;
#128 =( GEOMETRIC_REPRESENTATION_CONTEXT ( 3 ) GLOBAL_UNCERTAINTY_ASSIGNED_CONTEXT ( ( #211 ) ) GLOBAL_UNIT_ASSIGNED_CONTEXT ( ( #40, #91, #99 ) ) REPRESENTATION_CONTEXT ( 'NONE', 'WORKASPACE' ) );
#129 = AXIS2_PLACEMENT_3D ( 'NONE', #308, #172, #86 ) ;
#130 = SURFACE_SIDE_STYLE ('',( #35 ) ) ;
#131 = SURFACE_SIDE_STYLE ('',( #9 ) ) ;
#132 = ORIENTED_EDGE ( 'NONE', *, *, #216, .F. ) ;
#133 = DIRECTION ( 'NONE',  ( -0.000000000000000000, -1.000000000000000000, -0.000000000000000000 ) ) ;
#134 = EDGE_CURVE ( 'NONE', #57, #350, #213, .T. ) ;
#135 = DIRECTION ( 'NONE',  ( 0.000000000000000000, 0.000000000000000000, -1.000000000000000000 ) ) ;
#136 = VECTOR ( 'NONE', #340, 39.37007874015748143 ) ;
#137 = EDGE_LOOP ( 'NONE', ( #220, #262 ) ) ;
#138 = CARTESIAN_POINT ( 'NONE',  ( 0.000000000000000000, 0.1562500000000000833, 0.000000000000000000 ) ) ;
#139 = ADVANCED_FACE ( 'NONE', ( #232 ), #95, .T. ) ;
#140 = CYLINDRICAL_SURFACE ( 'NONE', #42, 0.1562499999999999445 ) ;
#141 = DIRECTION ( 'NONE',  ( 1.000000000000000000, 0.000000000000000000, -1.224646799147353207E-16 ) ) ;
#142 = PRODUCT_DEFINITION_FORMATION_WITH_SPECIFIED_SOURCE ( 'ANY', '', #331, .NOT_KNOWN. ) ;
#143 = SURFACE_STYLE_USAGE ( .BOTH. , #337 ) ;
#144 = CARTESIAN_POINT ( 'NONE',  ( 0.1562499999999999167, 2.500000000000000000, 1.913510623667738231E-17 ) ) ;
#145 = EDGE_LOOP ( 'NONE', ( #132, #70, #245, #85 ) ) ;
#146 =( NAMED_UNIT ( * ) PLANE_ANGLE_UNIT ( ) SI_UNIT ( $, .RADIAN. ) );
#147 = DIRECTION ( 'NONE',  ( 0.000000000000000000, 0.000000000000000000, -1.000000000000000000 ) ) ;
#148 = PRESENTATION_STYLE_ASSIGNMENT (( #143 ) ) ;
#149 = CARTESIAN_POINT ( 'NONE',  ( -0.1562499999999996392, 0.8125000000000001110, 0.000000000000000000 ) ) ;
#150 = CARTESIAN_POINT ( 'NONE',  ( 0.000000000000000000, 0.8125000000000000000, -0.1562499999999999167 ) ) ;
#151 = VERTEX_POINT ( 'NONE', #295 ) ;
#152 = PRESENTATION_STYLE_ASSIGNMENT (( #98 ) ) ;
#153 = PRODUCT_CONTEXT ( 'NONE', #265, 'mechanical' ) ;
#154 = UNCERTAINTY_MEASURE_WITH_UNIT (LENGTH_MEASURE( 1.000000000000000082E-05 ), #254, 'distance_accuracy_value', 'NONE');
#155 = ORIENTED_EDGE ( 'NONE', *, *, #293, .F. ) ;
#156 = AXIS2_PLACEMENT_3D ( 'NONE', #68, #260, #160 ) ;
#157 = DIRECTION ( 'NONE',  ( -0.000000000000000000, -1.000000000000000000, -0.000000000000000000 ) ) ;
#158 = ADVANCED_FACE ( 'NONE', ( #229 ), #6, .T. ) ;
#159 = ORIENTED_EDGE ( 'NONE', *, *, #82, .F. ) ;
#160 = DIRECTION ( 'NONE',  ( 1.000000000000000000, 1.224646799147353207E-16, 0.000000000000000000 ) ) ;
#161 =( GEOMETRIC_REPRESENTATION_CONTEXT ( 3 ) GLOBAL_UNCERTAINTY_ASSIGNED_CONTEXT ( ( #325 ) ) GLOBAL_UNIT_ASSIGNED_CONTEXT ( ( #50, #268, #74 ) ) REPRESENTATION_CONTEXT ( 'NONE', 'WORKASPACE' ) );
#162 = DIRECTION ( 'NONE',  ( 1.224646799147353207E-16, -0.000000000000000000, 1.000000000000000000 ) ) ;
#163 = DIRECTION ( 'NONE',  ( 0.000000000000000000, 0.000000000000000000, -1.000000000000000000 ) ) ;
#164 = FACE_OUTER_BOUND ( 'NONE', #189, .T. ) ;
#165 = CIRCLE ( 'NONE', #16, 0.1562500000000000000 ) ;
#166 = UNCERTAINTY_MEASURE_WITH_UNIT (LENGTH_MEASURE( 1.000000000000000082E-05 ), #122, 'distance_accuracy_value', 'NONE');
#167 =( CONVERSION_BASED_UNIT ( 'INCH', #366 ) LENGTH_UNIT ( ) NAMED_UNIT ( #20 ) );
#168 = DIMENSIONAL_EXPONENTS ( 1.000000000000000000, 0.000000000000000000, 0.000000000000000000, 0.000000000000000000, 0.000000000000000000, 0.000000000000000000, 0.000000000000000000 ) ;
#169 = DIRECTION ( 'NONE',  ( -1.000000000000000000, 0.000000000000000000, 0.000000000000000000 ) ) ;
#170 = ADVANCED_FACE ( 'NONE', ( #177 ), #258, .F. ) ;
#171 = LINE ( 'NONE', #363, #136 ) ;
#172 = DIRECTION ( 'NONE',  ( 0.000000000000000000, 0.000000000000000000, 1.000000000000000000 ) ) ;
#173 = ORIENTED_EDGE ( 'NONE', *, *, #367, .F. ) ;
#174 = CIRCLE ( 'NONE', #8, 0.1562499999999999722 ) ;
#175 =( LENGTH_UNIT ( ) NAMED_UNIT ( * ) SI_UNIT ( $, .METRE. ) );
#176 = EDGE_LOOP ( 'NONE', ( #54, #333, #209, #284, #119 ) ) ;
#177 = FACE_OUTER_BOUND ( 'NONE', #137, .T. ) ;
#178 =( NAMED_UNIT ( * ) PLANE_ANGLE_UNIT ( ) SI_UNIT ( $, .RADIAN. ) );
#179 = COLOUR_RGB ( '',1.000000000000000000, 0.000000000000000000, 0.000000000000000000 ) ;
#180 = VERTEX_POINT ( 'NONE', #298 ) ;
#181 =( LENGTH_UNIT ( ) NAMED_UNIT ( * ) SI_UNIT ( $, .METRE. ) );
#182 = ADVANCED_FACE ( 'NONE', ( #355 ), #140, .T. ) ;
#183 = CIRCLE ( 'NONE', #357, 0.1562499999999999722 ) ;
#184 = CARTESIAN_POINT ( 'NONE',  ( 0.000000000000000000, 0.1562500000000000833, 0.000000000000000000 ) ) ;
#185 =( LENGTH_UNIT ( ) NAMED_UNIT ( * ) SI_UNIT ( $, .METRE. ) );
#186 = AXIS2_PLACEMENT_3D ( 'NONE', #294, #344, #124 ) ;
#187 = CARTESIAN_POINT ( 'NONE',  ( 0.000000000000000000, 0.1562500000000000833, 0.000000000000000000 ) ) ;
#188 = CARTESIAN_POINT ( 'NONE',  ( -6.123233995736766036E-17, 2.500000000000000000, 0.000000000000000000 ) ) ;
#189 = EDGE_LOOP ( 'NONE', ( #307, #361, #249, #371 ) ) ;
#190 = EDGE_CURVE ( 'NONE', #281, #63, #165, .T. ) ;
#191 = SURFACE_SIDE_STYLE ('',( #84 ) ) ;
#192 = CYLINDRICAL_SURFACE ( 'NONE', #13, 0.1562499999999998612 ) ;
#193 = CARTESIAN_POINT ( 'NONE',  ( -6.123233995736766036E-17, 2.500000000000000000, 0.000000000000000000 ) ) ;
#194 = DIRECTION ( 'NONE',  ( -1.000000000000000000, 0.000000000000000000, 0.000000000000000000 ) ) ;
#195 = DIRECTION ( 'NONE',  ( -0.000000000000000000, -1.000000000000000000, -0.000000000000000000 ) ) ;
#196 = LENGTH_MEASURE_WITH_UNIT ( LENGTH_MEASURE( 0.02539999999999999897 ), #175 );
#197 = ORIENTED_EDGE ( 'NONE', *, *, #106, .F. ) ;
#198 = COLOUR_RGB ( '',1.000000000000000000, 0.000000000000000000, 0.000000000000000000 ) ;
#199 = CIRCLE ( 'NONE', #242, 0.1562500000000000278 ) ;
#200 =( NAMED_UNIT ( * ) SI_UNIT ( $, .STERADIAN. ) SOLID_ANGLE_UNIT ( ) );
#201 = LINE ( 'NONE', #335, #59 ) ;
#202 =( NAMED_UNIT ( * ) PLANE_ANGLE_UNIT ( ) SI_UNIT ( $, .RADIAN. ) );
#203 = FILL_AREA_STYLE_COLOUR ( '', #271 ) ;
#204 = LENGTH_MEASURE_WITH_UNIT ( LENGTH_MEASURE( 0.02539999999999999897 ), #181 );
#205 = EDGE_CURVE ( 'NONE', #319, #180, #354, .T. ) ;
#206 = DIRECTION ( 'NONE',  ( -1.000000000000000000, 0.000000000000000000, 0.000000000000000000 ) ) ;
#207 = ORIENTED_EDGE ( 'NONE', *, *, #190, .F. ) ;
#208 = MECHANICAL_DESIGN_GEOMETRIC_PRESENTATION_REPRESENTATION (  '', ( #263 ), #226 ) ;
#209 = ORIENTED_EDGE ( 'NONE', *, *, #205, .T. ) ;
#210 = FACE_OUTER_BOUND ( 'NONE', #267, .T. ) ;
#211 = UNCERTAINTY_MEASURE_WITH_UNIT (LENGTH_MEASURE( 1.000000000000000082E-05 ), #40, 'distance_accuracy_value', 'NONE');
#212 = LENGTH_MEASURE_WITH_UNIT ( LENGTH_MEASURE( 0.02539999999999999897 ), #185 );
#213 = CIRCLE ( 'NONE', #339, 0.1562499999999997780 ) ;
#214 = PRESENTATION_LAYER_ASSIGNMENT (  '', '', ( #69 ) ) ;
#215 = FACE_OUTER_BOUND ( 'NONE', #78, .T. ) ;
#216 = EDGE_CURVE ( 'NONE', #80, #224, #199, .T. ) ;
#217 =( LENGTH_UNIT ( ) NAMED_UNIT ( * ) SI_UNIT ( $, .METRE. ) );
#218 = EDGE_LOOP ( 'NONE', ( #353, #15, #207, #155, #332 ) ) ;
#219 = PRESENTATION_LAYER_ASSIGNMENT (  '', '', ( #276 ) ) ;
#220 = ORIENTED_EDGE ( 'NONE', *, *, #327, .T. ) ;
#221 = CIRCLE ( 'NONE', #73, 0.1562500000000000278 ) ;
#222 = COLOUR_RGB ( '',0.7921568627450980005, 0.8196078431372548767, 0.9333333333333333481 ) ;
#223 = CARTESIAN_POINT ( 'NONE',  ( -6.123233995736766036E-17, 2.500000000000000000, 0.000000000000000000 ) ) ;
#224 = VERTEX_POINT ( 'NONE', #18 ) ;
#225 = CARTESIAN_POINT ( 'NONE',  ( 1.913510623667739463E-17, 0.1562500000000000833, 0.1562500000000000000 ) ) ;
#226 =( GEOMETRIC_REPRESENTATION_CONTEXT ( 3 ) GLOBAL_UNCERTAINTY_ASSIGNED_CONTEXT ( ( #71 ) ) GLOBAL_UNIT_ASSIGNED_CONTEXT ( ( #1, #285, #118 ) ) REPRESENTATION_CONTEXT ( 'NONE', 'WORKASPACE' ) );
#227 = PRODUCT_RELATED_PRODUCT_CATEGORY ( 'part', '', ( #331 ) ) ;
#228 = CARTESIAN_POINT ( 'NONE',  ( 0.000000000000000000, 0.000000000000000000, 0.000000000000000000 ) ) ;
#229 = FACE_OUTER_BOUND ( 'NONE', #218, .T. ) ;
#230 = CIRCLE ( 'NONE', #328, 0.1562500000000000000 ) ;
#231 =( LENGTH_UNIT ( ) NAMED_UNIT ( * ) SI_UNIT ( $, .METRE. ) );
#232 = FACE_OUTER_BOUND ( 'NONE', #336, .T. ) ;
#233 = ORIENTED_EDGE ( 'NONE', *, *, #102, .F. ) ;
#234 = DIMENSIONAL_EXPONENTS ( 1.000000000000000000, 0.000000000000000000, 0.000000000000000000, 0.000000000000000000, 0.000000000000000000, 0.000000000000000000, 0.000000000000000000 ) ;
#235 = DIRECTION ( 'NONE',  ( -0.000000000000000000, -1.000000000000000000, -0.000000000000000000 ) ) ;
#236 = FILL_AREA_STYLE ('',( #273 ) ) ;
#237 = ORIENTED_EDGE ( 'NONE', *, *, #76, .F. ) ;
#238 = SURFACE_STYLE_USAGE ( .BOTH. , #240 ) ;
#239 = DIRECTION ( 'NONE',  ( 0.000000000000000000, 0.000000000000000000, -1.000000000000000000 ) ) ;
#240 = SURFACE_SIDE_STYLE ('',( #101 ) ) ;
#241 = AXIS2_PLACEMENT_3D ( 'NONE', #252, #112, #365 ) ;
#242 = AXIS2_PLACEMENT_3D ( 'NONE', #43, #162, #141 ) ;
#243 = PRODUCT_DEFINITION ( 'UNKNOWN', '', #142, #14 ) ;
#244 = DIRECTION ( 'NONE',  ( 0.000000000000000000, -0.000000000000000000, 1.000000000000000000 ) ) ;
#245 = ORIENTED_EDGE ( 'NONE', *, *, #293, .T. ) ;
#246 = FILL_AREA_STYLE_COLOUR ( '', #179 ) ;
#247 = DIRECTION ( 'NONE',  ( 0.000000000000000000, 0.000000000000000000, -1.000000000000000000 ) ) ;
#248 = EDGE_CURVE ( 'NONE', #80, #180, #322, .T. ) ;
#249 = ORIENTED_EDGE ( 'NONE', *, *, #327, .F. ) ;
#250 = PRESENTATION_LAYER_ASSIGNMENT (  '', '', ( #309 ) ) ;
#251 = DIRECTION ( 'NONE',  ( -0.000000000000000000, -1.000000000000000000, -0.000000000000000000 ) ) ;
#252 = CARTESIAN_POINT ( 'NONE',  ( 0.000000000000000000, 0.8125000000000000000, 0.000000000000000000 ) ) ;
#253 = SURFACE_STYLE_FILL_AREA ( #126 ) ;
#254 =( CONVERSION_BASED_UNIT ( 'INCH', #2 ) LENGTH_UNIT ( ) NAMED_UNIT ( #234 ) );
#255 = CLOSED_SHELL ( 'NONE', ( #120, #323, #66, #170 ) ) ;
#256 = STYLED_ITEM ( 'NONE', ( #104 ), #299 ) ;
#257 =( LENGTH_UNIT ( ) NAMED_UNIT ( * ) SI_UNIT ( $, .METRE. ) );
#258 = PLANE ( 'NONE',  #156 ) ;
#259 = APPLICATION_PROTOCOL_DEFINITION ( 'draft international standard', 'automotive_design', 1998, #283 ) ;
#260 = DIRECTION ( 'NONE',  ( 1.224646799147353207E-16, -1.000000000000000000, 0.000000000000000000 ) ) ;
#261 = PRESENTATION_LAYER_ASSIGNMENT (  '', '', ( #29 ) ) ;
#262 = ORIENTED_EDGE ( 'NONE', *, *, #367, .T. ) ;
#263 = STYLED_ITEM ( 'NONE', ( #317 ), #369 ) ;
#264 = SURFACE_STYLE_USAGE ( .BOTH. , #127 ) ;
#265 = APPLICATION_CONTEXT ( 'automotive_design' ) ;
#266 = FILL_AREA_STYLE ('',( #36 ) ) ;
#267 = EDGE_LOOP ( 'NONE', ( #159, #33 ) ) ;
#268 =( NAMED_UNIT ( * ) PLANE_ANGLE_UNIT ( ) SI_UNIT ( $, .RADIAN. ) );
#269 = DIRECTION ( 'NONE',  ( -0.000000000000000000, -1.000000000000000000, -0.000000000000000000 ) ) ;
#270 = CIRCLE ( 'NONE', #7, 0.1562499999999997780 ) ;
#271 = COLOUR_RGB ( '',0.7921568627450980005, 0.8196078431372548767, 0.9333333333333333481 ) ;
#272 = PRESENTATION_LAYER_ASSIGNMENT (  '', '', ( #21 ) ) ;
#273 = FILL_AREA_STYLE_COLOUR ( '', #198 ) ;
#274 = SURFACE_STYLE_USAGE ( .BOTH. , #11 ) ;
#275 = CARTESIAN_POINT ( 'NONE',  ( 0.000000000000000000, 0.8125000000000000000, 0.000000000000000000 ) ) ;
#276 = STYLED_ITEM ( 'NONE', ( #152 ), #139 ) ;
#277 = DIRECTION ( 'NONE',  ( -1.224646799147353207E-16, 1.000000000000000000, -0.000000000000000000 ) ) ;
#278 = DIRECTION ( 'NONE',  ( -1.224646799147353207E-16, 1.000000000000000000, -0.000000000000000000 ) ) ;
#279 = PRESENTATION_STYLE_ASSIGNMENT (( #77 ) ) ;
#280 = CARTESIAN_POINT ( 'NONE',  ( 1.913510623667738231E-17, 0.8125000000000000000, 0.1562499999999999167 ) ) ;
#281 = VERTEX_POINT ( 'NONE', #49 ) ;
#282 = CIRCLE ( 'NONE', #334, 0.1562500000000000000 ) ;
#283 = APPLICATION_CONTEXT ( 'automotive_design' ) ;
#284 = ORIENTED_EDGE ( 'NONE', *, *, #248, .F. ) ;
#285 =( NAMED_UNIT ( * ) PLANE_ANGLE_UNIT ( ) SI_UNIT ( $, .RADIAN. ) );
#286 = EDGE_CURVE ( 'NONE', #63, #80, #230, .T. ) ;
#287 = FILL_AREA_STYLE_COLOUR ( '', #12 ) ;
#288 = APPLICATION_PROTOCOL_DEFINITION ( 'draft international standard', 'automotive_design', 1998, #265 ) ;
#289 = VECTOR ( 'NONE', #195, 39.37007874015748143 ) ;
#290 = AXIS2_PLACEMENT_3D ( 'NONE', #138, #269, #135 ) ;
#291 =( NAMED_UNIT ( * ) PLANE_ANGLE_UNIT ( ) SI_UNIT ( $, .RADIAN. ) );
#292 = CARTESIAN_POINT ( 'NONE',  ( 1.454268073987481856E-16, 0.8125000000000001110, 0.000000000000000000 ) ) ;
#293 = EDGE_CURVE ( 'NONE', #180, #281, #282, .T. ) ;
#294 = CARTESIAN_POINT ( 'NONE',  ( -1.913510623667739771E-17, 0.1562500000000000278, 0.000000000000000000 ) ) ;
#295 = CARTESIAN_POINT ( 'NONE',  ( -0.1562500000000000278, 2.500000000000000000, 0.000000000000000000 ) ) ;
#296 =( GEOMETRIC_REPRESENTATION_CONTEXT ( 3 ) GLOBAL_UNCERTAINTY_ASSIGNED_CONTEXT ( ( #48 ) ) GLOBAL_UNIT_ASSIGNED_CONTEXT ( ( #167, #178, #200 ) ) REPRESENTATION_CONTEXT ( 'NONE', 'WORKASPACE' ) );
#297 =( LENGTH_UNIT ( ) NAMED_UNIT ( * ) SI_UNIT ( $, .METRE. ) );
#298 = CARTESIAN_POINT ( 'NONE',  ( 0.000000000000000000, 0.1562500000000000833, -0.1562500000000000000 ) ) ;
#299 = ADVANCED_FACE ( 'NONE', ( #210 ), #358, .T. ) ;
#300 = CARTESIAN_POINT ( 'NONE',  ( 0.000000000000000000, 0.1562500000000000833, 0.000000000000000000 ) ) ;
#301 = CIRCLE ( 'NONE', #113, 0.1562499999999999167 ) ;
#302 = AXIS2_PLACEMENT_3D ( 'NONE', #275, #314, #244 ) ;
#303 = UNCERTAINTY_MEASURE_WITH_UNIT (LENGTH_MEASURE( 1.000000000000000082E-05 ), #329, 'distance_accuracy_value', 'NONE');
#304 = ADVANCED_FACE ( 'NONE', ( #360 ), #370, .T. ) ;
#305 = SURFACE_STYLE_FILL_AREA ( #236 ) ;
#306 = FILL_AREA_STYLE ('',( #55 ) ) ;
#307 = ORIENTED_EDGE ( 'NONE', *, *, #134, .T. ) ;
#308 = CARTESIAN_POINT ( 'NONE',  ( -1.913510623667739771E-17, 0.1562500000000000278, 0.000000000000000000 ) ) ;
#309 = STYLED_ITEM ( 'NONE', ( #279 ), #304 ) ;
#310 = DIRECTION ( 'NONE',  ( -1.224646799147353207E-16, 1.000000000000000000, -0.000000000000000000 ) ) ;
#311 = DIRECTION ( 'NONE',  ( -1.224646799147353207E-16, 1.000000000000000000, -0.000000000000000000 ) ) ;
#312 = CARTESIAN_POINT ( 'NONE',  ( 0.000000000000000000, 0.8125000000000000000, 0.000000000000000000 ) ) ;
#313 = CARTESIAN_POINT ( 'NONE',  ( -0.1562500000000000278, 0.1562500000000000833, 1.913510623667739463E-17 ) ) ;
#314 = DIRECTION ( 'NONE',  ( 0.000000000000000000, 1.000000000000000000, 0.000000000000000000 ) ) ;
#315 = ORIENTED_EDGE ( 'NONE', *, *, #216, .T. ) ;
#316 = CARTESIAN_POINT ( 'NONE',  ( -1.913510623667739771E-17, 0.1562500000000000278, 0.000000000000000000 ) ) ;
#317 = PRESENTATION_STYLE_ASSIGNMENT (( #264 ) ) ;
#318 = CARTESIAN_POINT ( 'NONE',  ( 0.000000000000000000, 0.000000000000000000, 0.000000000000000000 ) ) ;
#319 = VERTEX_POINT ( 'NONE', #150 ) ;
#320 = DIRECTION ( 'NONE',  ( -1.224646799147353207E-16, 1.000000000000000000, -0.000000000000000000 ) ) ;
#321 = ADVANCED_BREP_SHAPE_REPRESENTATION ( '17255', ( #359, #369, #62 ), #52 ) ;
#322 = CIRCLE ( 'NONE', #290, 0.1562500000000000000 ) ;
#323 = ADVANCED_FACE ( 'NONE', ( #215 ), #24, .F. ) ;
#324 = DIRECTION ( 'NONE',  ( -0.000000000000000000, -1.000000000000000000, -0.000000000000000000 ) ) ;
#325 = UNCERTAINTY_MEASURE_WITH_UNIT (LENGTH_MEASURE( 1.000000000000000082E-05 ), #50, 'distance_accuracy_value', 'NONE');
#326 = DIRECTION ( 'NONE',  ( 0.000000000000000000, 0.000000000000000000, -1.000000000000000000 ) ) ;
#327 = EDGE_CURVE ( 'NONE', #151, #87, #174, .T. ) ;
#328 = AXIS2_PLACEMENT_3D ( 'NONE', #300, #46, #239 ) ;
#329 =( CONVERSION_BASED_UNIT ( 'INCH', #212 ) LENGTH_UNIT ( ) NAMED_UNIT ( #58 ) );
#330 = DIRECTION ( 'NONE',  ( -1.224646799147353207E-16, 1.000000000000000000, 0.000000000000000000 ) ) ;
#331 = PRODUCT ( '17255', '17255', '', ( #153 ) ) ;
#332 = ORIENTED_EDGE ( 'NONE', *, *, #205, .F. ) ;
#333 = ORIENTED_EDGE ( 'NONE', *, *, #28, .T. ) ;
#334 = AXIS2_PLACEMENT_3D ( 'NONE', #187, #235, #351 ) ;
#335 = CARTESIAN_POINT ( 'NONE',  ( 0.1562499999999998057, 2.500000000000000000, 1.913510623667737923E-17 ) ) ;
#336 = EDGE_LOOP ( 'NONE', ( #89, #315, #197, #45 ) ) ;
#337 = SURFACE_SIDE_STYLE ('',( #79 ) ) ;
#338 = DIRECTION ( 'NONE',  ( -1.224646799147353207E-16, 1.000000000000000000, -0.000000000000000000 ) ) ;
#339 = AXIS2_PLACEMENT_3D ( 'NONE', #292, #320, #348 ) ;
#340 = DIRECTION ( 'NONE',  ( -1.224646799147353207E-16, 1.000000000000000000, -0.000000000000000000 ) ) ;
#341 = MECHANICAL_DESIGN_GEOMETRIC_PRESENTATION_REPRESENTATION (  '', ( #256 ), #47 ) ;
#342 = DIRECTION ( 'NONE',  ( -0.000000000000000000, -1.000000000000000000, -0.000000000000000000 ) ) ;
#343 = DIRECTION ( 'NONE',  ( 0.000000000000000000, 0.000000000000000000, 1.000000000000000000 ) ) ;
#344 = DIRECTION ( 'NONE',  ( 0.000000000000000000, 0.000000000000000000, 1.000000000000000000 ) ) ;
#345 =( NAMED_UNIT ( * ) SI_UNIT ( $, .STERADIAN. ) SOLID_ANGLE_UNIT ( ) );
#346 = COLOUR_RGB ( '',1.000000000000000000, 0.000000000000000000, 0.000000000000000000 ) ;
#347 =( GEOMETRIC_REPRESENTATION_CONTEXT ( 3 ) GLOBAL_UNCERTAINTY_ASSIGNED_CONTEXT ( ( #5 ) ) GLOBAL_UNIT_ASSIGNED_CONTEXT ( ( #362, #146, #111 ) ) REPRESENTATION_CONTEXT ( 'NONE', 'WORKASPACE' ) );
#348 = DIRECTION ( 'NONE',  ( -1.000000000000000000, 0.000000000000000000, 0.000000000000000000 ) ) ;
#349 = SURFACE_STYLE_USAGE ( .BOTH. , #131 ) ;
#350 = VERTEX_POINT ( 'NONE', #364 ) ;
#351 = DIRECTION ( 'NONE',  ( 0.000000000000000000, 0.000000000000000000, -1.000000000000000000 ) ) ;
#352 = AXIS2_PLACEMENT_3D ( 'NONE', #81, #330, #22 ) ;
#353 = ORIENTED_EDGE ( 'NONE', *, *, #82, .T. ) ;
#354 = LINE ( 'NONE', #44, #88 ) ;
#355 = FACE_OUTER_BOUND ( 'NONE', #176, .T. ) ;
#356 = AXIS2_PLACEMENT_3D ( 'NONE', #318, #342, #37 ) ;
#357 = AXIS2_PLACEMENT_3D ( 'NONE', #188, #64, #90 ) ;
#358 = PLANE ( 'NONE',  #302 ) ;
#359 = MANIFOLD_SOLID_BREP ( 'Revolve - Cutting Edge', #93 ) ;
#360 = FACE_OUTER_BOUND ( 'NONE', #145, .T. ) ;
#361 = ORIENTED_EDGE ( 'NONE', *, *, #102, .T. ) ;
#362 =( CONVERSION_BASED_UNIT ( 'INCH', #196 ) LENGTH_UNIT ( ) NAMED_UNIT ( #168 ) );
#363 = CARTESIAN_POINT ( 'NONE',  ( -0.1562499999999999445, 2.500000000000000000, 0.000000000000000000 ) ) ;
#364 = CARTESIAN_POINT ( 'NONE',  ( 0.1562499999999999167, 0.8125000000000001110, 1.913510623667738231E-17 ) ) ;
#365 = DIRECTION ( 'NONE',  ( 0.000000000000000000, 0.000000000000000000, -1.000000000000000000 ) ) ;
#366 = LENGTH_MEASURE_WITH_UNIT ( LENGTH_MEASURE( 0.02539999999999999897 ), #217 );
#367 = EDGE_CURVE ( 'NONE', #87, #151, #183, .T. ) ;
#368 = DIRECTION ( 'NONE',  ( -1.000000000000000000, 0.000000000000000000, 0.000000000000000000 ) ) ;
#369 = MANIFOLD_SOLID_BREP ( 'Revolve - Tool Body (Straight Shanked)', #255 ) ;
#370 = SPHERICAL_SURFACE ( 'NONE', #129, 0.1562500000000000278 ) ;
#371 = ORIENTED_EDGE ( 'NONE', *, *, #96, .F. ) ;
#372 = LENGTH_MEASURE_WITH_UNIT ( LENGTH_MEASURE( 0.02539999999999999897 ), #231 );
#373 = MECHANICAL_DESIGN_GEOMETRIC_PRESENTATION_REPRESENTATION (  '', ( #29 ), #107 ) ;
ENDSEC;
END-ISO-10303-21;
