ISO-10303-21;
HEADER;
FILE_DESCRIPTION (( 'STEP AP214' ),
    '1' );
FILE_NAME ('Micro_RNC-187-13.STEP',
    '2021-09-03T17:34:01',
    ( '' ),
    ( '' ),
    'SwSTEP 2.0',
    'SolidWorks 2020',
    '' );
FILE_SCHEMA (( 'AUTOMOTIVE_DESIGN' ));
ENDSEC;

DATA;
#1 = CARTESIAN_POINT ( 'NONE',  ( 0.0000000000000000000, 0.0000000000000000000, 0.0000000000000000000 ) ) ;
#2 = AXIS2_PLACEMENT_3D ( 'NONE', #95, #174, #248 ) ;
#3 = LINE ( 'NONE', #83, #53 ) ;
#4 = PRODUCT_CONTEXT ( 'NONE', #113, 'mechanical' ) ;
#5 = DIRECTION ( 'NONE',  ( 0.0000000000000000000, 0.0000000000000000000, 1.000000000000000000 ) ) ;
#6 = APPLICATION_CONTEXT ( 'automotive_design' ) ;
#7 = CARTESIAN_POINT ( 'NONE',  ( 0.0000000000000000000, 0.0000000000000000000, 0.0000000000000000000 ) ) ;
#8 = CONICAL_SURFACE ( 'NONE', #167, 0.004000000000000000083, 0.7853981633974503884 ) ;
#9 = AXIS2_PLACEMENT_3D ( 'NONE', #7, #82, #137 ) ;
#10 = CYLINDRICAL_SURFACE ( 'NONE', #81, 0.09375000000000001388 ) ;
#11 =( NAMED_UNIT ( * ) SI_UNIT ( $, .STERADIAN. ) SOLID_ANGLE_UNIT ( ) );
#12 = DIMENSIONAL_EXPONENTS ( 1.000000000000000000, 0.0000000000000000000, 0.0000000000000000000, 0.0000000000000000000, 0.0000000000000000000, 0.0000000000000000000, 0.0000000000000000000 ) ;
#13 = AXIS2_PLACEMENT_3D ( 'NONE', #234, #97, #102 ) ;
#14 =( NAMED_UNIT ( * ) PLANE_ANGLE_UNIT ( ) SI_UNIT ( $, .RADIAN. ) );
#15 = FILL_AREA_STYLE ('',( #52 ) ) ;
#16 = ORIENTED_EDGE ( 'NONE', *, *, #64, .F. ) ;
#17 =( GEOMETRIC_REPRESENTATION_CONTEXT ( 3 ) GLOBAL_UNCERTAINTY_ASSIGNED_CONTEXT ( ( #168 ) ) GLOBAL_UNIT_ASSIGNED_CONTEXT ( ( #146, #14, #11 ) ) REPRESENTATION_CONTEXT ( 'NONE', 'WORKASPACE' ) );
#18 = EDGE_CURVE ( 'NONE', #149, #206, #193, .T. ) ;
#19 = ORIENTED_EDGE ( 'NONE', *, *, #18, .F. ) ;
#20 = ORIENTED_EDGE ( 'NONE', *, *, #225, .T. ) ;
#21 = ORIENTED_EDGE ( 'NONE', *, *, #24, .F. ) ;
#22 = FACE_OUTER_BOUND ( 'NONE', #169, .T. ) ;
#23 = STYLED_ITEM ( 'NONE', ( #100 ), #196 ) ;
#24 = EDGE_CURVE ( 'NONE', #149, #92, #55, .T. ) ;
#25 = CARTESIAN_POINT ( 'NONE',  ( 0.0000000000000000000, 0.0000000000000000000, 3.000000000000000444 ) ) ;
#26 = DIRECTION ( 'NONE',  ( -0.0000000000000000000, -0.0000000000000000000, -1.000000000000000000 ) ) ;
#27 = ADVANCED_FACE ( 'NONE', ( #22 ), #128, .T. ) ;
#28 = CARTESIAN_POINT ( 'NONE',  ( 0.0000000000000000000, 0.0000000000000000000, 0.08974999999999963562 ) ) ;
#29 =( NAMED_UNIT ( * ) PLANE_ANGLE_UNIT ( ) SI_UNIT ( $, .RADIAN. ) );
#30 = SURFACE_STYLE_USAGE ( .BOTH. , #80 ) ;
#31 = CARTESIAN_POINT ( 'NONE',  ( 0.07875000000000088873, 9.644093543285513034E-18, 3.000000000000000444 ) ) ;
#32 = CIRCLE ( 'NONE', #244, 0.07875000000000088873 ) ;
#33 =( NAMED_UNIT ( * ) SI_UNIT ( $, .STERADIAN. ) SOLID_ANGLE_UNIT ( ) );
#34 = SURFACE_STYLE_USAGE ( .BOTH. , #203 ) ;
#35 =( GEOMETRIC_REPRESENTATION_CONTEXT ( 3 ) GLOBAL_UNCERTAINTY_ASSIGNED_CONTEXT ( ( #68 ) ) GLOBAL_UNIT_ASSIGNED_CONTEXT ( ( #218, #126, #33 ) ) REPRESENTATION_CONTEXT ( 'NONE', 'WORKASPACE' ) );
#36 = EDGE_CURVE ( 'NONE', #74, #166, #153, .T. ) ;
#37 = EDGE_LOOP ( 'NONE', ( #227, #110 ) ) ;
#38 = CARTESIAN_POINT ( 'NONE',  ( 0.0000000000000000000, 0.0000000000000000000, 0.0000000000000000000 ) ) ;
#39 = ORIENTED_EDGE ( 'NONE', *, *, #70, .F. ) ;
#40 = ORIENTED_EDGE ( 'NONE', *, *, #225, .F. ) ;
#41 = VECTOR ( 'NONE', #26, 39.37007874015748143 ) ;
#42 = CARTESIAN_POINT ( 'NONE',  ( 0.09375000000000001388, 1.148106374200643401E-17, 2.984999999999999876 ) ) ;
#43 = CYLINDRICAL_SURFACE ( 'NONE', #228, 0.09375000000000001388 ) ;
#44 = APPLICATION_PROTOCOL_DEFINITION ( 'draft international standard', 'automotive_design', 1998, #113 ) ;
#45 = CARTESIAN_POINT ( 'NONE',  ( -0.004000000000000000083, 5.985461230832689413E-18, 0.0000000000000000000 ) ) ;
#46 = FILL_AREA_STYLE_COLOUR ( '', #73 ) ;
#47 = AXIS2_PLACEMENT_3D ( 'NONE', #1, #175, #156 ) ;
#48 = FACE_OUTER_BOUND ( 'NONE', #57, .T. ) ;
#49 = LENGTH_MEASURE_WITH_UNIT ( LENGTH_MEASURE( 0.02539999999999999897 ), #226 );
#50 = PRODUCT ( 'Micro_RNC-187-13', 'Micro_RNC-187-13', '', ( #4 ) ) ;
#51 =( LENGTH_UNIT ( ) NAMED_UNIT ( * ) SI_UNIT ( $, .METRE. ) );
#52 = FILL_AREA_STYLE_COLOUR ( '', #177 ) ;
#53 = VECTOR ( 'NONE', #121, 39.37007874015748854 ) ;
#54 = ORIENTED_EDGE ( 'NONE', *, *, #70, .T. ) ;
#55 = CIRCLE ( 'NONE', #164, 0.004000000000000000083 ) ;
#56 = EDGE_LOOP ( 'NONE', ( #132, #90, #211, #192 ) ) ;
#57 = EDGE_LOOP ( 'NONE', ( #134, #78, #115, #246 ) ) ;
#58 = CIRCLE ( 'NONE', #182, 0.09375000000000001388 ) ;
#59 = CARTESIAN_POINT ( 'NONE',  ( 0.0000000000000000000, 0.0000000000000000000, 3.000000000000000444 ) ) ;
#60 = ADVANCED_FACE ( 'NONE', ( #48 ), #43, .T. ) ;
#61 = DIRECTION ( 'NONE',  ( 0.0000000000000000000, 0.0000000000000000000, 1.000000000000000000 ) ) ;
#62 = DIRECTION ( 'NONE',  ( -1.000000000000000000, 0.0000000000000000000, 0.0000000000000000000 ) ) ;
#63 = PRODUCT_DEFINITION_FORMATION_WITH_SPECIFIED_SOURCE ( 'ANY', '', #50, .NOT_KNOWN. ) ;
#64 = EDGE_CURVE ( 'NONE', #92, #149, #237, .T. ) ;
#65 = DIRECTION ( 'NONE',  ( 0.0000000000000000000, 0.0000000000000000000, 1.000000000000000000 ) ) ;
#66 = CARTESIAN_POINT ( 'NONE',  ( -0.07875000000000088873, 0.0000000000000000000, 3.000000000000000444 ) ) ;
#67 = DIRECTION ( 'NONE',  ( 0.0000000000000000000, 0.0000000000000000000, -1.000000000000000000 ) ) ;
#68 = UNCERTAINTY_MEASURE_WITH_UNIT (LENGTH_MEASURE( 1.000000000000000082E-05 ), #218, 'distance_accuracy_value', 'NONE');
#69 = STYLED_ITEM ( 'NONE', ( #108 ), #241 ) ;
#70 = EDGE_CURVE ( 'NONE', #207, #74, #32, .T. ) ;
#71 = LENGTH_MEASURE_WITH_UNIT ( LENGTH_MEASURE( 0.02539999999999999897 ), #51 );
#72 = DIRECTION ( 'NONE',  ( -0.0000000000000000000, -0.0000000000000000000, -1.000000000000000000 ) ) ;
#73 = COLOUR_RGB ( '',0.7921568627450980005, 0.8196078431372548767, 0.9333333333333333481 ) ;
#74 = VERTEX_POINT ( 'NONE', #179 ) ;
#75 = ORIENTED_EDGE ( 'NONE', *, *, #173, .T. ) ;
#76 = CONICAL_SURFACE ( 'NONE', #47, 0.004000000000000000083, 0.7853981633974503884 ) ;
#77 = ORIENTED_EDGE ( 'NONE', *, *, #220, .F. ) ;
#78 = ORIENTED_EDGE ( 'NONE', *, *, #186, .T. ) ;
#79 = EDGE_CURVE ( 'NONE', #206, #212, #58, .T. ) ;
#80 = SURFACE_SIDE_STYLE ('',( #198 ) ) ;
#81 = AXIS2_PLACEMENT_3D ( 'NONE', #109, #72, #87 ) ;
#82 = DIRECTION ( 'NONE',  ( -0.0000000000000000000, -0.0000000000000000000, -1.000000000000000000 ) ) ;
#83 = CARTESIAN_POINT ( 'NONE',  ( -0.07875000000000088873, 0.0000000000000000000, 3.000000000000000444 ) ) ;
#84 = PRODUCT_DEFINITION ( 'UNKNOWN', '', #63, #204 ) ;
#85 =( NAMED_UNIT ( * ) SI_UNIT ( $, .STERADIAN. ) SOLID_ANGLE_UNIT ( ) );
#86 = DIRECTION ( 'NONE',  ( 0.0000000000000000000, 0.0000000000000000000, 1.000000000000000000 ) ) ;
#87 = DIRECTION ( 'NONE',  ( -1.000000000000000000, 0.0000000000000000000, 0.0000000000000000000 ) ) ;
#88 =( GEOMETRIC_REPRESENTATION_CONTEXT ( 3 ) GLOBAL_UNCERTAINTY_ASSIGNED_CONTEXT ( ( #187 ) ) GLOBAL_UNIT_ASSIGNED_CONTEXT ( ( #233, #29, #85 ) ) REPRESENTATION_CONTEXT ( 'NONE', 'WORKASPACE' ) );
#89 = LENGTH_MEASURE_WITH_UNIT ( LENGTH_MEASURE( 0.02539999999999999897 ), #107 );
#90 = ORIENTED_EDGE ( 'NONE', *, *, #222, .T. ) ;
#91 = CLOSED_SHELL ( 'NONE', ( #181, #27, #240, #60, #157, #200, #127, #94 ) ) ;
#92 = VERTEX_POINT ( 'NONE', #236 ) ;
#93 = DIRECTION ( 'NONE',  ( -0.7071067811865490160, 8.659560562354951347E-17, 0.7071067811865460184 ) ) ;
#94 = ADVANCED_FACE ( 'NONE', ( #235 ), #213, .F. ) ;
#95 = CARTESIAN_POINT ( 'NONE',  ( 0.0000000000000000000, 0.0000000000000000000, 3.000000000000000444 ) ) ;
#96 = LINE ( 'NONE', #101, #41 ) ;
#97 = DIRECTION ( 'NONE',  ( 0.0000000000000000000, 0.0000000000000000000, 1.000000000000000000 ) ) ;
#98 = MECHANICAL_DESIGN_GEOMETRIC_PRESENTATION_REPRESENTATION (  '', ( #69 ), #88 ) ;
#99 = PLANE ( 'NONE',  #155 ) ;
#100 = PRESENTATION_STYLE_ASSIGNMENT (( #30 ) ) ;
#101 = CARTESIAN_POINT ( 'NONE',  ( -0.09375000000000001388, 0.0000000000000000000, 3.000000000000000444 ) ) ;
#102 = DIRECTION ( 'NONE',  ( 1.000000000000000000, 0.0000000000000000000, 0.0000000000000000000 ) ) ;
#103 = CARTESIAN_POINT ( 'NONE',  ( 0.09375000000000001388, 1.148106374200643401E-17, 0.08974999999999963562 ) ) ;
#104 = EDGE_CURVE ( 'NONE', #212, #206, #189, .T. ) ;
#105 = DIRECTION ( 'NONE',  ( 0.7071067811865490160, 0.0000000000000000000, 0.7071067811865460184 ) ) ;
#106 = DIMENSIONAL_EXPONENTS ( 1.000000000000000000, 0.0000000000000000000, 0.0000000000000000000, 0.0000000000000000000, 0.0000000000000000000, 0.0000000000000000000, 0.0000000000000000000 ) ;
#107 =( LENGTH_UNIT ( ) NAMED_UNIT ( * ) SI_UNIT ( $, .METRE. ) );
#108 = PRESENTATION_STYLE_ASSIGNMENT (( #34 ) ) ;
#109 = CARTESIAN_POINT ( 'NONE',  ( 0.0000000000000000000, 0.0000000000000000000, 3.000000000000000444 ) ) ;
#110 = ORIENTED_EDGE ( 'NONE', *, *, #24, .T. ) ;
#111 = ORIENTED_EDGE ( 'NONE', *, *, #135, .F. ) ;
#112 = EDGE_CURVE ( 'NONE', #150, #206, #96, .T. ) ;
#113 = APPLICATION_CONTEXT ( 'automotive_design' ) ;
#114 = ORIENTED_EDGE ( 'NONE', *, *, #79, .T. ) ;
#115 = ORIENTED_EDGE ( 'NONE', *, *, #112, .T. ) ;
#116 = DIRECTION ( 'NONE',  ( 0.7071067811865209274, 8.659560562354606220E-17, -0.7071067811865739960 ) ) ;
#117 = DIRECTION ( 'NONE',  ( 1.000000000000000000, 0.0000000000000000000, 0.0000000000000000000 ) ) ;
#118 = CARTESIAN_POINT ( 'NONE',  ( -0.09375000000000001388, 0.0000000000000000000, 2.984999999999999876 ) ) ;
#119 = CIRCLE ( 'NONE', #123, 0.09375000000000001388 ) ;
#120 = FILL_AREA_STYLE ('',( #46 ) ) ;
#121 = DIRECTION ( 'NONE',  ( -0.7071067811865209274, 0.0000000000000000000, -0.7071067811865739960 ) ) ;
#122 = VECTOR ( 'NONE', #93, 39.37007874015748143 ) ;
#123 = AXIS2_PLACEMENT_3D ( 'NONE', #154, #199, #215 ) ;
#124 = CARTESIAN_POINT ( 'NONE',  ( 0.004000000000000000083, 0.0000000000000000000, 0.0000000000000000000 ) ) ;
#125 = PRODUCT_DEFINITION_SHAPE ( 'NONE', 'NONE',  #84 ) ;
#126 =( NAMED_UNIT ( * ) PLANE_ANGLE_UNIT ( ) SI_UNIT ( $, .RADIAN. ) );
#127 = ADVANCED_FACE ( 'NONE', ( #138 ), #76, .T. ) ;
#128 = CONICAL_SURFACE ( 'NONE', #2, 0.07875000000000088873, 0.7853981633974107535 ) ;
#129 = DIRECTION ( 'NONE',  ( -0.0000000000000000000, -0.0000000000000000000, -1.000000000000000000 ) ) ;
#130 = ORIENTED_EDGE ( 'NONE', *, *, #173, .F. ) ;
#131 = AXIS2_PLACEMENT_3D ( 'NONE', #249, #67, #205 ) ;
#132 = ORIENTED_EDGE ( 'NONE', *, *, #220, .T. ) ;
#133 = ORIENTED_EDGE ( 'NONE', *, *, #135, .T. ) ;
#134 = ORIENTED_EDGE ( 'NONE', *, *, #222, .F. ) ;
#135 = EDGE_CURVE ( 'NONE', #74, #207, #231, .T. ) ;
#136 = VECTOR ( 'NONE', #143, 39.37007874015748143 ) ;
#137 = DIRECTION ( 'NONE',  ( -1.000000000000000000, 0.0000000000000000000, 0.0000000000000000000 ) ) ;
#138 = FACE_OUTER_BOUND ( 'NONE', #148, .T. ) ;
#139 = DIRECTION ( 'NONE',  ( 1.000000000000000000, 0.0000000000000000000, 0.0000000000000000000 ) ) ;
#140 = AXIS2_PLACEMENT_3D ( 'NONE', #165, #183, #219 ) ;
#141 = DIRECTION ( 'NONE',  ( 1.000000000000000000, 0.0000000000000000000, 0.0000000000000000000 ) ) ;
#142 = DIRECTION ( 'NONE',  ( 1.000000000000000000, 0.0000000000000000000, -0.0000000000000000000 ) ) ;
#143 = DIRECTION ( 'NONE',  ( -0.0000000000000000000, -0.0000000000000000000, -1.000000000000000000 ) ) ;
#144 = DIMENSIONAL_EXPONENTS ( 1.000000000000000000, 0.0000000000000000000, 0.0000000000000000000, 0.0000000000000000000, 0.0000000000000000000, 0.0000000000000000000, 0.0000000000000000000 ) ;
#145 = VECTOR ( 'NONE', #105, 39.37007874015748143 ) ;
#146 =( CONVERSION_BASED_UNIT ( 'INCH', #89 ) LENGTH_UNIT ( ) NAMED_UNIT ( #12 ) );
#147 = CIRCLE ( 'NONE', #140, 0.09375000000000001388 ) ;
#148 = EDGE_LOOP ( 'NONE', ( #19, #16, #20, #191 ) ) ;
#149 = VERTEX_POINT ( 'NONE', #45 ) ;
#150 = VERTEX_POINT ( 'NONE', #118 ) ;
#151 = AXIS2_PLACEMENT_3D ( 'NONE', #230, #232, #141 ) ;
#152 = ORIENTED_EDGE ( 'NONE', *, *, #36, .F. ) ;
#153 = LINE ( 'NONE', #31, #202 ) ;
#154 = CARTESIAN_POINT ( 'NONE',  ( 0.0000000000000000000, 0.0000000000000000000, 2.984999999999999876 ) ) ;
#155 = AXIS2_PLACEMENT_3D ( 'NONE', #217, #61, #178 ) ;
#156 = DIRECTION ( 'NONE',  ( 1.000000000000000000, 0.0000000000000000000, 0.0000000000000000000 ) ) ;
#157 = ADVANCED_FACE ( 'NONE', ( #197 ), #99, .T. ) ;
#158 = FACE_OUTER_BOUND ( 'NONE', #210, .T. ) ;
#159 = DIRECTION ( 'NONE',  ( -1.000000000000000000, 0.0000000000000000000, 0.0000000000000000000 ) ) ;
#160 = SHAPE_DEFINITION_REPRESENTATION ( #125, #241 ) ;
#161 = MECHANICAL_DESIGN_GEOMETRIC_PRESENTATION_REPRESENTATION (  '', ( #23 ), #17 ) ;
#162 = DIRECTION ( 'NONE',  ( -0.0000000000000000000, -0.0000000000000000000, -1.000000000000000000 ) ) ;
#163 = CARTESIAN_POINT ( 'NONE',  ( 0.09375000000000001388, 1.148106374200643401E-17, 3.000000000000000444 ) ) ;
#164 = AXIS2_PLACEMENT_3D ( 'NONE', #38, #129, #170 ) ;
#165 = CARTESIAN_POINT ( 'NONE',  ( 0.0000000000000000000, 0.0000000000000000000, 2.984999999999999876 ) ) ;
#166 = VERTEX_POINT ( 'NONE', #42 ) ;
#167 = AXIS2_PLACEMENT_3D ( 'NONE', #180, #5, #139 ) ;
#168 = UNCERTAINTY_MEASURE_WITH_UNIT (LENGTH_MEASURE( 1.000000000000000082E-05 ), #146, 'distance_accuracy_value', 'NONE');
#169 = EDGE_LOOP ( 'NONE', ( #111, #229, #77, #130 ) ) ;
#170 = DIRECTION ( 'NONE',  ( -1.000000000000000000, 0.0000000000000000000, 0.0000000000000000000 ) ) ;
#171 = EDGE_LOOP ( 'NONE', ( #54, #133 ) ) ;
#172 = AXIS2_PLACEMENT_3D ( 'NONE', #195, #86, #142 ) ;
#173 = EDGE_CURVE ( 'NONE', #207, #150, #3, .T. ) ;
#174 = DIRECTION ( 'NONE',  ( 0.0000000000000000000, 0.0000000000000000000, -1.000000000000000000 ) ) ;
#175 = DIRECTION ( 'NONE',  ( 0.0000000000000000000, 0.0000000000000000000, 1.000000000000000000 ) ) ;
#176 = DIRECTION ( 'NONE',  ( -0.0000000000000000000, -0.0000000000000000000, -1.000000000000000000 ) ) ;
#177 = COLOUR_RGB ( '',0.7921568627450980005, 0.8196078431372548767, 0.9333333333333333481 ) ;
#178 = DIRECTION ( 'NONE',  ( 1.000000000000000000, 0.0000000000000000000, -0.0000000000000000000 ) ) ;
#179 = CARTESIAN_POINT ( 'NONE',  ( 0.07875000000000088873, 1.056257864264597506E-17, 3.000000000000000444 ) ) ;
#180 = CARTESIAN_POINT ( 'NONE',  ( 0.0000000000000000000, 0.0000000000000000000, 0.0000000000000000000 ) ) ;
#181 = ADVANCED_FACE ( 'NONE', ( #158 ), #8, .T. ) ;
#182 = AXIS2_PLACEMENT_3D ( 'NONE', #28, #162, #159 ) ;
#183 = DIRECTION ( 'NONE',  ( 0.0000000000000000000, 0.0000000000000000000, -1.000000000000000000 ) ) ;
#184 = FACE_OUTER_BOUND ( 'NONE', #56, .T. ) ;
#185 = LINE ( 'NONE', #163, #136 ) ;
#186 = EDGE_CURVE ( 'NONE', #166, #150, #119, .T. ) ;
#187 = UNCERTAINTY_MEASURE_WITH_UNIT (LENGTH_MEASURE( 1.000000000000000082E-05 ), #233, 'distance_accuracy_value', 'NONE');
#188 = SURFACE_STYLE_FILL_AREA ( #15 ) ;
#189 = CIRCLE ( 'NONE', #247, 0.09375000000000001388 ) ;
#190 = ORIENTED_EDGE ( 'NONE', *, *, #186, .F. ) ;
#191 = ORIENTED_EDGE ( 'NONE', *, *, #104, .T. ) ;
#192 = ORIENTED_EDGE ( 'NONE', *, *, #112, .F. ) ;
#193 = LINE ( 'NONE', #223, #122 ) ;
#194 = DIRECTION ( 'NONE',  ( -0.0000000000000000000, -0.0000000000000000000, -1.000000000000000000 ) ) ;
#195 = CARTESIAN_POINT ( 'NONE',  ( 0.0000000000000000000, 0.0000000000000000000, 0.0000000000000000000 ) ) ;
#196 = MANIFOLD_SOLID_BREP ( 'Cut-Revolve1', #91 ) ;
#197 = FACE_OUTER_BOUND ( 'NONE', #171, .T. ) ;
#198 = SURFACE_STYLE_FILL_AREA ( #120 ) ;
#199 = DIRECTION ( 'NONE',  ( 0.0000000000000000000, 0.0000000000000000000, -1.000000000000000000 ) ) ;
#200 = ADVANCED_FACE ( 'NONE', ( #243 ), #221, .T. ) ;
#201 = CARTESIAN_POINT ( 'NONE',  ( -0.09375000000000001388, 0.0000000000000000000, 0.08974999999999963562 ) ) ;
#202 = VECTOR ( 'NONE', #116, 39.37007874015748854 ) ;
#203 = SURFACE_SIDE_STYLE ('',( #188 ) ) ;
#204 = PRODUCT_DEFINITION_CONTEXT ( 'detailed design', #6, 'design' ) ;
#205 = DIRECTION ( 'NONE',  ( -1.000000000000000000, 0.0000000000000000000, 0.0000000000000000000 ) ) ;
#206 = VERTEX_POINT ( 'NONE', #201 ) ;
#207 = VERTEX_POINT ( 'NONE', #66 ) ;
#208 = PRESENTATION_LAYER_ASSIGNMENT (  '', '', ( #69 ) ) ;
#209 = PRODUCT_RELATED_PRODUCT_CATEGORY ( 'part', '', ( #50 ) ) ;
#210 = EDGE_LOOP ( 'NONE', ( #21, #224, #114, #40 ) ) ;
#211 = ORIENTED_EDGE ( 'NONE', *, *, #79, .F. ) ;
#212 = VERTEX_POINT ( 'NONE', #103 ) ;
#213 = PLANE ( 'NONE',  #172 ) ;
#214 = DIRECTION ( 'NONE',  ( -1.000000000000000000, 0.0000000000000000000, 0.0000000000000000000 ) ) ;
#215 = DIRECTION ( 'NONE',  ( 1.000000000000000000, 0.0000000000000000000, 0.0000000000000000000 ) ) ;
#216 = PRESENTATION_LAYER_ASSIGNMENT (  '', '', ( #23 ) ) ;
#217 = CARTESIAN_POINT ( 'NONE',  ( 0.0000000000000000000, 0.0000000000000000000, 3.000000000000000444 ) ) ;
#218 =( CONVERSION_BASED_UNIT ( 'INCH', #71 ) LENGTH_UNIT ( ) NAMED_UNIT ( #144 ) );
#219 = DIRECTION ( 'NONE',  ( 1.000000000000000000, 0.0000000000000000000, 0.0000000000000000000 ) ) ;
#220 = EDGE_CURVE ( 'NONE', #150, #166, #147, .T. ) ;
#221 = CONICAL_SURFACE ( 'NONE', #131, 0.07875000000000088873, 0.7853981633974107535 ) ;
#222 = EDGE_CURVE ( 'NONE', #166, #212, #185, .T. ) ;
#223 = CARTESIAN_POINT ( 'NONE',  ( -0.004000000000000000083, 4.898587196589413537E-19, 0.0000000000000000000 ) ) ;
#224 = ORIENTED_EDGE ( 'NONE', *, *, #18, .T. ) ;
#225 = EDGE_CURVE ( 'NONE', #92, #212, #242, .T. ) ;
#226 =( LENGTH_UNIT ( ) NAMED_UNIT ( * ) SI_UNIT ( $, .METRE. ) );
#227 = ORIENTED_EDGE ( 'NONE', *, *, #64, .T. ) ;
#228 = AXIS2_PLACEMENT_3D ( 'NONE', #59, #194, #214 ) ;
#229 = ORIENTED_EDGE ( 'NONE', *, *, #36, .T. ) ;
#230 = CARTESIAN_POINT ( 'NONE',  ( 0.0000000000000000000, 0.0000000000000000000, 3.000000000000000444 ) ) ;
#231 = CIRCLE ( 'NONE', #151, 0.07875000000000088873 ) ;
#232 = DIRECTION ( 'NONE',  ( 0.0000000000000000000, 0.0000000000000000000, 1.000000000000000000 ) ) ;
#233 =( CONVERSION_BASED_UNIT ( 'INCH', #49 ) LENGTH_UNIT ( ) NAMED_UNIT ( #106 ) );
#234 = CARTESIAN_POINT ( 'NONE',  ( 0.0000000000000000000, 0.0000000000000000000, 0.0000000000000000000 ) ) ;
#235 = FACE_OUTER_BOUND ( 'NONE', #37, .T. ) ;
#236 = CARTESIAN_POINT ( 'NONE',  ( 0.004000000000000000083, 0.0000000000000000000, 0.0000000000000000000 ) ) ;
#237 = CIRCLE ( 'NONE', #9, 0.004000000000000000083 ) ;
#238 = CARTESIAN_POINT ( 'NONE',  ( 0.0000000000000000000, 0.0000000000000000000, 0.08974999999999963562 ) ) ;
#239 = APPLICATION_PROTOCOL_DEFINITION ( 'draft international standard', 'automotive_design', 1998, #6 ) ;
#240 = ADVANCED_FACE ( 'NONE', ( #184 ), #10, .T. ) ;
#241 = ADVANCED_BREP_SHAPE_REPRESENTATION ( 'Micro_RNC-187-13', ( #196, #13 ), #35 ) ;
#242 = LINE ( 'NONE', #124, #145 ) ;
#243 = FACE_OUTER_BOUND ( 'NONE', #245, .T. ) ;
#244 = AXIS2_PLACEMENT_3D ( 'NONE', #25, #65, #117 ) ;
#245 = EDGE_LOOP ( 'NONE', ( #152, #39, #75, #190 ) ) ;
#246 = ORIENTED_EDGE ( 'NONE', *, *, #104, .F. ) ;
#247 = AXIS2_PLACEMENT_3D ( 'NONE', #238, #176, #62 ) ;
#248 = DIRECTION ( 'NONE',  ( -1.000000000000000000, 0.0000000000000000000, 0.0000000000000000000 ) ) ;
#249 = CARTESIAN_POINT ( 'NONE',  ( 0.0000000000000000000, 0.0000000000000000000, 3.000000000000000444 ) ) ;
ENDSEC;
END-ISO-10303-21;
