ISO-10303-21;
HEADER;
FILE_DESCRIPTION (( 'STEP AP214' ),
    '1' );
FILE_NAME ('48115.STEP',
    '2023-06-22T21:10:50',
    ( '' ),
    ( '' ),
    'SwSTEP 2.0',
    'SolidWorks 2023',
    '' );
FILE_SCHEMA (( 'AUTOMOTIVE_DESIGN' ));
ENDSEC;

DATA;
#1 = FACE_OUTER_BOUND ( 'NONE', #121, .T. ) ;
#2 = ADVANCED_FACE ( 'NONE', ( #154 ), #119, .T. ) ;
#3 =( GEOMETRIC_REPRESENTATION_CONTEXT ( 3 ) GLOBAL_UNCERTAINTY_ASSIGNED_CONTEXT ( ( #40 ) ) GLOBAL_UNIT_ASSIGNED_CONTEXT ( ( #251, #249, #275 ) ) REPRESENTATION_CONTEXT ( 'NONE', 'WORKASPACE' ) );
#4 = CARTESIAN_POINT ( 'NONE',  ( -7.582401355855259480E-33, 0.7499999999999998890, 0.000000000000000000 ) ) ;
#5 = ORIENTED_EDGE ( 'NONE', *, *, #216, .T. ) ;
#6 = CLOSED_SHELL ( 'NONE', ( #151, #76, #163, #236 ) ) ;
#7 = AXIS2_PLACEMENT_3D ( 'NONE', #131, #63, #89 ) ;
#8 = PRODUCT_DEFINITION ( 'UNKNOWN', '', #235, #258 ) ;
#9 = VERTEX_POINT ( 'NONE', #127 ) ;
#10 = ORIENTED_EDGE ( 'NONE', *, *, #67, .T. ) ;
#11 = CARTESIAN_POINT ( 'NONE',  ( -6.123233995736766036E-17, 2.500000000000000000, 0.000000000000000000 ) ) ;
#12 = DIMENSIONAL_EXPONENTS ( 1.000000000000000000, 0.000000000000000000, 0.000000000000000000, 0.000000000000000000, 0.000000000000000000, 0.000000000000000000, 0.000000000000000000 ) ;
#13 = ORIENTED_EDGE ( 'NONE', *, *, #248, .F. ) ;
#14 = EDGE_CURVE ( 'NONE', #66, #96, #61, .T. ) ;
#15 = AXIS2_PLACEMENT_3D ( 'NONE', #4, #295, #171 ) ;
#16 = CYLINDRICAL_SURFACE ( 'NONE', #212, 0.1250000000000000000 ) ;
#17 = SHAPE_DEFINITION_REPRESENTATION ( #190, #261 ) ;
#18 = CARTESIAN_POINT ( 'NONE',  ( 0.1249999999999999445, 2.500000000000000000, 1.530808498934191817E-17 ) ) ;
#19 = SURFACE_STYLE_FILL_AREA ( #161 ) ;
#20 = LENGTH_MEASURE_WITH_UNIT ( LENGTH_MEASURE( 0.02539999999999999897 ), #70 );
#21 =( GEOMETRIC_REPRESENTATION_CONTEXT ( 3 ) GLOBAL_UNCERTAINTY_ASSIGNED_CONTEXT ( ( #107 ) ) GLOBAL_UNIT_ASSIGNED_CONTEXT ( ( #98, #243, #265 ) ) REPRESENTATION_CONTEXT ( 'NONE', 'WORKASPACE' ) );
#22 = UNCERTAINTY_MEASURE_WITH_UNIT (LENGTH_MEASURE( 1.000000000000000082E-05 ), #150, 'distance_accuracy_value', 'NONE');
#23 = PRODUCT ( '48115', '48115', '', ( #229 ) ) ;
#24 = APPLICATION_CONTEXT ( 'automotive_design' ) ;
#25 = EDGE_CURVE ( 'NONE', #231, #147, #87, .T. ) ;
#26 = FILL_AREA_STYLE_COLOUR ( '', #73 ) ;
#27 = ADVANCED_FACE ( 'NONE', ( #108 ), #16, .T. ) ;
#28 = EDGE_LOOP ( 'NONE', ( #101, #10 ) ) ;
#29 = SURFACE_SIDE_STYLE ('',( #259 ) ) ;
#30 = DIRECTION ( 'NONE',  ( 0.000000000000000000, -1.000000000000000000, -0.000000000000000000 ) ) ;
#31 = SURFACE_STYLE_FILL_AREA ( #239 ) ;
#32 = EDGE_LOOP ( 'NONE', ( #13, #52, #99, #115 ) ) ;
#33 = EDGE_CURVE ( 'NONE', #96, #136, #123, .T. ) ;
#34 = LENGTH_MEASURE_WITH_UNIT ( LENGTH_MEASURE( 0.02539999999999999897 ), #193 );
#35 = SURFACE_STYLE_FILL_AREA ( #244 ) ;
#36 = DIRECTION ( 'NONE',  ( -0.000000000000000000, -1.000000000000000000, -0.000000000000000000 ) ) ;
#37 = CYLINDRICAL_SURFACE ( 'NONE', #7, 0.1250000000000000278 ) ;
#38 = PLANE ( 'NONE',  #196 ) ;
#39 = COLOUR_RGB ( '',1.000000000000000000, 0.000000000000000000, 0.000000000000000000 ) ;
#40 = UNCERTAINTY_MEASURE_WITH_UNIT (LENGTH_MEASURE( 1.000000000000000082E-05 ), #251, 'distance_accuracy_value', 'NONE');
#41 = DIRECTION ( 'NONE',  ( 0.000000000000000000, 1.000000000000000000, 0.000000000000000000 ) ) ;
#42 = CARTESIAN_POINT ( 'NONE',  ( -6.123233995736766036E-17, 2.500000000000000000, 0.000000000000000000 ) ) ;
#43 =( NAMED_UNIT ( * ) PLANE_ANGLE_UNIT ( ) SI_UNIT ( $, .RADIAN. ) );
#44 = STYLED_ITEM ( 'NONE', ( #140 ), #254 ) ;
#45 = EDGE_CURVE ( 'NONE', #224, #66, #111, .T. ) ;
#46 = DIMENSIONAL_EXPONENTS ( 1.000000000000000000, 0.000000000000000000, 0.000000000000000000, 0.000000000000000000, 0.000000000000000000, 0.000000000000000000, 0.000000000000000000 ) ;
#47 = AXIS2_PLACEMENT_3D ( 'NONE', #202, #267, #149 ) ;
#48 = PRESENTATION_STYLE_ASSIGNMENT (( #185 ) ) ;
#49 = ORIENTED_EDGE ( 'NONE', *, *, #145, .F. ) ;
#50 = CARTESIAN_POINT ( 'NONE',  ( -0.1250000000000001110, 2.500000000000000000, 0.000000000000000000 ) ) ;
#51 = STYLED_ITEM ( 'NONE', ( #286 ), #297 ) ;
#52 = ORIENTED_EDGE ( 'NONE', *, *, #45, .T. ) ;
#53 = ORIENTED_EDGE ( 'NONE', *, *, #248, .T. ) ;
#54 = CARTESIAN_POINT ( 'NONE',  ( -0.1249999999999999861, 0.7499999999999998890, 0.000000000000000000 ) ) ;
#55 = FACE_OUTER_BOUND ( 'NONE', #292, .T. ) ;
#56 = CARTESIAN_POINT ( 'NONE',  ( 0.000000000000000000, 0.000000000000000000, -0.1250000000000000000 ) ) ;
#57 = CARTESIAN_POINT ( 'NONE',  ( -0.1250000000000000833, 2.500000000000000000, 0.000000000000000000 ) ) ;
#58 = STYLED_ITEM ( 'NONE', ( #48 ), #84 ) ;
#59 = CARTESIAN_POINT ( 'NONE',  ( 7.651835625825799802E-35, 0.7500000000000001110, 0.000000000000000000 ) ) ;
#60 = LINE ( 'NONE', #18, #228 ) ;
#61 = LINE ( 'NONE', #56, #283 ) ;
#62 =( NAMED_UNIT ( * ) PLANE_ANGLE_UNIT ( ) SI_UNIT ( $, .RADIAN. ) );
#63 = DIRECTION ( 'NONE',  ( -3.498990854706722745E-17, 1.000000000000000000, -0.000000000000000000 ) ) ;
#64 = SURFACE_SIDE_STYLE ('',( #230 ) ) ;
#65 = SURFACE_STYLE_USAGE ( .BOTH. , #270 ) ;
#66 = VERTEX_POINT ( 'NONE', #158 ) ;
#67 = EDGE_CURVE ( 'NONE', #147, #231, #288, .T. ) ;
#68 = CIRCLE ( 'NONE', #124, 0.1249999999999999861 ) ;
#69 = ORIENTED_EDGE ( 'NONE', *, *, #14, .F. ) ;
#70 =( LENGTH_UNIT ( ) NAMED_UNIT ( * ) SI_UNIT ( $, .METRE. ) );
#71 = ORIENTED_EDGE ( 'NONE', *, *, #67, .F. ) ;
#72 = AXIS2_PLACEMENT_3D ( 'NONE', #279, #305, #83 ) ;
#73 = COLOUR_RGB ( '',1.000000000000000000, 0.000000000000000000, 0.000000000000000000 ) ;
#74 = PRESENTATION_STYLE_ASSIGNMENT (( #242 ) ) ;
#75 =( NAMED_UNIT ( * ) PLANE_ANGLE_UNIT ( ) SI_UNIT ( $, .RADIAN. ) );
#76 = ADVANCED_FACE ( 'NONE', ( #300 ), #38, .F. ) ;
#77 = ORIENTED_EDGE ( 'NONE', *, *, #113, .F. ) ;
#78 = CARTESIAN_POINT ( 'NONE',  ( 0.000000000000000000, 0.000000000000000000, 0.000000000000000000 ) ) ;
#79 = FILL_AREA_STYLE_COLOUR ( '', #39 ) ;
#80 = DIRECTION ( 'NONE',  ( -1.000000000000000000, 0.000000000000000000, 0.000000000000000000 ) ) ;
#81 = DIMENSIONAL_EXPONENTS ( 1.000000000000000000, 0.000000000000000000, 0.000000000000000000, 0.000000000000000000, 0.000000000000000000, 0.000000000000000000, 0.000000000000000000 ) ;
#82 = DIRECTION ( 'NONE',  ( -3.498990854706722745E-17, 1.000000000000000000, -0.000000000000000000 ) ) ;
#83 = DIRECTION ( 'NONE',  ( 0.000000000000000000, 0.000000000000000000, -1.000000000000000000 ) ) ;
#84 = MANIFOLD_SOLID_BREP ( 'Revolve - Cutting Edge', #238 ) ;
#85 = FILL_AREA_STYLE_COLOUR ( '', #269 ) ;
#86 =( LENGTH_UNIT ( ) NAMED_UNIT ( * ) SI_UNIT ( $, .METRE. ) );
#87 = CIRCLE ( 'NONE', #90, 0.1250000000000000555 ) ;
#88 = SURFACE_SIDE_STYLE ('',( #19 ) ) ;
#89 = DIRECTION ( 'NONE',  ( -1.000000000000000000, 0.000000000000000000, 0.000000000000000000 ) ) ;
#90 = AXIS2_PLACEMENT_3D ( 'NONE', #296, #293, #80 ) ;
#91 = AXIS2_PLACEMENT_3D ( 'NONE', #42, #184, #137 ) ;
#92 = ORIENTED_EDGE ( 'NONE', *, *, #45, .F. ) ;
#93 = AXIS2_PLACEMENT_3D ( 'NONE', #203, #41, #157 ) ;
#94 = AXIS2_PLACEMENT_3D ( 'NONE', #272, #278, #246 ) ;
#95 = CYLINDRICAL_SURFACE ( 'NONE', #117, 0.1250000000000000000 ) ;
#96 = VERTEX_POINT ( 'NONE', #207 ) ;
#97 = PRESENTATION_LAYER_ASSIGNMENT (  '', '', ( #167 ) ) ;
#98 =( CONVERSION_BASED_UNIT ( 'INCH', #274 ) LENGTH_UNIT ( ) NAMED_UNIT ( #46 ) );
#99 = ORIENTED_EDGE ( 'NONE', *, *, #14, .T. ) ;
#100 = DIRECTION ( 'NONE',  ( 0.000000000000000000, 0.000000000000000000, -1.000000000000000000 ) ) ;
#101 = ORIENTED_EDGE ( 'NONE', *, *, #25, .T. ) ;
#102 = COLOUR_RGB ( '',1.000000000000000000, 0.000000000000000000, 0.000000000000000000 ) ;
#103 =( GEOMETRIC_REPRESENTATION_CONTEXT ( 3 ) GLOBAL_UNCERTAINTY_ASSIGNED_CONTEXT ( ( #233 ) ) GLOBAL_UNIT_ASSIGNED_CONTEXT ( ( #214, #62, #211 ) ) REPRESENTATION_CONTEXT ( 'NONE', 'WORKASPACE' ) );
#104 = PRESENTATION_STYLE_ASSIGNMENT (( #135 ) ) ;
#105 =( CONVERSION_BASED_UNIT ( 'INCH', #20 ) LENGTH_UNIT ( ) NAMED_UNIT ( #129 ) );
#106 = DIRECTION ( 'NONE',  ( -3.498990854706722745E-17, 1.000000000000000000, 0.000000000000000000 ) ) ;
#107 = UNCERTAINTY_MEASURE_WITH_UNIT (LENGTH_MEASURE( 1.000000000000000082E-05 ), #98, 'distance_accuracy_value', 'NONE');
#108 = FACE_OUTER_BOUND ( 'NONE', #256, .T. ) ;
#109 = ORIENTED_EDGE ( 'NONE', *, *, #303, .T. ) ;
#110 = DIRECTION ( 'NONE',  ( -3.498990854706722745E-17, 1.000000000000000000, -0.000000000000000000 ) ) ;
#111 = CIRCLE ( 'NONE', #208, 0.1249999999999999861 ) ;
#112 = CIRCLE ( 'NONE', #15, 0.1249999999999999861 ) ;
#113 = EDGE_CURVE ( 'NONE', #169, #231, #306, .T. ) ;
#114 = APPLICATION_PROTOCOL_DEFINITION ( 'draft international standard', 'automotive_design', 1998, #156 ) ;
#115 = ORIENTED_EDGE ( 'NONE', *, *, #122, .F. ) ;
#116 = UNCERTAINTY_MEASURE_WITH_UNIT (LENGTH_MEASURE( 1.000000000000000082E-05 ), #172, 'distance_accuracy_value', 'NONE');
#117 = AXIS2_PLACEMENT_3D ( 'NONE', #192, #181, #204 ) ;
#118 = DIRECTION ( 'NONE',  ( -1.000000000000000000, 0.000000000000000000, 0.000000000000000000 ) ) ;
#119 = PLANE ( 'NONE',  #93 ) ;
#120 = ORIENTED_EDGE ( 'NONE', *, *, #33, .T. ) ;
#121 = EDGE_LOOP ( 'NONE', ( #120, #264 ) ) ;
#122 = EDGE_CURVE ( 'NONE', #136, #96, #178, .T. ) ;
#123 = CIRCLE ( 'NONE', #72, 0.1250000000000000000 ) ;
#124 = AXIS2_PLACEMENT_3D ( 'NONE', #226, #232, #118 ) ;
#125 =( NAMED_UNIT ( * ) PLANE_ANGLE_UNIT ( ) SI_UNIT ( $, .RADIAN. ) );
#126 = PLANE ( 'NONE',  #148 ) ;
#127 = CARTESIAN_POINT ( 'NONE',  ( 0.1250000000000000000, 0.7499999999999998890, 1.530808498934192125E-17 ) ) ;
#128 = SURFACE_SIDE_STYLE ('',( #35 ) ) ;
#129 = DIMENSIONAL_EXPONENTS ( 1.000000000000000000, 0.000000000000000000, 0.000000000000000000, 0.000000000000000000, 0.000000000000000000, 0.000000000000000000, 0.000000000000000000 ) ;
#130 = LENGTH_MEASURE_WITH_UNIT ( LENGTH_MEASURE( 0.02539999999999999897 ), #182 );
#131 = CARTESIAN_POINT ( 'NONE',  ( -6.123233995736766036E-17, 2.500000000000000000, 0.000000000000000000 ) ) ;
#132 = CARTESIAN_POINT ( 'NONE',  ( 0.000000000000000000, 0.000000000000000000, 0.000000000000000000 ) ) ;
#133 = COLOUR_RGB ( '',1.000000000000000000, 0.000000000000000000, 0.000000000000000000 ) ;
#134 = AXIS2_PLACEMENT_3D ( 'NONE', #252, #276, #273 ) ;
#135 = SURFACE_STYLE_USAGE ( .BOTH. , #64 ) ;
#136 = VERTEX_POINT ( 'NONE', #280 ) ;
#137 = DIRECTION ( 'NONE',  ( -1.000000000000000000, 0.000000000000000000, 0.000000000000000000 ) ) ;
#138 = DIRECTION ( 'NONE',  ( 1.000000000000000000, 0.000000000000000000, 0.000000000000000000 ) ) ;
#139 = PRESENTATION_LAYER_ASSIGNMENT (  '', '', ( #58 ) ) ;
#140 = PRESENTATION_STYLE_ASSIGNMENT (( #65 ) ) ;
#141 = DIMENSIONAL_EXPONENTS ( 1.000000000000000000, 0.000000000000000000, 0.000000000000000000, 0.000000000000000000, 0.000000000000000000, 0.000000000000000000, 0.000000000000000000 ) ;
#142 = ORIENTED_EDGE ( 'NONE', *, *, #281, .F. ) ;
#143 = PRESENTATION_LAYER_ASSIGNMENT (  '', '', ( #219 ) ) ;
#144 = SURFACE_STYLE_USAGE ( .BOTH. , #128 ) ;
#145 = EDGE_CURVE ( 'NONE', #9, #147, #60, .T. ) ;
#146 = SURFACE_STYLE_FILL_AREA ( #176 ) ;
#147 = VERTEX_POINT ( 'NONE', #162 ) ;
#148 = AXIS2_PLACEMENT_3D ( 'NONE', #78, #30, #215 ) ;
#149 = DIRECTION ( 'NONE',  ( 0.000000000000000000, 0.000000000000000000, -1.000000000000000000 ) ) ;
#150 =( CONVERSION_BASED_UNIT ( 'INCH', #175 ) LENGTH_UNIT ( ) NAMED_UNIT ( #186 ) );
#151 = ADVANCED_FACE ( 'NONE', ( #55 ), #205, .T. ) ;
#152 = ORIENTED_EDGE ( 'NONE', *, *, #216, .F. ) ;
#153 = LENGTH_MEASURE_WITH_UNIT ( LENGTH_MEASURE( 0.02539999999999999897 ), #263 );
#154 = FACE_OUTER_BOUND ( 'NONE', #201, .T. ) ;
#155 = FILL_AREA_STYLE_COLOUR ( '', #277 ) ;
#156 = APPLICATION_CONTEXT ( 'automotive_design' ) ;
#157 = DIRECTION ( 'NONE',  ( 0.000000000000000000, -0.000000000000000000, 1.000000000000000000 ) ) ;
#158 = CARTESIAN_POINT ( 'NONE',  ( 0.000000000000000000, 0.7500000000000001110, -0.1249999999999999861 ) ) ;
#159 = AXIS2_PLACEMENT_3D ( 'NONE', #11, #200, #247 ) ;
#160 = PRESENTATION_LAYER_ASSIGNMENT (  '', '', ( #44 ) ) ;
#161 = FILL_AREA_STYLE ('',( #85 ) ) ;
#162 = CARTESIAN_POINT ( 'NONE',  ( 0.1250000000000000000, 2.500000000000000000, 1.530808498934192125E-17 ) ) ;
#163 = ADVANCED_FACE ( 'NONE', ( #210 ), #37, .T. ) ;
#164 = DIRECTION ( 'NONE',  ( -1.000000000000000000, -3.498990854706722745E-17, 0.000000000000000000 ) ) ;
#165 = DIRECTION ( 'NONE',  ( -0.000000000000000000, -1.000000000000000000, -0.000000000000000000 ) ) ;
#166 =( GEOMETRIC_REPRESENTATION_CONTEXT ( 3 ) GLOBAL_UNCERTAINTY_ASSIGNED_CONTEXT ( ( #309 ) ) GLOBAL_UNIT_ASSIGNED_CONTEXT ( ( #105, #43, #245 ) ) REPRESENTATION_CONTEXT ( 'NONE', 'WORKASPACE' ) );
#167 = STYLED_ITEM ( 'NONE', ( #74 ), #2 ) ;
#168 = ORIENTED_EDGE ( 'NONE', *, *, #33, .F. ) ;
#169 = VERTEX_POINT ( 'NONE', #54 ) ;
#170 =( GEOMETRIC_REPRESENTATION_CONTEXT ( 3 ) GLOBAL_UNCERTAINTY_ASSIGNED_CONTEXT ( ( #285 ) ) GLOBAL_UNIT_ASSIGNED_CONTEXT ( ( #217, #220, #197 ) ) REPRESENTATION_CONTEXT ( 'NONE', 'WORKASPACE' ) );
#171 = DIRECTION ( 'NONE',  ( -1.000000000000000000, 0.000000000000000000, 0.000000000000000000 ) ) ;
#172 =( CONVERSION_BASED_UNIT ( 'INCH', #34 ) LENGTH_UNIT ( ) NAMED_UNIT ( #12 ) );
#173 = ORIENTED_EDGE ( 'NONE', *, *, #281, .T. ) ;
#174 = ORIENTED_EDGE ( 'NONE', *, *, #113, .T. ) ;
#175 = LENGTH_MEASURE_WITH_UNIT ( LENGTH_MEASURE( 0.02539999999999999897 ), #198 );
#176 = FILL_AREA_STYLE ('',( #79 ) ) ;
#177 = MECHANICAL_DESIGN_GEOMETRIC_PRESENTATION_REPRESENTATION (  '', ( #58 ), #166 ) ;
#178 = CIRCLE ( 'NONE', #134, 0.1250000000000000000 ) ;
#179 = FILL_AREA_STYLE_COLOUR ( '', #133 ) ;
#180 = DIMENSIONAL_EXPONENTS ( 1.000000000000000000, 0.000000000000000000, 0.000000000000000000, 0.000000000000000000, 0.000000000000000000, 0.000000000000000000, 0.000000000000000000 ) ;
#181 = DIRECTION ( 'NONE',  ( -0.000000000000000000, -1.000000000000000000, -0.000000000000000000 ) ) ;
#182 =( LENGTH_UNIT ( ) NAMED_UNIT ( * ) SI_UNIT ( $, .METRE. ) );
#183 = LINE ( 'NONE', #250, #302 ) ;
#184 = DIRECTION ( 'NONE',  ( -3.498990854706722745E-17, 1.000000000000000000, -0.000000000000000000 ) ) ;
#185 = SURFACE_STYLE_USAGE ( .BOTH. , #88 ) ;
#186 = DIMENSIONAL_EXPONENTS ( 1.000000000000000000, 0.000000000000000000, 0.000000000000000000, 0.000000000000000000, 0.000000000000000000, 0.000000000000000000, 0.000000000000000000 ) ;
#187 = MECHANICAL_DESIGN_GEOMETRIC_PRESENTATION_REPRESENTATION (  '', ( #262 ), #170 ) ;
#188 =( LENGTH_UNIT ( ) NAMED_UNIT ( * ) SI_UNIT ( $, .METRE. ) );
#189 = FILL_AREA_STYLE ('',( #26 ) ) ;
#190 = PRODUCT_DEFINITION_SHAPE ( 'NONE', 'NONE',  #8 ) ;
#191 = MANIFOLD_SOLID_BREP ( 'Revolve - Tool Body (Straight Shanked)', #6 ) ;
#192 = CARTESIAN_POINT ( 'NONE',  ( 0.000000000000000000, 0.000000000000000000, 0.000000000000000000 ) ) ;
#193 =( LENGTH_UNIT ( ) NAMED_UNIT ( * ) SI_UNIT ( $, .METRE. ) );
#194 = SURFACE_STYLE_USAGE ( .BOTH. , #29 ) ;
#195 =( NAMED_UNIT ( * ) SI_UNIT ( $, .STERADIAN. ) SOLID_ANGLE_UNIT ( ) );
#196 = AXIS2_PLACEMENT_3D ( 'NONE', #59, #106, #164 ) ;
#197 =( NAMED_UNIT ( * ) SI_UNIT ( $, .STERADIAN. ) SOLID_ANGLE_UNIT ( ) );
#198 =( LENGTH_UNIT ( ) NAMED_UNIT ( * ) SI_UNIT ( $, .METRE. ) );
#199 = FACE_OUTER_BOUND ( 'NONE', #32, .T. ) ;
#200 = DIRECTION ( 'NONE',  ( -3.498990854706722745E-17, 1.000000000000000000, -0.000000000000000000 ) ) ;
#201 = EDGE_LOOP ( 'NONE', ( #142, #92 ) ) ;
#202 = CARTESIAN_POINT ( 'NONE',  ( 0.000000000000000000, 0.7500000000000001110, 0.000000000000000000 ) ) ;
#203 = CARTESIAN_POINT ( 'NONE',  ( 0.000000000000000000, 0.7500000000000001110, 0.000000000000000000 ) ) ;
#204 = DIRECTION ( 'NONE',  ( 0.000000000000000000, 0.000000000000000000, -1.000000000000000000 ) ) ;
#205 = CYLINDRICAL_SURFACE ( 'NONE', #91, 0.1250000000000000278 ) ;
#206 = CARTESIAN_POINT ( 'NONE',  ( 0.000000000000000000, 0.7500000000000001110, 0.000000000000000000 ) ) ;
#207 = CARTESIAN_POINT ( 'NONE',  ( 0.000000000000000000, 0.000000000000000000, -0.1250000000000000000 ) ) ;
#208 = AXIS2_PLACEMENT_3D ( 'NONE', #206, #165, #253 ) ;
#209 = DIRECTION ( 'NONE',  ( -0.000000000000000000, -1.000000000000000000, -0.000000000000000000 ) ) ;
#210 = FACE_OUTER_BOUND ( 'NONE', #260, .T. ) ;
#211 =( NAMED_UNIT ( * ) SI_UNIT ( $, .STERADIAN. ) SOLID_ANGLE_UNIT ( ) );
#212 = AXIS2_PLACEMENT_3D ( 'NONE', #282, #36, #100 ) ;
#213 = MECHANICAL_DESIGN_GEOMETRIC_PRESENTATION_REPRESENTATION (  '', ( #44 ), #103 ) ;
#214 =( CONVERSION_BASED_UNIT ( 'INCH', #301 ) LENGTH_UNIT ( ) NAMED_UNIT ( #141 ) );
#215 = DIRECTION ( 'NONE',  ( 0.000000000000000000, 0.000000000000000000, -1.000000000000000000 ) ) ;
#216 = EDGE_CURVE ( 'NONE', #9, #169, #68, .T. ) ;
#217 =( CONVERSION_BASED_UNIT ( 'INCH', #153 ) LENGTH_UNIT ( ) NAMED_UNIT ( #180 ) );
#218 = ORIENTED_EDGE ( 'NONE', *, *, #303, .F. ) ;
#219 = STYLED_ITEM ( 'NONE', ( #104 ), #27 ) ;
#220 =( NAMED_UNIT ( * ) PLANE_ANGLE_UNIT ( ) SI_UNIT ( $, .RADIAN. ) );
#221 = AXIS2_PLACEMENT_3D ( 'NONE', #132, #298, #138 ) ;
#222 = CARTESIAN_POINT ( 'NONE',  ( 1.530808498934191201E-17, 0.7500000000000001110, 0.1249999999999999861 ) ) ;
#223 = DIRECTION ( 'NONE',  ( -0.000000000000000000, -1.000000000000000000, -0.000000000000000000 ) ) ;
#224 = VERTEX_POINT ( 'NONE', #222 ) ;
#225 = FILL_AREA_STYLE ('',( #179 ) ) ;
#226 = CARTESIAN_POINT ( 'NONE',  ( -7.582401355855259480E-33, 0.7499999999999998890, 0.000000000000000000 ) ) ;
#227 =( GEOMETRIC_REPRESENTATION_CONTEXT ( 3 ) GLOBAL_UNCERTAINTY_ASSIGNED_CONTEXT ( ( #116 ) ) GLOBAL_UNIT_ASSIGNED_CONTEXT ( ( #172, #125, #299 ) ) REPRESENTATION_CONTEXT ( 'NONE', 'WORKASPACE' ) );
#228 = VECTOR ( 'NONE', #110, 39.37007874015748143 ) ;
#229 = PRODUCT_CONTEXT ( 'NONE', #24, 'mechanical' ) ;
#230 = SURFACE_STYLE_FILL_AREA ( #225 ) ;
#231 = VERTEX_POINT ( 'NONE', #50 ) ;
#232 = DIRECTION ( 'NONE',  ( -3.498990854706722745E-17, 1.000000000000000000, -0.000000000000000000 ) ) ;
#233 = UNCERTAINTY_MEASURE_WITH_UNIT (LENGTH_MEASURE( 1.000000000000000082E-05 ), #214, 'distance_accuracy_value', 'NONE');
#234 = MECHANICAL_DESIGN_GEOMETRIC_PRESENTATION_REPRESENTATION (  '', ( #167 ), #227 ) ;
#235 = PRODUCT_DEFINITION_FORMATION_WITH_SPECIFIED_SOURCE ( 'ANY', '', #23, .NOT_KNOWN. ) ;
#236 = ADVANCED_FACE ( 'NONE', ( #304 ), #237, .F. ) ;
#237 = PLANE ( 'NONE',  #94 ) ;
#238 = CLOSED_SHELL ( 'NONE', ( #27, #2, #254, #297 ) ) ;
#239 = FILL_AREA_STYLE ('',( #287 ) ) ;
#240 = APPLICATION_PROTOCOL_DEFINITION ( 'draft international standard', 'automotive_design', 1998, #24 ) ;
#241 = ORIENTED_EDGE ( 'NONE', *, *, #145, .T. ) ;
#242 = SURFACE_STYLE_USAGE ( .BOTH. , #289 ) ;
#243 =( NAMED_UNIT ( * ) PLANE_ANGLE_UNIT ( ) SI_UNIT ( $, .RADIAN. ) );
#244 = FILL_AREA_STYLE ('',( #155 ) ) ;
#245 =( NAMED_UNIT ( * ) SI_UNIT ( $, .STERADIAN. ) SOLID_ANGLE_UNIT ( ) );
#246 = DIRECTION ( 'NONE',  ( 1.000000000000000000, 3.498990854706722745E-17, 0.000000000000000000 ) ) ;
#247 = DIRECTION ( 'NONE',  ( -1.000000000000000000, 0.000000000000000000, 0.000000000000000000 ) ) ;
#248 = EDGE_CURVE ( 'NONE', #224, #136, #183, .T. ) ;
#249 =( NAMED_UNIT ( * ) PLANE_ANGLE_UNIT ( ) SI_UNIT ( $, .RADIAN. ) );
#250 = CARTESIAN_POINT ( 'NONE',  ( 1.530808498934191509E-17, 0.000000000000000000, 0.1250000000000000000 ) ) ;
#251 =( CONVERSION_BASED_UNIT ( 'INCH', #130 ) LENGTH_UNIT ( ) NAMED_UNIT ( #81 ) );
#252 = CARTESIAN_POINT ( 'NONE',  ( 0.000000000000000000, 0.000000000000000000, 0.000000000000000000 ) ) ;
#253 = DIRECTION ( 'NONE',  ( 0.000000000000000000, 0.000000000000000000, -1.000000000000000000 ) ) ;
#254 = ADVANCED_FACE ( 'NONE', ( #199 ), #95, .T. ) ;
#255 = PRESENTATION_LAYER_ASSIGNMENT (  '', '', ( #262 ) ) ;
#256 = EDGE_LOOP ( 'NONE', ( #173, #53, #168, #69 ) ) ;
#257 = VECTOR ( 'NONE', #82, 39.37007874015748143 ) ;
#258 = PRODUCT_DEFINITION_CONTEXT ( 'detailed design', #156, 'design' ) ;
#259 = SURFACE_STYLE_FILL_AREA ( #189 ) ;
#260 = EDGE_LOOP ( 'NONE', ( #49, #5, #174, #71 ) ) ;
#261 = ADVANCED_BREP_SHAPE_REPRESENTATION ( '48115', ( #84, #191, #221 ), #21 ) ;
#262 = STYLED_ITEM ( 'NONE', ( #308 ), #191 ) ;
#263 =( LENGTH_UNIT ( ) NAMED_UNIT ( * ) SI_UNIT ( $, .METRE. ) );
#264 = ORIENTED_EDGE ( 'NONE', *, *, #122, .T. ) ;
#265 =( NAMED_UNIT ( * ) SI_UNIT ( $, .STERADIAN. ) SOLID_ANGLE_UNIT ( ) );
#266 = PRODUCT_RELATED_PRODUCT_CATEGORY ( 'part', '', ( #23 ) ) ;
#267 = DIRECTION ( 'NONE',  ( -0.000000000000000000, -1.000000000000000000, -0.000000000000000000 ) ) ;
#268 = ORIENTED_EDGE ( 'NONE', *, *, #25, .F. ) ;
#269 = COLOUR_RGB ( '',0.7921568627450980005, 0.8196078431372548767, 0.9333333333333333481 ) ;
#270 = SURFACE_SIDE_STYLE ('',( #146 ) ) ;
#271 = MECHANICAL_DESIGN_GEOMETRIC_PRESENTATION_REPRESENTATION (  '', ( #51 ), #294 ) ;
#272 = CARTESIAN_POINT ( 'NONE',  ( 0.1249999999999999861, 2.500000000000000000, 0.000000000000000000 ) ) ;
#273 = DIRECTION ( 'NONE',  ( 0.000000000000000000, 0.000000000000000000, -1.000000000000000000 ) ) ;
#274 = LENGTH_MEASURE_WITH_UNIT ( LENGTH_MEASURE( 0.02539999999999999897 ), #86 );
#275 =( NAMED_UNIT ( * ) SI_UNIT ( $, .STERADIAN. ) SOLID_ANGLE_UNIT ( ) );
#276 = DIRECTION ( 'NONE',  ( -0.000000000000000000, -1.000000000000000000, -0.000000000000000000 ) ) ;
#277 = COLOUR_RGB ( '',0.7921568627450980005, 0.8196078431372548767, 0.9333333333333333481 ) ;
#278 = DIRECTION ( 'NONE',  ( 3.498990854706722745E-17, -1.000000000000000000, 0.000000000000000000 ) ) ;
#279 = CARTESIAN_POINT ( 'NONE',  ( 0.000000000000000000, 0.000000000000000000, 0.000000000000000000 ) ) ;
#280 = CARTESIAN_POINT ( 'NONE',  ( 1.530808498934191509E-17, 0.000000000000000000, 0.1250000000000000000 ) ) ;
#281 = EDGE_CURVE ( 'NONE', #66, #224, #290, .T. ) ;
#282 = CARTESIAN_POINT ( 'NONE',  ( 0.000000000000000000, 0.000000000000000000, 0.000000000000000000 ) ) ;
#283 = VECTOR ( 'NONE', #223, 39.37007874015748143 ) ;
#284 = PRESENTATION_LAYER_ASSIGNMENT (  '', '', ( #51 ) ) ;
#285 = UNCERTAINTY_MEASURE_WITH_UNIT (LENGTH_MEASURE( 1.000000000000000082E-05 ), #217, 'distance_accuracy_value', 'NONE');
#286 = PRESENTATION_STYLE_ASSIGNMENT (( #194 ) ) ;
#287 = FILL_AREA_STYLE_COLOUR ( '', #102 ) ;
#288 = CIRCLE ( 'NONE', #159, 0.1250000000000000555 ) ;
#289 = SURFACE_SIDE_STYLE ('',( #31 ) ) ;
#290 = CIRCLE ( 'NONE', #47, 0.1249999999999999861 ) ;
#291 = EDGE_LOOP ( 'NONE', ( #218, #152 ) ) ;
#292 = EDGE_LOOP ( 'NONE', ( #109, #241, #268, #77 ) ) ;
#293 = DIRECTION ( 'NONE',  ( -3.498990854706722745E-17, 1.000000000000000000, -0.000000000000000000 ) ) ;
#294 =( GEOMETRIC_REPRESENTATION_CONTEXT ( 3 ) GLOBAL_UNCERTAINTY_ASSIGNED_CONTEXT ( ( #22 ) ) GLOBAL_UNIT_ASSIGNED_CONTEXT ( ( #150, #75, #195 ) ) REPRESENTATION_CONTEXT ( 'NONE', 'WORKASPACE' ) );
#295 = DIRECTION ( 'NONE',  ( -3.498990854706722745E-17, 1.000000000000000000, -0.000000000000000000 ) ) ;
#296 = CARTESIAN_POINT ( 'NONE',  ( -6.123233995736766036E-17, 2.500000000000000000, 0.000000000000000000 ) ) ;
#297 = ADVANCED_FACE ( 'NONE', ( #1 ), #126, .T. ) ;
#298 = DIRECTION ( 'NONE',  ( 0.000000000000000000, 0.000000000000000000, 1.000000000000000000 ) ) ;
#299 =( NAMED_UNIT ( * ) SI_UNIT ( $, .STERADIAN. ) SOLID_ANGLE_UNIT ( ) );
#300 = FACE_OUTER_BOUND ( 'NONE', #291, .T. ) ;
#301 = LENGTH_MEASURE_WITH_UNIT ( LENGTH_MEASURE( 0.02539999999999999897 ), #188 );
#302 = VECTOR ( 'NONE', #209, 39.37007874015748143 ) ;
#303 = EDGE_CURVE ( 'NONE', #169, #9, #112, .T. ) ;
#304 = FACE_OUTER_BOUND ( 'NONE', #28, .T. ) ;
#305 = DIRECTION ( 'NONE',  ( -0.000000000000000000, -1.000000000000000000, -0.000000000000000000 ) ) ;
#306 = LINE ( 'NONE', #57, #257 ) ;
#307 = MECHANICAL_DESIGN_GEOMETRIC_PRESENTATION_REPRESENTATION (  '', ( #219 ), #3 ) ;
#308 = PRESENTATION_STYLE_ASSIGNMENT (( #144 ) ) ;
#309 = UNCERTAINTY_MEASURE_WITH_UNIT (LENGTH_MEASURE( 1.000000000000000082E-05 ), #105, 'distance_accuracy_value', 'NONE');
ENDSEC;
END-ISO-10303-21;
