ISO-10303-21;
HEADER;
FILE_DESCRIPTION (( 'STEP AP214' ),
    '1' );
FILE_NAME ('83816.STEP',
    '2023-07-05T16:11:06',
    ( '' ),
    ( '' ),
    'SwSTEP 2.0',
    'SolidWorks 2023',
    '' );
FILE_SCHEMA (( 'AUTOMOTIVE_DESIGN' ));
ENDSEC;

DATA;
#1 =( LENGTH_UNIT ( ) NAMED_UNIT ( * ) SI_UNIT ( $, .METRE. ) );
#2 = PLANE ( 'NONE',  #14 ) ;
#3 = AXIS2_PLACEMENT_3D ( 'NONE', #189, #191, #265 ) ;
#4 = DIMENSIONAL_EXPONENTS ( 1.000000000000000000, 0.000000000000000000, 0.000000000000000000, 0.000000000000000000, 0.000000000000000000, 0.000000000000000000, 0.000000000000000000 ) ;
#5 =( NAMED_UNIT ( * ) SI_UNIT ( $, .STERADIAN. ) SOLID_ANGLE_UNIT ( ) );
#6 = LENGTH_MEASURE_WITH_UNIT ( LENGTH_MEASURE( 0.02539999999999999897 ), #26 );
#7 = AXIS2_PLACEMENT_3D ( 'NONE', #184, #81, #163 ) ;
#8 = DIRECTION ( 'NONE',  ( 3.148082721615988618E-18, 1.000000000000000000, 0.000000000000000000 ) ) ;
#9 = ORIENTED_EDGE ( 'NONE', *, *, #45, .F. ) ;
#10 = DIRECTION ( 'NONE',  ( -1.216062324813796344E-16, 1.000000000000000000, -0.000000000000000000 ) ) ;
#11 = STYLED_ITEM ( 'NONE', ( #255 ), #196 ) ;
#12 = EDGE_CURVE ( 'NONE', #130, #39, #212, .T. ) ;
#13 = PRESENTATION_STYLE_ASSIGNMENT (( #259 ) ) ;
#14 = AXIS2_PLACEMENT_3D ( 'NONE', #198, #195, #97 ) ;
#15 = FILL_AREA_STYLE_COLOUR ( '', #166 ) ;
#16 = CARTESIAN_POINT ( 'NONE',  ( 2.731847993664263711E-16, 0.2499999999999992506, 0.000000000000000000 ) ) ;
#17 = SURFACE_SIDE_STYLE ('',( #168 ) ) ;
#18 = FILL_AREA_STYLE_COLOUR ( '', #109 ) ;
#19 = EDGE_CURVE ( 'NONE', #39, #147, #172, .T. ) ;
#20 = LINE ( 'NONE', #246, #69 ) ;
#21 = MECHANICAL_DESIGN_GEOMETRIC_PRESENTATION_REPRESENTATION (  '', ( #264 ), #141 ) ;
#22 = AXIS2_PLACEMENT_3D ( 'NONE', #262, #211, #165 ) ;
#23 = ORIENTED_EDGE ( 'NONE', *, *, #68, .F. ) ;
#24 = LENGTH_MEASURE_WITH_UNIT ( LENGTH_MEASURE( 0.02539999999999999897 ), #93 );
#25 = FACE_OUTER_BOUND ( 'NONE', #232, .T. ) ;
#26 =( LENGTH_UNIT ( ) NAMED_UNIT ( * ) SI_UNIT ( $, .METRE. ) );
#27 = FACE_OUTER_BOUND ( 'NONE', #217, .T. ) ;
#28 =( GEOMETRIC_REPRESENTATION_CONTEXT ( 3 ) GLOBAL_UNCERTAINTY_ASSIGNED_CONTEXT ( ( #247 ) ) GLOBAL_UNIT_ASSIGNED_CONTEXT ( ( #126, #250, #5 ) ) REPRESENTATION_CONTEXT ( 'NONE', 'WORKASPACE' ) );
#29 =( NAMED_UNIT ( * ) SI_UNIT ( $, .STERADIAN. ) SOLID_ANGLE_UNIT ( ) );
#30 = EDGE_CURVE ( 'NONE', #127, #147, #20, .T. ) ;
#31 = FILL_AREA_STYLE ('',( #83 ) ) ;
#32 = CLOSED_SHELL ( 'NONE', ( #196, #209, #92 ) ) ;
#33 = FACE_OUTER_BOUND ( 'NONE', #179, .T. ) ;
#34 = EDGE_CURVE ( 'NONE', #228, #169, #128, .T. ) ;
#35 = DIRECTION ( 'NONE',  ( -1.000000000000000000, 0.000000000000000000, 0.000000000000000000 ) ) ;
#36 = CARTESIAN_POINT ( 'NONE',  ( 0.000000000000000000, 0.000000000000000000, 0.000000000000000000 ) ) ;
#37 = COLOUR_RGB ( '',1.000000000000000000, 0.000000000000000000, 0.000000000000000000 ) ;
#38 = CYLINDRICAL_SURFACE ( 'NONE', #190, 0.2499999999999998612 ) ;
#39 = VERTEX_POINT ( 'NONE', #88 ) ;
#40 = DIRECTION ( 'NONE',  ( -1.000000000000000000, 0.000000000000000000, 0.000000000000000000 ) ) ;
#41 = LENGTH_MEASURE_WITH_UNIT ( LENGTH_MEASURE( 0.02539999999999999897 ), #124 );
#42 = CARTESIAN_POINT ( 'NONE',  ( -0.2499999999999999167, 3.000000000000000444, 0.000000000000000000 ) ) ;
#43 = CIRCLE ( 'NONE', #22, 0.2499999999999996947 ) ;
#44 = ORIENTED_EDGE ( 'NONE', *, *, #19, .T. ) ;
#45 = EDGE_CURVE ( 'NONE', #127, #130, #66, .T. ) ;
#46 = FACE_OUTER_BOUND ( 'NONE', #138, .T. ) ;
#47 = PRODUCT_DEFINITION_SHAPE ( 'NONE', 'NONE',  #235 ) ;
#48 = UNCERTAINTY_MEASURE_WITH_UNIT (LENGTH_MEASURE( 1.000000000000000082E-05 ), #95, 'distance_accuracy_value', 'NONE');
#49 = ORIENTED_EDGE ( 'NONE', *, *, #19, .F. ) ;
#50 = AXIS2_PLACEMENT_3D ( 'NONE', #113, #241, #257 ) ;
#51 =( LENGTH_UNIT ( ) NAMED_UNIT ( * ) SI_UNIT ( $, .METRE. ) );
#52 =( NAMED_UNIT ( * ) PLANE_ANGLE_UNIT ( ) SI_UNIT ( $, .RADIAN. ) );
#53 = UNCERTAINTY_MEASURE_WITH_UNIT (LENGTH_MEASURE( 1.000000000000000082E-05 ), #158, 'distance_accuracy_value', 'NONE');
#54 = STYLED_ITEM ( 'NONE', ( #13 ), #180 ) ;
#55 =( CONVERSION_BASED_UNIT ( 'INCH', #136 ) LENGTH_UNIT ( ) NAMED_UNIT ( #174 ) );
#56 = MECHANICAL_DESIGN_GEOMETRIC_PRESENTATION_REPRESENTATION (  '', ( #144 ), #150 ) ;
#57 = DIRECTION ( 'NONE',  ( -1.216062324813796344E-16, 1.000000000000000000, 0.000000000000000000 ) ) ;
#58 = ORIENTED_EDGE ( 'NONE', *, *, #30, .T. ) ;
#59 = ORIENTED_EDGE ( 'NONE', *, *, #175, .T. ) ;
#60 = PLANE ( 'NONE',  #77 ) ;
#61 = AXIS2_PLACEMENT_3D ( 'NONE', #197, #8, #40 ) ;
#62 = DIRECTION ( 'NONE',  ( -1.000000000000000000, 0.000000000000000000, 0.000000000000000000 ) ) ;
#63 = ADVANCED_BREP_SHAPE_REPRESENTATION ( '83816', ( #89, #180, #234 ), #200 ) ;
#64 = EDGE_CURVE ( 'NONE', #169, #228, #199, .T. ) ;
#65 = DIRECTION ( 'NONE',  ( -1.216062324813796344E-16, 1.000000000000000000, -0.000000000000000000 ) ) ;
#66 = CIRCLE ( 'NONE', #177, 0.2499999999999996947 ) ;
#67 = SURFACE_SIDE_STYLE ('',( #210 ) ) ;
#68 = EDGE_CURVE ( 'NONE', #152, #228, #164, .T. ) ;
#69 = VECTOR ( 'NONE', #108, 39.37007874015748143 ) ;
#70 = COLOUR_RGB ( '',1.000000000000000000, 0.000000000000000000, 0.000000000000000000 ) ;
#71 = AXIS2_PLACEMENT_3D ( 'NONE', #112, #65, #208 ) ;
#72 =( CONVERSION_BASED_UNIT ( 'INCH', #123 ) LENGTH_UNIT ( ) NAMED_UNIT ( #4 ) );
#73 = ORIENTED_EDGE ( 'NONE', *, *, #64, .T. ) ;
#74 = FACE_OUTER_BOUND ( 'NONE', #149, .T. ) ;
#75 = MECHANICAL_DESIGN_GEOMETRIC_PRESENTATION_REPRESENTATION (  '', ( #54 ), #28 ) ;
#76 = DIRECTION ( 'NONE',  ( 0.000000000000000000, 0.000000000000000000, 1.000000000000000000 ) ) ;
#77 = AXIS2_PLACEMENT_3D ( 'NONE', #240, #57, #181 ) ;
#78 = DIRECTION ( 'NONE',  ( -1.216062324813796344E-16, 1.000000000000000000, -0.000000000000000000 ) ) ;
#79 = PRODUCT ( '83816', '83816', '', ( #224 ) ) ;
#80 = SURFACE_STYLE_FILL_AREA ( #188 ) ;
#81 = DIRECTION ( 'NONE',  ( -3.148082721615988618E-18, -1.000000000000000000, -0.000000000000000000 ) ) ;
#82 = EDGE_CURVE ( 'NONE', #152, #169, #185, .T. ) ;
#83 = FILL_AREA_STYLE_COLOUR ( '', #121 ) ;
#84 = FILL_AREA_STYLE_COLOUR ( '', #70 ) ;
#85 = ORIENTED_EDGE ( 'NONE', *, *, #175, .F. ) ;
#86 = UNCERTAINTY_MEASURE_WITH_UNIT (LENGTH_MEASURE( 1.000000000000000082E-05 ), #72, 'distance_accuracy_value', 'NONE');
#87 = ORIENTED_EDGE ( 'NONE', *, *, #34, .F. ) ;
#88 = CARTESIAN_POINT ( 'NONE',  ( -0.2500000000000001110, 3.000000000000000444, 0.000000000000000000 ) ) ;
#89 = MANIFOLD_SOLID_BREP ( 'Revolve - Cutting Edge', #32 ) ;
#90 = VECTOR ( 'NONE', #261, 39.37007874015748854 ) ;
#91 = DIRECTION ( 'NONE',  ( 1.000000000000000000, 1.216062324813796344E-16, 0.000000000000000000 ) ) ;
#92 = ADVANCED_FACE ( 'NONE', ( #25 ), #162, .T. ) ;
#93 =( LENGTH_UNIT ( ) NAMED_UNIT ( * ) SI_UNIT ( $, .METRE. ) );
#94 = ORIENTED_EDGE ( 'NONE', *, *, #12, .T. ) ;
#95 =( CONVERSION_BASED_UNIT ( 'INCH', #6 ) LENGTH_UNIT ( ) NAMED_UNIT ( #161 ) );
#96 = DIMENSIONAL_EXPONENTS ( 1.000000000000000000, 0.000000000000000000, 0.000000000000000000, 0.000000000000000000, 0.000000000000000000, 0.000000000000000000, 0.000000000000000000 ) ;
#97 = DIRECTION ( 'NONE',  ( -1.000000000000000000, 3.148082721615988233E-18, 0.000000000000000000 ) ) ;
#98 =( NAMED_UNIT ( * ) PLANE_ANGLE_UNIT ( ) SI_UNIT ( $, .RADIAN. ) );
#99 = DIRECTION ( 'NONE',  ( 1.000000000000000000, 0.000000000000000000, 0.000000000000000000 ) ) ;
#100 = FACE_OUTER_BOUND ( 'NONE', #135, .T. ) ;
#101 = CARTESIAN_POINT ( 'NONE',  ( -6.123233995736772199E-17, 3.000000000000000444, 0.000000000000000000 ) ) ;
#102 = EDGE_LOOP ( 'NONE', ( #171, #119, #94, #125 ) ) ;
#103 = PRESENTATION_LAYER_ASSIGNMENT (  '', '', ( #264 ) ) ;
#104 = DIRECTION ( 'NONE',  ( -0.7071067811865486830, 0.7071067811865462405, 0.000000000000000000 ) ) ;
#105 = DIRECTION ( 'NONE',  ( -1.216062324813796344E-16, 1.000000000000000000, -0.000000000000000000 ) ) ;
#106 = SURFACE_STYLE_USAGE ( .BOTH. , #67 ) ;
#107 = FILL_AREA_STYLE_COLOUR ( '', #37 ) ;
#108 = DIRECTION ( 'NONE',  ( -1.216062324813796344E-16, 1.000000000000000000, -0.000000000000000000 ) ) ;
#109 = COLOUR_RGB ( '',0.7921568627450980005, 0.8196078431372548767, 0.9333333333333333481 ) ;
#110 = SURFACE_STYLE_FILL_AREA ( #132 ) ;
#111 = ADVANCED_FACE ( 'NONE', ( #74 ), #60, .F. ) ;
#112 = CARTESIAN_POINT ( 'NONE',  ( -6.123233995736772199E-17, 3.000000000000000444, 0.000000000000000000 ) ) ;
#113 = CARTESIAN_POINT ( 'NONE',  ( 1.239402646305507261E-16, 39.37007874015748143, 0.000000000000000000 ) ) ;
#114 =( NAMED_UNIT ( * ) SI_UNIT ( $, .STERADIAN. ) SOLID_ANGLE_UNIT ( ) );
#115 = VECTOR ( 'NONE', #206, 39.37007874015748143 ) ;
#116 = EDGE_CURVE ( 'NONE', #147, #39, #160, .T. ) ;
#117 = CARTESIAN_POINT ( 'NONE',  ( 0.2499999999999999722, 3.000000000000000444, 0.000000000000000000 ) ) ;
#118 = MECHANICAL_DESIGN_GEOMETRIC_PRESENTATION_REPRESENTATION (  '', ( #11 ), #203 ) ;
#119 = ORIENTED_EDGE ( 'NONE', *, *, #45, .T. ) ;
#120 = CARTESIAN_POINT ( 'NONE',  ( 0.2499999999999999722, 0.2499999999999992784, 3.061616997868383018E-17 ) ) ;
#121 = COLOUR_RGB ( '',1.000000000000000000, 0.000000000000000000, 0.000000000000000000 ) ;
#122 = SHAPE_DEFINITION_REPRESENTATION ( #47, #63 ) ;
#123 = LENGTH_MEASURE_WITH_UNIT ( LENGTH_MEASURE( 0.02539999999999999897 ), #216 );
#124 =( LENGTH_UNIT ( ) NAMED_UNIT ( * ) SI_UNIT ( $, .METRE. ) );
#125 = ORIENTED_EDGE ( 'NONE', *, *, #116, .F. ) ;
#126 =( CONVERSION_BASED_UNIT ( 'INCH', #41 ) LENGTH_UNIT ( ) NAMED_UNIT ( #140 ) );
#127 = VERTEX_POINT ( 'NONE', #120 ) ;
#128 = CIRCLE ( 'NONE', #3, 0.2499999999999999722 ) ;
#129 = FILL_AREA_STYLE ('',( #18 ) ) ;
#130 = VERTEX_POINT ( 'NONE', #226 ) ;
#131 = PRESENTATION_LAYER_ASSIGNMENT (  '', '', ( #144 ) ) ;
#132 = FILL_AREA_STYLE ('',( #107 ) ) ;
#133 = UNCERTAINTY_MEASURE_WITH_UNIT (LENGTH_MEASURE( 1.000000000000000082E-05 ), #254, 'distance_accuracy_value', 'NONE');
#134 = ADVANCED_FACE ( 'NONE', ( #100 ), #38, .T. ) ;
#135 = EDGE_LOOP ( 'NONE', ( #59, #58, #49, #167 ) ) ;
#136 = LENGTH_MEASURE_WITH_UNIT ( LENGTH_MEASURE( 0.02539999999999999897 ), #51 );
#137 = SURFACE_SIDE_STYLE ('',( #110 ) ) ;
#138 = EDGE_LOOP ( 'NONE', ( #87, #146 ) ) ;
#139 =( NAMED_UNIT ( * ) SI_UNIT ( $, .STERADIAN. ) SOLID_ANGLE_UNIT ( ) );
#140 = DIMENSIONAL_EXPONENTS ( 1.000000000000000000, 0.000000000000000000, 0.000000000000000000, 0.000000000000000000, 0.000000000000000000, 0.000000000000000000, 0.000000000000000000 ) ;
#141 =( GEOMETRIC_REPRESENTATION_CONTEXT ( 3 ) GLOBAL_UNCERTAINTY_ASSIGNED_CONTEXT ( ( #263 ) ) GLOBAL_UNIT_ASSIGNED_CONTEXT ( ( #55, #98, #29 ) ) REPRESENTATION_CONTEXT ( 'NONE', 'WORKASPACE' ) );
#142 = ORIENTED_EDGE ( 'NONE', *, *, #34, .T. ) ;
#143 = PRESENTATION_LAYER_ASSIGNMENT (  '', '', ( #11 ) ) ;
#144 = STYLED_ITEM ( 'NONE', ( #252 ), #92 ) ;
#145 = CARTESIAN_POINT ( 'NONE',  ( 0.2499999999999999722, 0.2499999999999991118, 3.061616997868383018E-17 ) ) ;
#146 = ORIENTED_EDGE ( 'NONE', *, *, #64, .F. ) ;
#147 = VERTEX_POINT ( 'NONE', #186 ) ;
#148 = CARTESIAN_POINT ( 'NONE',  ( -6.123233995736772199E-17, 3.000000000000000444, 0.000000000000000000 ) ) ;
#149 = EDGE_LOOP ( 'NONE', ( #85, #9 ) ) ;
#150 =( GEOMETRIC_REPRESENTATION_CONTEXT ( 3 ) GLOBAL_UNCERTAINTY_ASSIGNED_CONTEXT ( ( #86 ) ) GLOBAL_UNIT_ASSIGNED_CONTEXT ( ( #72, #201, #202 ) ) REPRESENTATION_CONTEXT ( 'NONE', 'WORKASPACE' ) );
#151 = APPLICATION_CONTEXT ( 'automotive_design' ) ;
#152 = VERTEX_POINT ( 'NONE', #205 ) ;
#153 = SURFACE_SIDE_STYLE ('',( #80 ) ) ;
#154 = ORIENTED_EDGE ( 'NONE', *, *, #116, .T. ) ;
#155 = CONICAL_SURFACE ( 'NONE', #61, 39.37007874015762354, 0.7853981633974500554 ) ;
#156 = PRESENTATION_STYLE_ASSIGNMENT (( #249 ) ) ;
#157 = CARTESIAN_POINT ( 'NONE',  ( -0.2499999999999999722, 0.2499999999999991118, 0.000000000000000000 ) ) ;
#158 =( CONVERSION_BASED_UNIT ( 'INCH', #215 ) LENGTH_UNIT ( ) NAMED_UNIT ( #96 ) );
#159 =( NAMED_UNIT ( * ) PLANE_ANGLE_UNIT ( ) SI_UNIT ( $, .RADIAN. ) );
#160 = CIRCLE ( 'NONE', #256, 0.2500000000000000555 ) ;
#161 = DIMENSIONAL_EXPONENTS ( 1.000000000000000000, 0.000000000000000000, 0.000000000000000000, 0.000000000000000000, 0.000000000000000000, 0.000000000000000000, 0.000000000000000000 ) ;
#162 = CONICAL_SURFACE ( 'NONE', #50, 39.37007874015762354, 0.7853981633974500554 ) ;
#163 = DIRECTION ( 'NONE',  ( 1.000000000000000000, 0.000000000000000000, 0.000000000000000000 ) ) ;
#164 = LINE ( 'NONE', #244, #213 ) ;
#165 = DIRECTION ( 'NONE',  ( -1.000000000000000000, -1.365923996832133335E-16, 0.000000000000000000 ) ) ;
#166 = COLOUR_RGB ( '',0.7921568627450980005, 0.8196078431372548767, 0.9333333333333333481 ) ;
#167 = ORIENTED_EDGE ( 'NONE', *, *, #12, .F. ) ;
#168 = SURFACE_STYLE_FILL_AREA ( #214 ) ;
#169 = VERTEX_POINT ( 'NONE', #145 ) ;
#170 = SURFACE_STYLE_USAGE ( .BOTH. , #192 ) ;
#171 = ORIENTED_EDGE ( 'NONE', *, *, #30, .F. ) ;
#172 = CIRCLE ( 'NONE', #71, 0.2500000000000000555 ) ;
#173 = DIRECTION ( 'NONE',  ( 1.216062324813796344E-16, -1.000000000000000000, 0.000000000000000000 ) ) ;
#174 = DIMENSIONAL_EXPONENTS ( 1.000000000000000000, 0.000000000000000000, 0.000000000000000000, 0.000000000000000000, 0.000000000000000000, 0.000000000000000000, 0.000000000000000000 ) ;
#175 = EDGE_CURVE ( 'NONE', #130, #127, #43, .T. ) ;
#176 = APPLICATION_PROTOCOL_DEFINITION ( 'draft international standard', 'automotive_design', 1998, #151 ) ;
#177 = AXIS2_PLACEMENT_3D ( 'NONE', #16, #251, #227 ) ;
#178 = CARTESIAN_POINT ( 'NONE',  ( -6.123233995736772199E-17, 3.000000000000000444, 0.000000000000000000 ) ) ;
#179 = EDGE_LOOP ( 'NONE', ( #44, #154 ) ) ;
#180 = MANIFOLD_SOLID_BREP ( 'Revolve - Tool Body (Pointed)', #187 ) ;
#181 = DIRECTION ( 'NONE',  ( -1.000000000000000000, -1.216062324813796344E-16, 0.000000000000000000 ) ) ;
#182 = CYLINDRICAL_SURFACE ( 'NONE', #237, 0.2499999999999998612 ) ;
#183 = STYLED_ITEM ( 'NONE', ( #221 ), #89 ) ;
#184 = CARTESIAN_POINT ( 'NONE',  ( 7.870206804039943619E-19, 0.2499999999999991118, 0.000000000000000000 ) ) ;
#185 = LINE ( 'NONE', #229, #90 ) ;
#186 = CARTESIAN_POINT ( 'NONE',  ( 0.2499999999999999722, 3.000000000000000444, 3.061616997868383018E-17 ) ) ;
#187 = CLOSED_SHELL ( 'NONE', ( #134, #111, #204, #258 ) ) ;
#188 = FILL_AREA_STYLE ('',( #15 ) ) ;
#189 = CARTESIAN_POINT ( 'NONE',  ( 7.870206804039943619E-19, 0.2499999999999991118, 0.000000000000000000 ) ) ;
#190 = AXIS2_PLACEMENT_3D ( 'NONE', #178, #105, #62 ) ;
#191 = DIRECTION ( 'NONE',  ( -3.148082721615988618E-18, -1.000000000000000000, -0.000000000000000000 ) ) ;
#192 = SURFACE_SIDE_STYLE ('',( #222 ) ) ;
#193 =( NAMED_UNIT ( * ) SI_UNIT ( $, .STERADIAN. ) SOLID_ANGLE_UNIT ( ) );
#194 = PRESENTATION_LAYER_ASSIGNMENT (  '', '', ( #54 ) ) ;
#195 = DIRECTION ( 'NONE',  ( 3.148082721615988233E-18, 1.000000000000000000, 0.000000000000000000 ) ) ;
#196 = ADVANCED_FACE ( 'NONE', ( #27 ), #155, .T. ) ;
#197 = CARTESIAN_POINT ( 'NONE',  ( 1.239402646305507261E-16, 39.37007874015748143, 0.000000000000000000 ) ) ;
#198 = CARTESIAN_POINT ( 'NONE',  ( 7.870206804039943619E-19, 0.2499999999999991118, 0.000000000000000000 ) ) ;
#199 = CIRCLE ( 'NONE', #7, 0.2499999999999999722 ) ;
#200 =( GEOMETRIC_REPRESENTATION_CONTEXT ( 3 ) GLOBAL_UNCERTAINTY_ASSIGNED_CONTEXT ( ( #48 ) ) GLOBAL_UNIT_ASSIGNED_CONTEXT ( ( #95, #159, #139 ) ) REPRESENTATION_CONTEXT ( 'NONE', 'WORKASPACE' ) );
#201 =( NAMED_UNIT ( * ) PLANE_ANGLE_UNIT ( ) SI_UNIT ( $, .RADIAN. ) );
#202 =( NAMED_UNIT ( * ) SI_UNIT ( $, .STERADIAN. ) SOLID_ANGLE_UNIT ( ) );
#203 =( GEOMETRIC_REPRESENTATION_CONTEXT ( 3 ) GLOBAL_UNCERTAINTY_ASSIGNED_CONTEXT ( ( #133 ) ) GLOBAL_UNIT_ASSIGNED_CONTEXT ( ( #254, #52, #193 ) ) REPRESENTATION_CONTEXT ( 'NONE', 'WORKASPACE' ) );
#204 = ADVANCED_FACE ( 'NONE', ( #225 ), #182, .T. ) ;
#205 = CARTESIAN_POINT ( 'NONE',  ( 0.000000000000000000, 0.000000000000000000, 0.000000000000000000 ) ) ;
#206 = DIRECTION ( 'NONE',  ( -1.216062324813796344E-16, 1.000000000000000000, -0.000000000000000000 ) ) ;
#207 =( GEOMETRIC_REPRESENTATION_CONTEXT ( 3 ) GLOBAL_UNCERTAINTY_ASSIGNED_CONTEXT ( ( #53 ) ) GLOBAL_UNIT_ASSIGNED_CONTEXT ( ( #158, #236, #114 ) ) REPRESENTATION_CONTEXT ( 'NONE', 'WORKASPACE' ) );
#208 = DIRECTION ( 'NONE',  ( -1.000000000000000000, 0.000000000000000000, 0.000000000000000000 ) ) ;
#209 = ADVANCED_FACE ( 'NONE', ( #46 ), #2, .T. ) ;
#210 = SURFACE_STYLE_FILL_AREA ( #129 ) ;
#211 = DIRECTION ( 'NONE',  ( -1.216062324813796344E-16, 1.000000000000000000, -0.000000000000000000 ) ) ;
#212 = LINE ( 'NONE', #42, #115 ) ;
#213 = VECTOR ( 'NONE', #104, 39.37007874015748854 ) ;
#214 = FILL_AREA_STYLE ('',( #84 ) ) ;
#215 = LENGTH_MEASURE_WITH_UNIT ( LENGTH_MEASURE( 0.02539999999999999897 ), #1 );
#216 =( LENGTH_UNIT ( ) NAMED_UNIT ( * ) SI_UNIT ( $, .METRE. ) );
#217 = EDGE_LOOP ( 'NONE', ( #23, #260, #73 ) ) ;
#218 = PLANE ( 'NONE',  #219 ) ;
#219 = AXIS2_PLACEMENT_3D ( 'NONE', #117, #173, #91 ) ;
#220 = PRODUCT_DEFINITION_FORMATION_WITH_SPECIFIED_SOURCE ( 'ANY', '', #79, .NOT_KNOWN. ) ;
#221 = PRESENTATION_STYLE_ASSIGNMENT (( #106 ) ) ;
#222 = SURFACE_STYLE_FILL_AREA ( #31 ) ;
#223 = PRESENTATION_LAYER_ASSIGNMENT (  '', '', ( #183 ) ) ;
#224 = PRODUCT_CONTEXT ( 'NONE', #245, 'mechanical' ) ;
#225 = FACE_OUTER_BOUND ( 'NONE', #102, .T. ) ;
#226 = CARTESIAN_POINT ( 'NONE',  ( -0.2499999999999994171, 0.2499999999999992228, 0.000000000000000000 ) ) ;
#227 = DIRECTION ( 'NONE',  ( -1.000000000000000000, -1.365923996832133335E-16, 0.000000000000000000 ) ) ;
#228 = VERTEX_POINT ( 'NONE', #157 ) ;
#229 = CARTESIAN_POINT ( 'NONE',  ( 0.000000000000000000, 0.000000000000000000, 0.000000000000000000 ) ) ;
#230 = PRODUCT_DEFINITION_CONTEXT ( 'detailed design', #151, 'design' ) ;
#231 = ORIENTED_EDGE ( 'NONE', *, *, #68, .T. ) ;
#232 = EDGE_LOOP ( 'NONE', ( #248, #231, #142 ) ) ;
#233 = SURFACE_STYLE_USAGE ( .BOTH. , #137 ) ;
#234 = AXIS2_PLACEMENT_3D ( 'NONE', #36, #76, #99 ) ;
#235 = PRODUCT_DEFINITION ( 'UNKNOWN', '', #220, #230 ) ;
#236 =( NAMED_UNIT ( * ) PLANE_ANGLE_UNIT ( ) SI_UNIT ( $, .RADIAN. ) );
#237 = AXIS2_PLACEMENT_3D ( 'NONE', #148, #78, #243 ) ;
#238 = APPLICATION_PROTOCOL_DEFINITION ( 'draft international standard', 'automotive_design', 1998, #245 ) ;
#239 = DIMENSIONAL_EXPONENTS ( 1.000000000000000000, 0.000000000000000000, 0.000000000000000000, 0.000000000000000000, 0.000000000000000000, 0.000000000000000000, 0.000000000000000000 ) ;
#240 = CARTESIAN_POINT ( 'NONE',  ( 2.731847993664263218E-16, 0.2499999999999991118, 0.000000000000000000 ) ) ;
#241 = DIRECTION ( 'NONE',  ( 3.148082721615988618E-18, 1.000000000000000000, 0.000000000000000000 ) ) ;
#242 = MECHANICAL_DESIGN_GEOMETRIC_PRESENTATION_REPRESENTATION (  '', ( #183 ), #207 ) ;
#243 = DIRECTION ( 'NONE',  ( -1.000000000000000000, 0.000000000000000000, 0.000000000000000000 ) ) ;
#244 = CARTESIAN_POINT ( 'NONE',  ( 0.000000000000000000, 0.000000000000000000, 0.000000000000000000 ) ) ;
#245 = APPLICATION_CONTEXT ( 'automotive_design' ) ;
#246 = CARTESIAN_POINT ( 'NONE',  ( 0.2499999999999998057, 3.000000000000000444, 3.061616997868381785E-17 ) ) ;
#247 = UNCERTAINTY_MEASURE_WITH_UNIT (LENGTH_MEASURE( 1.000000000000000082E-05 ), #126, 'distance_accuracy_value', 'NONE');
#248 = ORIENTED_EDGE ( 'NONE', *, *, #82, .F. ) ;
#249 = SURFACE_STYLE_USAGE ( .BOTH. , #17 ) ;
#250 =( NAMED_UNIT ( * ) PLANE_ANGLE_UNIT ( ) SI_UNIT ( $, .RADIAN. ) );
#251 = DIRECTION ( 'NONE',  ( -1.216062324813796344E-16, 1.000000000000000000, -0.000000000000000000 ) ) ;
#252 = PRESENTATION_STYLE_ASSIGNMENT (( #170 ) ) ;
#253 = PRODUCT_RELATED_PRODUCT_CATEGORY ( 'part', '', ( #79 ) ) ;
#254 =( CONVERSION_BASED_UNIT ( 'INCH', #24 ) LENGTH_UNIT ( ) NAMED_UNIT ( #239 ) );
#255 = PRESENTATION_STYLE_ASSIGNMENT (( #233 ) ) ;
#256 = AXIS2_PLACEMENT_3D ( 'NONE', #101, #10, #35 ) ;
#257 = DIRECTION ( 'NONE',  ( -1.000000000000000000, 0.000000000000000000, 0.000000000000000000 ) ) ;
#258 = ADVANCED_FACE ( 'NONE', ( #33 ), #218, .F. ) ;
#259 = SURFACE_STYLE_USAGE ( .BOTH. , #153 ) ;
#260 = ORIENTED_EDGE ( 'NONE', *, *, #82, .T. ) ;
#261 = DIRECTION ( 'NONE',  ( 0.7071067811865486830, 0.7071067811865462405, 8.659560562354947649E-17 ) ) ;
#262 = CARTESIAN_POINT ( 'NONE',  ( 2.731847993664263711E-16, 0.2499999999999992506, 0.000000000000000000 ) ) ;
#263 = UNCERTAINTY_MEASURE_WITH_UNIT (LENGTH_MEASURE( 1.000000000000000082E-05 ), #55, 'distance_accuracy_value', 'NONE');
#264 = STYLED_ITEM ( 'NONE', ( #156 ), #209 ) ;
#265 = DIRECTION ( 'NONE',  ( 1.000000000000000000, 0.000000000000000000, 0.000000000000000000 ) ) ;
ENDSEC;
END-ISO-10303-21;
