ISO-10303-21;
HEADER;
FILE_DESCRIPTION (( 'STEP AP214' ),
    '1' );
FILE_NAME ('Micro_BMSM-005-2X.STEP',
    '2021-09-03T15:29:17',
    ( '' ),
    ( '' ),
    'SwSTEP 2.0',
    'SolidWorks 2020',
    '' );
FILE_SCHEMA (( 'AUTOMOTIVE_DESIGN' ));
ENDSEC;

DATA;
#1 = ORIENTED_EDGE ( 'NONE', *, *, #14, .F. ) ;
#2 = DIRECTION ( 'NONE',  ( 1.000000000000000000, 0.0000000000000000000, 0.0000000000000000000 ) ) ;
#3 = EDGE_CURVE ( 'NONE', #76, #53, #114, .T. ) ;
#4 = CYLINDRICAL_SURFACE ( 'NONE', #88, 0.05905500000000000332 ) ;
#5 = ORIENTED_EDGE ( 'NONE', *, *, #177, .F. ) ;
#6 = FACE_OUTER_BOUND ( 'NONE', #122, .T. ) ;
#7 = DIRECTION ( 'NONE',  ( -0.1736481776669311916, 2.126576849575783316E-17, 0.9848077530122080203 ) ) ;
#8 = PRODUCT_DEFINITION_SHAPE ( 'NONE', 'NONE',  #111 ) ;
#9 = DIRECTION ( 'NONE',  ( -1.000000000000000000, 0.0000000000000000000, 0.0000000000000000000 ) ) ;
#10 = DIRECTION ( 'NONE',  ( 1.224646799147353207E-16, 0.0000000000000000000, 1.000000000000000000 ) ) ;
#11 = CARTESIAN_POINT ( 'NONE',  ( 0.0000000000000000000, 0.0000000000000000000, 1.496062999999999921 ) ) ;
#12 = PRODUCT_CONTEXT ( 'NONE', #263, 'mechanical' ) ;
#13 = DIRECTION ( 'NONE',  ( -1.000000000000000000, 1.224646799147352961E-16, 0.0000000000000000000 ) ) ;
#14 = EDGE_CURVE ( 'NONE', #161, #64, #42, .T. ) ;
#15 = DIRECTION ( 'NONE',  ( 1.224646799147353207E-16, 0.0000000000000000000, 1.000000000000000000 ) ) ;
#16 = ADVANCED_FACE ( 'NONE', ( #320 ), #275, .T. ) ;
#17 = FILL_AREA_STYLE_COLOUR ( '', #271 ) ;
#18 = ORIENTED_EDGE ( 'NONE', *, *, #234, .F. ) ;
#19 = STYLED_ITEM ( 'NONE', ( #323 ), #26 ) ;
#20 = COLOUR_RGB ( '',0.7921568627450980005, 0.8196078431372548767, 0.9333333333333333481 ) ;
#21 = ORIENTED_EDGE ( 'NONE', *, *, #91, .T. ) ;
#22 = VECTOR ( 'NONE', #316, 39.37007874015748143 ) ;
#23 = ORIENTED_EDGE ( 'NONE', *, *, #173, .F. ) ;
#24 = EDGE_CURVE ( 'NONE', #53, #76, #94, .T. ) ;
#25 = DIRECTION ( 'NONE',  ( -0.0000000000000000000, -0.0000000000000000000, -1.000000000000000000 ) ) ;
#26 = MANIFOLD_SOLID_BREP ( 'Fillet1', #220 ) ;
#27 = ORIENTED_EDGE ( 'NONE', *, *, #14, .T. ) ;
#28 = CARTESIAN_POINT ( 'NONE',  ( 0.0000000000000000000, 0.0000000000000000000, 1.496062999999999921 ) ) ;
#29 = ORIENTED_EDGE ( 'NONE', *, *, #24, .T. ) ;
#30 =( LENGTH_UNIT ( ) NAMED_UNIT ( * ) SI_UNIT ( $, .METRE. ) );
#31 = EDGE_LOOP ( 'NONE', ( #312, #27, #21, #276 ) ) ;
#32 = CIRCLE ( 'NONE', #273, 0.04405499999999973326 ) ;
#33 =( CONVERSION_BASED_UNIT ( 'INCH', #269 ) LENGTH_UNIT ( ) NAMED_UNIT ( #317 ) );
#34 = CARTESIAN_POINT ( 'NONE',  ( 0.04405499999999973326, 5.395181473643630390E-18, 1.496062999999999921 ) ) ;
#35 = CARTESIAN_POINT ( 'NONE',  ( 3.857147558594504174E-18, 0.0000000000000000000, 0.03149600000000000316 ) ) ;
#36 = DIRECTION ( 'NONE',  ( -1.224646799147353207E-16, -0.0000000000000000000, -1.000000000000000000 ) ) ;
#37 = CARTESIAN_POINT ( 'NONE',  ( 1.204153253448721358E-18, 0.0000000000000000000, 0.009832657499999999592 ) ) ;
#38 = CARTESIAN_POINT ( 'NONE',  ( -0.009832657499999992654, 1.204153253448721165E-18, 0.03149600000000000316 ) ) ;
#39 = AXIS2_PLACEMENT_3D ( 'NONE', #37, #80, #303 ) ;
#40 = DIRECTION ( 'NONE',  ( -1.224646799147353207E-16, -0.0000000000000000000, -1.000000000000000000 ) ) ;
#41 = DIRECTION ( 'NONE',  ( 0.0000000000000000000, 0.0000000000000000000, 1.000000000000000000 ) ) ;
#42 = LINE ( 'NONE', #38, #230 ) ;
#43 = CARTESIAN_POINT ( 'NONE',  ( 0.009832657500000001327, 1.204153253448721358E-18, 0.009832657499999996123 ) ) ;
#44 = AXIS2_PLACEMENT_3D ( 'NONE', #78, #300, #178 ) ;
#45 = FACE_OUTER_BOUND ( 'NONE', #186, .T. ) ;
#46 = DIRECTION ( 'NONE',  ( 1.000000000000000000, 0.0000000000000000000, 0.0000000000000000000 ) ) ;
#47 = EDGE_LOOP ( 'NONE', ( #127, #82, #164, #23 ) ) ;
#48 = DIMENSIONAL_EXPONENTS ( 1.000000000000000000, 0.0000000000000000000, 0.0000000000000000000, 0.0000000000000000000, 0.0000000000000000000, 0.0000000000000000000, 0.0000000000000000000 ) ;
#49 = ORIENTED_EDGE ( 'NONE', *, *, #322, .T. ) ;
#50 = AXIS2_PLACEMENT_3D ( 'NONE', #11, #249, #225 ) ;
#51 = CARTESIAN_POINT ( 'NONE',  ( 0.0000000000000000000, 0.0000000000000000000, 1.496062999999999921 ) ) ;
#52 = APPLICATION_CONTEXT ( 'automotive_design' ) ;
#53 = VERTEX_POINT ( 'NONE', #210 ) ;
#54 = ORIENTED_EDGE ( 'NONE', *, *, #150, .T. ) ;
#55 = AXIS2_PLACEMENT_3D ( 'NONE', #192, #267, #13 ) ;
#56 = ORIENTED_EDGE ( 'NONE', *, *, #24, .F. ) ;
#57 = VERTEX_POINT ( 'NONE', #291 ) ;
#58 = DIRECTION ( 'NONE',  ( -1.224646799147353207E-16, -0.0000000000000000000, -1.000000000000000000 ) ) ;
#59 = ORIENTED_EDGE ( 'NONE', *, *, #71, .F. ) ;
#60 = DIRECTION ( 'NONE',  ( -1.224646799147353207E-16, -0.0000000000000000000, -1.000000000000000000 ) ) ;
#61 = SURFACE_STYLE_FILL_AREA ( #283 ) ;
#62 = ORIENTED_EDGE ( 'NONE', *, *, #135, .T. ) ;
#63 = AXIS2_PLACEMENT_3D ( 'NONE', #74, #40, #98 ) ;
#64 = VERTEX_POINT ( 'NONE', #139 ) ;
#65 = ADVANCED_BREP_SHAPE_REPRESENTATION ( 'Micro_BMSM-005-2X', ( #26, #163 ), #175 ) ;
#66 = DIRECTION ( 'NONE',  ( 0.0000000000000000000, 1.000000000000000000, 0.0000000000000000000 ) ) ;
#67 = CARTESIAN_POINT ( 'NONE',  ( 0.009832657499999999592, 1.204153253448721358E-18, -1.204153253448721358E-18 ) ) ;
#68 = AXIS2_PLACEMENT_3D ( 'NONE', #143, #197, #46 ) ;
#69 = AXIS2_PLACEMENT_3D ( 'NONE', #290, #107, #315 ) ;
#70 = DIRECTION ( 'NONE',  ( 1.000000000000000000, 0.0000000000000000000, 0.0000000000000000000 ) ) ;
#71 = EDGE_CURVE ( 'NONE', #57, #53, #167, .T. ) ;
#72 = CARTESIAN_POINT ( 'NONE',  ( -0.009832657499999996123, 0.0000000000000000000, 0.009832657500000001327 ) ) ;
#73 = PRODUCT_RELATED_PRODUCT_CATEGORY ( 'part', '', ( #206 ) ) ;
#74 = CARTESIAN_POINT ( 'NONE',  ( 0.0000000000000000000, 0.0000000000000000000, 0.0000000000000000000 ) ) ;
#75 = DIRECTION ( 'NONE',  ( 1.000000000000000000, 0.0000000000000000000, 0.0000000000000000000 ) ) ;
#76 = VERTEX_POINT ( 'NONE', #83 ) ;
#77 = CIRCLE ( 'NONE', #232, 0.009832657499999999592 ) ;
#78 = CARTESIAN_POINT ( 'NONE',  ( 0.0000000000000000000, 0.0000000000000000000, 1.496062999999999921 ) ) ;
#79 = ORIENTED_EDGE ( 'NONE', *, *, #284, .T. ) ;
#80 = DIRECTION ( 'NONE',  ( 1.224646799147353207E-16, 0.0000000000000000000, 1.000000000000000000 ) ) ;
#81 = SURFACE_STYLE_USAGE ( .BOTH. , #243 ) ;
#82 = ORIENTED_EDGE ( 'NONE', *, *, #71, .T. ) ;
#83 = CARTESIAN_POINT ( 'NONE',  ( -0.05905500000000000332, 0.0000000000000000000, 1.481062999999999574 ) ) ;
#84 = SURFACE_SIDE_STYLE ('',( #308 ) ) ;
#85 = SPHERICAL_SURFACE ( 'NONE', #298, 0.009832657499999999592 ) ;
#86 = ADVANCED_FACE ( 'NONE', ( #282 ), #85, .T. ) ;
#87 = AXIS2_PLACEMENT_3D ( 'NONE', #258, #131, #236 ) ;
#88 = AXIS2_PLACEMENT_3D ( 'NONE', #216, #288, #9 ) ;
#89 = DIRECTION ( 'NONE',  ( 1.000000000000000000, 0.0000000000000000000, 0.0000000000000000000 ) ) ;
#90 = DIRECTION ( 'NONE',  ( 1.000000000000000000, 0.0000000000000000000, 0.0000000000000000000 ) ) ;
#91 = EDGE_CURVE ( 'NONE', #64, #155, #202, .T. ) ;
#92 = CARTESIAN_POINT ( 'NONE',  ( 0.05905500000000004496, 7.232151672364700045E-18, 0.3106497761392446599 ) ) ;
#93 = UNCERTAINTY_MEASURE_WITH_UNIT (LENGTH_MEASURE( 1.000000000000000082E-05 ), #140, 'distance_accuracy_value', 'NONE');
#94 = CIRCLE ( 'NONE', #68, 0.05905500000000000332 ) ;
#95 = EDGE_CURVE ( 'NONE', #278, #180, #190, .T. ) ;
#96 = CIRCLE ( 'NONE', #102, 0.009832657499999996123 ) ;
#97 = VECTOR ( 'NONE', #25, 39.37007874015748143 ) ;
#98 = DIRECTION ( 'NONE',  ( -1.000000000000000000, 0.0000000000000000000, 1.224646799147352961E-16 ) ) ;
#99 = LINE ( 'NONE', #268, #174 ) ;
#100 = DIRECTION ( 'NONE',  ( -0.0000000000000000000, -0.0000000000000000000, -1.000000000000000000 ) ) ;
#101 = VECTOR ( 'NONE', #36, 39.37007874015748143 ) ;
#102 = AXIS2_PLACEMENT_3D ( 'NONE', #35, #58, #240 ) ;
#103 = ADVANCED_FACE ( 'NONE', ( #176 ), #113, .T. ) ;
#104 = AXIS2_PLACEMENT_3D ( 'NONE', #170, #15, #119 ) ;
#105 = ORIENTED_EDGE ( 'NONE', *, *, #135, .F. ) ;
#106 = AXIS2_PLACEMENT_3D ( 'NONE', #158, #185, #2 ) ;
#107 = DIRECTION ( 'NONE',  ( 1.224646799147353207E-16, 0.0000000000000000000, 1.000000000000000000 ) ) ;
#108 = EDGE_LOOP ( 'NONE', ( #159, #203, #213 ) ) ;
#109 = CARTESIAN_POINT ( 'NONE',  ( 0.05905500000000000332, 7.232151672364695422E-18, 1.496062999999999921 ) ) ;
#110 = SPHERICAL_SURFACE ( 'NONE', #106, 0.009832657499999999592 ) ;
#111 = PRODUCT_DEFINITION ( 'UNKNOWN', '', #229, #147 ) ;
#112 = DIRECTION ( 'NONE',  ( 0.0000000000000000000, 0.0000000000000000000, 1.000000000000000000 ) ) ;
#113 = CONICAL_SURFACE ( 'NONE', #50, 0.04405499999999973326, 0.7853981633974491672 ) ;
#114 = CIRCLE ( 'NONE', #256, 0.05905500000000000332 ) ;
#115 = DIRECTION ( 'NONE',  ( -1.224646799147353207E-16, -0.0000000000000000000, -1.000000000000000000 ) ) ;
#116 =( NAMED_UNIT ( * ) SI_UNIT ( $, .STERADIAN. ) SOLID_ANGLE_UNIT ( ) );
#117 = CARTESIAN_POINT ( 'NONE',  ( 0.0000000000000000000, 0.0000000000000000000, 1.496062999999999921 ) ) ;
#118 = STYLED_ITEM ( 'NONE', ( #241 ), #65 ) ;
#119 = DIRECTION ( 'NONE',  ( 1.000000000000000000, 0.0000000000000000000, 0.0000000000000000000 ) ) ;
#120 = ADVANCED_FACE ( 'NONE', ( #248 ), #247, .T. ) ;
#121 = FILL_AREA_STYLE ('',( #17 ) ) ;
#122 = EDGE_LOOP ( 'NONE', ( #285, #280, #260, #105 ) ) ;
#123 = ADVANCED_FACE ( 'NONE', ( #145 ), #319, .T. ) ;
#124 = VECTOR ( 'NONE', #214, 39.37007874015748143 ) ;
#125 =( GEOMETRIC_REPRESENTATION_CONTEXT ( 3 ) GLOBAL_UNCERTAINTY_ASSIGNED_CONTEXT ( ( #179 ) ) GLOBAL_UNIT_ASSIGNED_CONTEXT ( ( #227, #146, #116 ) ) REPRESENTATION_CONTEXT ( 'NONE', 'WORKASPACE' ) );
#126 = EDGE_LOOP ( 'NONE', ( #59, #238, #296, #56 ) ) ;
#127 = ORIENTED_EDGE ( 'NONE', *, *, #233, .F. ) ;
#128 = VERTEX_POINT ( 'NONE', #221 ) ;
#129 = APPLICATION_PROTOCOL_DEFINITION ( 'draft international standard', 'automotive_design', 1998, #263 ) ;
#130 = ORIENTED_EDGE ( 'NONE', *, *, #152, .T. ) ;
#131 = DIRECTION ( 'NONE',  ( -1.224646799147353207E-16, -0.0000000000000000000, -1.000000000000000000 ) ) ;
#132 = FACE_OUTER_BOUND ( 'NONE', #277, .T. ) ;
#133 = EDGE_LOOP ( 'NONE', ( #255, #156, #79, #257 ) ) ;
#134 = EDGE_LOOP ( 'NONE', ( #205, #54, #201, #235 ) ) ;
#135 = EDGE_CURVE ( 'NONE', #76, #64, #99, .T. ) ;
#136 = CARTESIAN_POINT ( 'NONE',  ( 1.806229880173082037E-18, 0.0000000000000000000, 0.0000000000000000000 ) ) ;
#137 = DIRECTION ( 'NONE',  ( 1.000000000000000000, 0.0000000000000000000, 0.0000000000000000000 ) ) ;
#138 = LENGTH_MEASURE_WITH_UNIT ( LENGTH_MEASURE( 0.02539999999999999897 ), #30 );
#139 = CARTESIAN_POINT ( 'NONE',  ( -0.05905499999999996863, 0.0000000000000000000, 0.3106497761392446599 ) ) ;
#140 =( CONVERSION_BASED_UNIT ( 'INCH', #138 ) LENGTH_UNIT ( ) NAMED_UNIT ( #171 ) );
#141 = MECHANICAL_DESIGN_GEOMETRIC_PRESENTATION_REPRESENTATION (  '', ( #118 ), #125 ) ;
#142 = LINE ( 'NONE', #226, #22 ) ;
#143 = CARTESIAN_POINT ( 'NONE',  ( 0.0000000000000000000, 0.0000000000000000000, 1.481062999999999574 ) ) ;
#144 = LINE ( 'NONE', #246, #239 ) ;
#145 = FACE_OUTER_BOUND ( 'NONE', #134, .T. ) ;
#146 =( NAMED_UNIT ( * ) PLANE_ANGLE_UNIT ( ) SI_UNIT ( $, .RADIAN. ) );
#147 = PRODUCT_DEFINITION_CONTEXT ( 'detailed design', #52, 'design' ) ;
#148 = AXIS2_PLACEMENT_3D ( 'NONE', #151, #10, #70 ) ;
#149 = APPLICATION_PROTOCOL_DEFINITION ( 'draft international standard', 'automotive_design', 1998, #52 ) ;
#150 = EDGE_CURVE ( 'NONE', #278, #161, #286, .T. ) ;
#151 = CARTESIAN_POINT ( 'NONE',  ( 3.857147558594504174E-18, 0.0000000000000000000, 0.03149600000000000316 ) ) ;
#152 = EDGE_CURVE ( 'NONE', #278, #155, #142, .T. ) ;
#153 =( GEOMETRIC_REPRESENTATION_CONTEXT ( 3 ) GLOBAL_UNCERTAINTY_ASSIGNED_CONTEXT ( ( #199 ) ) GLOBAL_UNIT_ASSIGNED_CONTEXT ( ( #33, #261, #306 ) ) REPRESENTATION_CONTEXT ( 'NONE', 'WORKASPACE' ) );
#154 = PRESENTATION_LAYER_ASSIGNMENT (  '', '', ( #118 ) ) ;
#155 = VERTEX_POINT ( 'NONE', #92 ) ;
#156 = ORIENTED_EDGE ( 'NONE', *, *, #95, .T. ) ;
#157 = AXIS2_PLACEMENT_3D ( 'NONE', #266, #172, #196 ) ;
#158 = CARTESIAN_POINT ( 'NONE',  ( 1.204153253448721358E-18, 0.0000000000000000000, 0.009832657499999999592 ) ) ;
#159 = ORIENTED_EDGE ( 'NONE', *, *, #322, .F. ) ;
#160 = DIRECTION ( 'NONE',  ( 1.000000000000000000, 0.0000000000000000000, 0.0000000000000000000 ) ) ;
#161 = VERTEX_POINT ( 'NONE', #198 ) ;
#162 = LINE ( 'NONE', #109, #97 ) ;
#163 = AXIS2_PLACEMENT_3D ( 'NONE', #195, #41, #193 ) ;
#164 = ORIENTED_EDGE ( 'NONE', *, *, #3, .F. ) ;
#165 = LENGTH_MEASURE_WITH_UNIT ( LENGTH_MEASURE( 0.02539999999999999897 ), #310 );
#166 = ORIENTED_EDGE ( 'NONE', *, *, #182, .T. ) ;
#167 = LINE ( 'NONE', #34, #124 ) ;
#168 = AXIS2_PLACEMENT_3D ( 'NONE', #117, #294, #265 ) ;
#169 = FACE_OUTER_BOUND ( 'NONE', #47, .T. ) ;
#170 = CARTESIAN_POINT ( 'NONE',  ( 3.857147558594504174E-18, 0.0000000000000000000, 0.03149600000000000316 ) ) ;
#171 = DIMENSIONAL_EXPONENTS ( 1.000000000000000000, 0.0000000000000000000, 0.0000000000000000000, 0.0000000000000000000, 0.0000000000000000000, 0.0000000000000000000, 0.0000000000000000000 ) ;
#172 = DIRECTION ( 'NONE',  ( -1.224646799147353207E-16, -0.0000000000000000000, -1.000000000000000000 ) ) ;
#173 = EDGE_CURVE ( 'NONE', #128, #76, #295, .T. ) ;
#174 = VECTOR ( 'NONE', #100, 39.37007874015748143 ) ;
#175 =( GEOMETRIC_REPRESENTATION_CONTEXT ( 3 ) GLOBAL_UNCERTAINTY_ASSIGNED_CONTEXT ( ( #93 ) ) GLOBAL_UNIT_ASSIGNED_CONTEXT ( ( #140, #188, #301 ) ) REPRESENTATION_CONTEXT ( 'NONE', 'WORKASPACE' ) );
#176 = FACE_OUTER_BOUND ( 'NONE', #126, .T. ) ;
#177 = EDGE_CURVE ( 'NONE', #304, #212, #200, .T. ) ;
#178 = DIRECTION ( 'NONE',  ( -1.000000000000000000, 0.0000000000000000000, 0.0000000000000000000 ) ) ;
#179 = UNCERTAINTY_MEASURE_WITH_UNIT (LENGTH_MEASURE( 1.000000000000000082E-05 ), #227, 'distance_accuracy_value', 'NONE');
#180 = VERTEX_POINT ( 'NONE', #43 ) ;
#181 = ORIENTED_EDGE ( 'NONE', *, *, #309, .F. ) ;
#182 = EDGE_CURVE ( 'NONE', #155, #64, #302, .T. ) ;
#183 = DIRECTION ( 'NONE',  ( 0.0000000000000000000, 0.0000000000000000000, -1.000000000000000000 ) ) ;
#184 = ADVANCED_FACE ( 'NONE', ( #45 ), #251, .T. ) ;
#185 = DIRECTION ( 'NONE',  ( 0.0000000000000000000, 1.000000000000000000, 0.0000000000000000000 ) ) ;
#186 = EDGE_LOOP ( 'NONE', ( #1, #228, #130, #166 ) ) ;
#187 = CARTESIAN_POINT ( 'NONE',  ( 1.204153253448721358E-18, 0.0000000000000000000, 0.009832657499999999592 ) ) ;
#188 =( NAMED_UNIT ( * ) PLANE_ANGLE_UNIT ( ) SI_UNIT ( $, .RADIAN. ) );
#189 = CIRCLE ( 'NONE', #224, 0.04405499999999973326 ) ;
#190 = LINE ( 'NONE', #67, #101 ) ;
#191 = DIRECTION ( 'NONE',  ( 1.000000000000000000, 0.0000000000000000000, -0.0000000000000000000 ) ) ;
#192 = CARTESIAN_POINT ( 'NONE',  ( 1.204153253448721358E-18, 0.0000000000000000000, 0.009832657499999999592 ) ) ;
#193 = DIRECTION ( 'NONE',  ( 1.000000000000000000, 0.0000000000000000000, 0.0000000000000000000 ) ) ;
#194 = CARTESIAN_POINT ( 'NONE',  ( 0.0000000000000000000, 0.0000000000000000000, 1.496062999999999921 ) ) ;
#195 = CARTESIAN_POINT ( 'NONE',  ( 0.0000000000000000000, 0.0000000000000000000, 0.0000000000000000000 ) ) ;
#196 = DIRECTION ( 'NONE',  ( -1.000000000000000000, 0.0000000000000000000, 0.0000000000000000000 ) ) ;
#197 = DIRECTION ( 'NONE',  ( 0.0000000000000000000, 0.0000000000000000000, -1.000000000000000000 ) ) ;
#198 = CARTESIAN_POINT ( 'NONE',  ( -0.009832657499999992654, 4.218152462906708390E-18, 0.03149600000000000316 ) ) ;
#199 = UNCERTAINTY_MEASURE_WITH_UNIT (LENGTH_MEASURE( 1.000000000000000082E-05 ), #33, 'distance_accuracy_value', 'NONE');
#200 = CIRCLE ( 'NONE', #55, 0.009832657499999999592 ) ;
#201 = ORIENTED_EDGE ( 'NONE', *, *, #231, .T. ) ;
#202 = CIRCLE ( 'NONE', #313, 0.05905500000000000332 ) ;
#203 = ORIENTED_EDGE ( 'NONE', *, *, #177, .T. ) ;
#204 = DIRECTION ( 'NONE',  ( 0.0000000000000000000, -1.000000000000000000, 0.0000000000000000000 ) ) ;
#205 = ORIENTED_EDGE ( 'NONE', *, *, #95, .F. ) ;
#206 = PRODUCT ( 'Micro_BMSM-005-2X', 'Micro_BMSM-005-2X', '', ( #12 ) ) ;
#207 = AXIS2_PLACEMENT_3D ( 'NONE', #28, #112, #191 ) ;
#208 = FILL_AREA_STYLE_COLOUR ( '', #20 ) ;
#209 = DIRECTION ( 'NONE',  ( 0.0000000000000000000, 0.0000000000000000000, 1.000000000000000000 ) ) ;
#210 = CARTESIAN_POINT ( 'NONE',  ( 0.05905500000000000332, 7.232151672364695422E-18, 1.481062999999999574 ) ) ;
#211 = CARTESIAN_POINT ( 'NONE',  ( 1.204153253448721358E-18, 0.0000000000000000000, 0.009832657499999999592 ) ) ;
#212 = VERTEX_POINT ( 'NONE', #72 ) ;
#213 = ORIENTED_EDGE ( 'NONE', *, *, #284, .F. ) ;
#214 = DIRECTION ( 'NONE',  ( 0.7071067811865482389, 8.659560562354941486E-17, -0.7071067811865469066 ) ) ;
#215 = ORIENTED_EDGE ( 'NONE', *, *, #250, .T. ) ;
#216 = CARTESIAN_POINT ( 'NONE',  ( 0.0000000000000000000, 0.0000000000000000000, 1.496062999999999921 ) ) ;
#217 = VECTOR ( 'NONE', #244, 39.37007874015748143 ) ;
#218 =( LENGTH_UNIT ( ) NAMED_UNIT ( * ) SI_UNIT ( $, .METRE. ) );
#219 = ADVANCED_FACE ( 'NONE', ( #169 ), #299, .T. ) ;
#220 = CLOSED_SHELL ( 'NONE', ( #245, #16, #120, #219, #254, #242, #289, #103, #184, #123, #86 ) ) ;
#221 = CARTESIAN_POINT ( 'NONE',  ( -0.04405499999999973326, 0.0000000000000000000, 1.496062999999999921 ) ) ;
#222 = DIRECTION ( 'NONE',  ( -1.224646799147353207E-16, -0.0000000000000000000, -1.000000000000000000 ) ) ;
#223 = PRESENTATION_LAYER_ASSIGNMENT (  '', '', ( #19 ) ) ;
#224 = AXIS2_PLACEMENT_3D ( 'NONE', #194, #209, #305 ) ;
#225 = DIRECTION ( 'NONE',  ( -1.000000000000000000, 0.0000000000000000000, 0.0000000000000000000 ) ) ;
#226 = CARTESIAN_POINT ( 'NONE',  ( 0.009832657500000001327, 0.0000000000000000000, 0.03149600000000000316 ) ) ;
#227 =( CONVERSION_BASED_UNIT ( 'INCH', #165 ) LENGTH_UNIT ( ) NAMED_UNIT ( #48 ) );
#228 = ORIENTED_EDGE ( 'NONE', *, *, #150, .F. ) ;
#229 = PRODUCT_DEFINITION_FORMATION_WITH_SPECIFIED_SOURCE ( 'ANY', '', #206, .NOT_KNOWN. ) ;
#230 = VECTOR ( 'NONE', #7, 39.37007874015747433 ) ;
#231 = EDGE_CURVE ( 'NONE', #161, #212, #144, .T. ) ;
#232 = AXIS2_PLACEMENT_3D ( 'NONE', #211, #204, #307 ) ;
#233 = EDGE_CURVE ( 'NONE', #57, #128, #189, .T. ) ;
#234 = EDGE_CURVE ( 'NONE', #53, #155, #162, .T. ) ;
#235 = ORIENTED_EDGE ( 'NONE', *, *, #309, .T. ) ;
#236 = DIRECTION ( 'NONE',  ( -1.000000000000000000, 0.0000000000000000000, 1.224646799147352961E-16 ) ) ;
#237 = CARTESIAN_POINT ( 'NONE',  ( 0.0000000000000000000, 0.0000000000000000000, 1.481062999999999574 ) ) ;
#238 = ORIENTED_EDGE ( 'NONE', *, *, #250, .F. ) ;
#239 = VECTOR ( 'NONE', #222, 39.37007874015748143 ) ;
#240 = DIRECTION ( 'NONE',  ( -1.000000000000000000, 0.0000000000000000000, 0.0000000000000000000 ) ) ;
#241 = PRESENTATION_STYLE_ASSIGNMENT (( #81 ) ) ;
#242 = ADVANCED_FACE ( 'NONE', ( #274 ), #297, .T. ) ;
#243 = SURFACE_SIDE_STYLE ('',( #61 ) ) ;
#244 = DIRECTION ( 'NONE',  ( -0.7071067811865482389, 0.0000000000000000000, -0.7071067811865469066 ) ) ;
#245 = ADVANCED_FACE ( 'NONE', ( #325 ), #110, .T. ) ;
#246 = CARTESIAN_POINT ( 'NONE',  ( -0.009832657499999999592, 0.0000000000000000000, 1.204153253448721358E-18 ) ) ;
#247 = CONICAL_SURFACE ( 'NONE', #104, 0.009832657499999996123, 0.1745329251994338915 ) ;
#248 = FACE_OUTER_BOUND ( 'NONE', #31, .T. ) ;
#249 = DIRECTION ( 'NONE',  ( 0.0000000000000000000, 0.0000000000000000000, -1.000000000000000000 ) ) ;
#250 = EDGE_CURVE ( 'NONE', #128, #57, #32, .T. ) ;
#251 = CONICAL_SURFACE ( 'NONE', #148, 0.009832657499999996123, 0.1745329251994338915 ) ;
#252 = EDGE_CURVE ( 'NONE', #161, #278, #96, .T. ) ;
#253 = EDGE_LOOP ( 'NONE', ( #18, #29, #62, #311 ) ) ;
#254 = ADVANCED_FACE ( 'NONE', ( #6 ), #4, .T. ) ;
#255 = ORIENTED_EDGE ( 'NONE', *, *, #252, .T. ) ;
#256 = AXIS2_PLACEMENT_3D ( 'NONE', #237, #183, #160 ) ;
#257 = ORIENTED_EDGE ( 'NONE', *, *, #231, .F. ) ;
#258 = CARTESIAN_POINT ( 'NONE',  ( 0.0000000000000000000, 0.0000000000000000000, 0.0000000000000000000 ) ) ;
#259 = PLANE ( 'NONE',  #207 ) ;
#260 = ORIENTED_EDGE ( 'NONE', *, *, #91, .F. ) ;
#261 =( NAMED_UNIT ( * ) PLANE_ANGLE_UNIT ( ) SI_UNIT ( $, .RADIAN. ) );
#262 = CARTESIAN_POINT ( 'NONE',  ( 0.009832657500000001327, 0.0000000000000000000, 0.03149600000000000316 ) ) ;
#263 = APPLICATION_CONTEXT ( 'automotive_design' ) ;
#264 = SHAPE_DEFINITION_REPRESENTATION ( #8, #65 ) ;
#265 = DIRECTION ( 'NONE',  ( -1.000000000000000000, 0.0000000000000000000, 0.0000000000000000000 ) ) ;
#266 = CARTESIAN_POINT ( 'NONE',  ( 3.857147558594504174E-18, 0.0000000000000000000, 0.03149600000000000316 ) ) ;
#267 = DIRECTION ( 'NONE',  ( 1.224646799147353207E-16, 1.000000000000000000, -0.0000000000000000000 ) ) ;
#268 = CARTESIAN_POINT ( 'NONE',  ( -0.05905500000000000332, 0.0000000000000000000, 1.496062999999999921 ) ) ;
#269 = LENGTH_MEASURE_WITH_UNIT ( LENGTH_MEASURE( 0.02539999999999999897 ), #218 );
#270 = EDGE_LOOP ( 'NONE', ( #5, #49, #181 ) ) ;
#271 = COLOUR_RGB ( '',0.7921568627450980005, 0.8196078431372548767, 0.9333333333333333481 ) ;
#272 = CIRCLE ( 'NONE', #39, 0.009832657499999999592 ) ;
#273 = AXIS2_PLACEMENT_3D ( 'NONE', #51, #279, #90 ) ;
#274 = FACE_OUTER_BOUND ( 'NONE', #253, .T. ) ;
#275 = CYLINDRICAL_SURFACE ( 'NONE', #87, 0.009832657499999999592 ) ;
#276 = ORIENTED_EDGE ( 'NONE', *, *, #152, .F. ) ;
#277 = EDGE_LOOP ( 'NONE', ( #215, #281 ) ) ;
#278 = VERTEX_POINT ( 'NONE', #262 ) ;
#279 = DIRECTION ( 'NONE',  ( 0.0000000000000000000, 0.0000000000000000000, 1.000000000000000000 ) ) ;
#280 = ORIENTED_EDGE ( 'NONE', *, *, #234, .T. ) ;
#281 = ORIENTED_EDGE ( 'NONE', *, *, #233, .T. ) ;
#282 = FACE_OUTER_BOUND ( 'NONE', #270, .T. ) ;
#283 = FILL_AREA_STYLE ('',( #208 ) ) ;
#284 = EDGE_CURVE ( 'NONE', #180, #212, #272, .T. ) ;
#285 = ORIENTED_EDGE ( 'NONE', *, *, #3, .T. ) ;
#286 = CIRCLE ( 'NONE', #157, 0.009832657499999996123 ) ;
#287 = AXIS2_PLACEMENT_3D ( 'NONE', #321, #115, #75 ) ;
#288 = DIRECTION ( 'NONE',  ( -0.0000000000000000000, -0.0000000000000000000, -1.000000000000000000 ) ) ;
#289 = ADVANCED_FACE ( 'NONE', ( #132 ), #259, .T. ) ;
#290 = CARTESIAN_POINT ( 'NONE',  ( 1.204153253448721358E-18, 0.0000000000000000000, 0.009832657499999999592 ) ) ;
#291 = CARTESIAN_POINT ( 'NONE',  ( 0.04405499999999973326, 6.313666573004162521E-18, 1.496062999999999921 ) ) ;
#292 = MECHANICAL_DESIGN_GEOMETRIC_PRESENTATION_REPRESENTATION (  '', ( #19 ), #153 ) ;
#293 = SURFACE_STYLE_USAGE ( .BOTH. , #84 ) ;
#294 = DIRECTION ( 'NONE',  ( 0.0000000000000000000, 0.0000000000000000000, -1.000000000000000000 ) ) ;
#295 = LINE ( 'NONE', #318, #217 ) ;
#296 = ORIENTED_EDGE ( 'NONE', *, *, #173, .T. ) ;
#297 = CYLINDRICAL_SURFACE ( 'NONE', #44, 0.05905500000000000332 ) ;
#298 = AXIS2_PLACEMENT_3D ( 'NONE', #187, #66, #137 ) ;
#299 = CONICAL_SURFACE ( 'NONE', #168, 0.04405499999999973326, 0.7853981633974491672 ) ;
#300 = DIRECTION ( 'NONE',  ( -0.0000000000000000000, -0.0000000000000000000, -1.000000000000000000 ) ) ;
#301 =( NAMED_UNIT ( * ) SI_UNIT ( $, .STERADIAN. ) SOLID_ANGLE_UNIT ( ) );
#302 = CIRCLE ( 'NONE', #287, 0.05905500000000000332 ) ;
#303 = DIRECTION ( 'NONE',  ( -1.000000000000000000, 0.0000000000000000000, 2.170579261049422102E-16 ) ) ;
#304 = VERTEX_POINT ( 'NONE', #136 ) ;
#305 = DIRECTION ( 'NONE',  ( 1.000000000000000000, 0.0000000000000000000, 0.0000000000000000000 ) ) ;
#306 =( NAMED_UNIT ( * ) SI_UNIT ( $, .STERADIAN. ) SOLID_ANGLE_UNIT ( ) );
#307 = DIRECTION ( 'NONE',  ( 0.0000000000000000000, 0.0000000000000000000, -1.000000000000000000 ) ) ;
#308 = SURFACE_STYLE_FILL_AREA ( #121 ) ;
#309 = EDGE_CURVE ( 'NONE', #212, #180, #324, .T. ) ;
#310 =( LENGTH_UNIT ( ) NAMED_UNIT ( * ) SI_UNIT ( $, .METRE. ) );
#311 = ORIENTED_EDGE ( 'NONE', *, *, #182, .F. ) ;
#312 = ORIENTED_EDGE ( 'NONE', *, *, #252, .F. ) ;
#313 = AXIS2_PLACEMENT_3D ( 'NONE', #314, #60, #89 ) ;
#314 = CARTESIAN_POINT ( 'NONE',  ( 3.804362540047678030E-17, 0.0000000000000000000, 0.3106497761392446599 ) ) ;
#315 = DIRECTION ( 'NONE',  ( -1.000000000000000000, 0.0000000000000000000, 2.170579261049422102E-16 ) ) ;
#316 = DIRECTION ( 'NONE',  ( 0.1736481776669313859, 0.0000000000000000000, 0.9848077530122077983 ) ) ;
#317 = DIMENSIONAL_EXPONENTS ( 1.000000000000000000, 0.0000000000000000000, 0.0000000000000000000, 0.0000000000000000000, 0.0000000000000000000, 0.0000000000000000000, 0.0000000000000000000 ) ;
#318 = CARTESIAN_POINT ( 'NONE',  ( -0.04405499999999973326, 0.0000000000000000000, 1.496062999999999921 ) ) ;
#319 = CYLINDRICAL_SURFACE ( 'NONE', #63, 0.009832657499999999592 ) ;
#320 = FACE_OUTER_BOUND ( 'NONE', #133, .T. ) ;
#321 = CARTESIAN_POINT ( 'NONE',  ( 3.804362540047678030E-17, 0.0000000000000000000, 0.3106497761392446599 ) ) ;
#322 = EDGE_CURVE ( 'NONE', #304, #180, #77, .T. ) ;
#323 = PRESENTATION_STYLE_ASSIGNMENT (( #293 ) ) ;
#324 = CIRCLE ( 'NONE', #69, 0.009832657499999999592 ) ;
#325 = FACE_OUTER_BOUND ( 'NONE', #108, .T. ) ;
ENDSEC;
END-ISO-10303-21;
