ISO-10303-21;
HEADER;
FILE_DESCRIPTION (( 'STEP AP214' ),
    '1' );
FILE_NAME ('23300.STEP',
    '2023-06-22T16:47:23',
    ( '' ),
    ( '' ),
    'SwSTEP 2.0',
    'SolidWorks 2023',
    '' );
FILE_SCHEMA (( 'AUTOMOTIVE_DESIGN' ));
ENDSEC;

DATA;
#1 = EDGE_CURVE ( 'NONE', #200, #174, #246, .T. ) ;
#2 = DIRECTION ( 'NONE',  ( -0.000000000000000000, -1.000000000000000000, -0.000000000000000000 ) ) ;
#3 = UNCERTAINTY_MEASURE_WITH_UNIT (LENGTH_MEASURE( 1.000000000000000082E-05 ), #154, 'distance_accuracy_value', 'NONE');
#4 =( LENGTH_UNIT ( ) NAMED_UNIT ( * ) SI_UNIT ( $, .METRE. ) );
#5 = PRESENTATION_LAYER_ASSIGNMENT (  '', '', ( #37 ) ) ;
#6 = MECHANICAL_DESIGN_GEOMETRIC_PRESENTATION_REPRESENTATION (  '', ( #81 ), #256 ) ;
#7 =( CONVERSION_BASED_UNIT ( 'INCH', #218 ) LENGTH_UNIT ( ) NAMED_UNIT ( #84 ) );
#8 = CARTESIAN_POINT ( 'NONE',  ( 0.000000000000000000, 1.625000000000000000, 0.000000000000000000 ) ) ;
#9 = VERTEX_POINT ( 'NONE', #104 ) ;
#10 = ORIENTED_EDGE ( 'NONE', *, *, #227, .F. ) ;
#11 =( GEOMETRIC_REPRESENTATION_CONTEXT ( 3 ) GLOBAL_UNCERTAINTY_ASSIGNED_CONTEXT ( ( #161 ) ) GLOBAL_UNIT_ASSIGNED_CONTEXT ( ( #274, #86, #107 ) ) REPRESENTATION_CONTEXT ( 'NONE', 'WORKASPACE' ) );
#12 = SURFACE_STYLE_FILL_AREA ( #221 ) ;
#13 = FACE_OUTER_BOUND ( 'NONE', #26, .T. ) ;
#14 = PRESENTATION_STYLE_ASSIGNMENT (( #151 ) ) ;
#15 = CIRCLE ( 'NONE', #56, 0.3750000000000000555 ) ;
#16 = SURFACE_STYLE_USAGE ( .BOTH. , #230 ) ;
#17 = CARTESIAN_POINT ( 'NONE',  ( 4.592425496802575451E-17, 0.000000000000000000, 0.3750000000000000555 ) ) ;
#18 = DIRECTION ( 'NONE',  ( 0.000000000000000000, -0.000000000000000000, 1.000000000000000000 ) ) ;
#19 = DIRECTION ( 'NONE',  ( -1.000000000000000000, 0.000000000000000000, 0.000000000000000000 ) ) ;
#20 = CIRCLE ( 'NONE', #188, 0.3750000000000000555 ) ;
#21 = PRODUCT_CONTEXT ( 'NONE', #234, 'mechanical' ) ;
#22 =( CONVERSION_BASED_UNIT ( 'INCH', #67 ) LENGTH_UNIT ( ) NAMED_UNIT ( #58 ) );
#23 = AXIS2_PLACEMENT_3D ( 'NONE', #282, #97, #65 ) ;
#24 = ADVANCED_FACE ( 'NONE', ( #77 ), #173, .T. ) ;
#25 = EDGE_CURVE ( 'NONE', #171, #70, #229, .T. ) ;
#26 = EDGE_LOOP ( 'NONE', ( #75, #147 ) ) ;
#27 = EDGE_LOOP ( 'NONE', ( #96, #141, #50, #198 ) ) ;
#28 = CARTESIAN_POINT ( 'NONE',  ( 0.000000000000000000, 0.000000000000000000, 0.000000000000000000 ) ) ;
#29 = APPLICATION_CONTEXT ( 'automotive_design' ) ;
#30 = DIRECTION ( 'NONE',  ( -1.000000000000000000, 0.000000000000000000, 0.000000000000000000 ) ) ;
#31 = COLOUR_RGB ( '',1.000000000000000000, 0.000000000000000000, 0.000000000000000000 ) ;
#32 = PRESENTATION_LAYER_ASSIGNMENT (  '', '', ( #216 ) ) ;
#33 = COLOUR_RGB ( '',0.7921568627450980005, 0.8196078431372548767, 0.9333333333333333481 ) ;
#34 = DIRECTION ( 'NONE',  ( -0.000000000000000000, -1.000000000000000000, -0.000000000000000000 ) ) ;
#35 =( NAMED_UNIT ( * ) SI_UNIT ( $, .STERADIAN. ) SOLID_ANGLE_UNIT ( ) );
#36 = FILL_AREA_STYLE ('',( #306 ) ) ;
#37 = STYLED_ITEM ( 'NONE', ( #290 ), #204 ) ;
#38 = LINE ( 'NONE', #17, #251 ) ;
#39 = FACE_OUTER_BOUND ( 'NONE', #195, .T. ) ;
#40 = CARTESIAN_POINT ( 'NONE',  ( -1.224646799147352714E-16, 4.000000000000000000, 0.000000000000000000 ) ) ;
#41 = UNCERTAINTY_MEASURE_WITH_UNIT (LENGTH_MEASURE( 1.000000000000000082E-05 ), #7, 'distance_accuracy_value', 'NONE');
#42 =( NAMED_UNIT ( * ) SI_UNIT ( $, .STERADIAN. ) SOLID_ANGLE_UNIT ( ) );
#43 =( NAMED_UNIT ( * ) PLANE_ANGLE_UNIT ( ) SI_UNIT ( $, .RADIAN. ) );
#44 = LINE ( 'NONE', #160, #116 ) ;
#45 = DIRECTION ( 'NONE',  ( 0.000000000000000000, 0.000000000000000000, -1.000000000000000000 ) ) ;
#46 = DIRECTION ( 'NONE',  ( -5.156407575357275299E-17, 1.000000000000000000, -0.000000000000000000 ) ) ;
#47 = CLOSED_SHELL ( 'NONE', ( #288, #275, #120, #204 ) ) ;
#48 = CIRCLE ( 'NONE', #114, 0.3750000000000001665 ) ;
#49 = SURFACE_SIDE_STYLE ('',( #117 ) ) ;
#50 = ORIENTED_EDGE ( 'NONE', *, *, #63, .T. ) ;
#51 = DIRECTION ( 'NONE',  ( 0.000000000000000000, 0.000000000000000000, -1.000000000000000000 ) ) ;
#52 = DIRECTION ( 'NONE',  ( -5.156407575357275299E-17, 1.000000000000000000, -0.000000000000000000 ) ) ;
#53 = ADVANCED_FACE ( 'NONE', ( #152 ), #176, .T. ) ;
#54 = FILL_AREA_STYLE_COLOUR ( '', #296 ) ;
#55 = DIRECTION ( 'NONE',  ( -5.156407575357275299E-17, 1.000000000000000000, -0.000000000000000000 ) ) ;
#56 = AXIS2_PLACEMENT_3D ( 'NONE', #28, #197, #45 ) ;
#57 = CARTESIAN_POINT ( 'NONE',  ( 0.000000000000000000, 1.625000000000000000, -0.3750000000000000555 ) ) ;
#58 = DIMENSIONAL_EXPONENTS ( 1.000000000000000000, 0.000000000000000000, 0.000000000000000000, 0.000000000000000000, 0.000000000000000000, 0.000000000000000000, 0.000000000000000000 ) ;
#59 = CARTESIAN_POINT ( 'NONE',  ( 0.000000000000000000, 0.000000000000000000, 0.000000000000000000 ) ) ;
#60 = DIRECTION ( 'NONE',  ( -1.000000000000000000, 0.000000000000000000, 0.000000000000000000 ) ) ;
#61 = AXIS2_PLACEMENT_3D ( 'NONE', #59, #85, #309 ) ;
#62 = CARTESIAN_POINT ( 'NONE',  ( 0.000000000000000000, 0.000000000000000000, -0.3750000000000000555 ) ) ;
#63 = EDGE_CURVE ( 'NONE', #200, #171, #231, .T. ) ;
#64 = AXIS2_PLACEMENT_3D ( 'NONE', #40, #155, #60 ) ;
#65 = DIRECTION ( 'NONE',  ( 1.000000000000000000, 0.000000000000000000, 0.000000000000000000 ) ) ;
#66 = ADVANCED_FACE ( 'NONE', ( #13 ), #207, .F. ) ;
#67 = LENGTH_MEASURE_WITH_UNIT ( LENGTH_MEASURE( 0.02539999999999999897 ), #4 );
#68 = AXIS2_PLACEMENT_3D ( 'NONE', #187, #286, #140 ) ;
#69 = DIRECTION ( 'NONE',  ( -0.000000000000000000, -1.000000000000000000, -0.000000000000000000 ) ) ;
#70 = VERTEX_POINT ( 'NONE', #112 ) ;
#71 =( NAMED_UNIT ( * ) PLANE_ANGLE_UNIT ( ) SI_UNIT ( $, .RADIAN. ) );
#72 = ORIENTED_EDGE ( 'NONE', *, *, #248, .T. ) ;
#73 = AXIS2_PLACEMENT_3D ( 'NONE', #185, #2, #254 ) ;
#74 = PRODUCT_DEFINITION_FORMATION_WITH_SPECIFIED_SOURCE ( 'ANY', '', #177, .NOT_KNOWN. ) ;
#75 = ORIENTED_EDGE ( 'NONE', *, *, #1, .F. ) ;
#76 = EDGE_CURVE ( 'NONE', #143, #9, #38, .T. ) ;
#77 = FACE_OUTER_BOUND ( 'NONE', #168, .T. ) ;
#78 = MANIFOLD_SOLID_BREP ( 'Revolve - Cutting Edge', #47 ) ;
#79 = ORIENTED_EDGE ( 'NONE', *, *, #227, .T. ) ;
#80 =( GEOMETRIC_REPRESENTATION_CONTEXT ( 3 ) GLOBAL_UNCERTAINTY_ASSIGNED_CONTEXT ( ( #41 ) ) GLOBAL_UNIT_ASSIGNED_CONTEXT ( ( #7, #170, #237 ) ) REPRESENTATION_CONTEXT ( 'NONE', 'WORKASPACE' ) );
#81 = STYLED_ITEM ( 'NONE', ( #109 ), #291 ) ;
#82 = EDGE_CURVE ( 'NONE', #100, #149, #305, .T. ) ;
#83 = LENGTH_MEASURE_WITH_UNIT ( LENGTH_MEASURE( 0.02539999999999999897 ), #301 );
#84 = DIMENSIONAL_EXPONENTS ( 1.000000000000000000, 0.000000000000000000, 0.000000000000000000, 0.000000000000000000, 0.000000000000000000, 0.000000000000000000, 0.000000000000000000 ) ;
#85 = DIRECTION ( 'NONE',  ( -0.000000000000000000, -1.000000000000000000, -0.000000000000000000 ) ) ;
#86 =( NAMED_UNIT ( * ) PLANE_ANGLE_UNIT ( ) SI_UNIT ( $, .RADIAN. ) );
#87 = MECHANICAL_DESIGN_GEOMETRIC_PRESENTATION_REPRESENTATION (  '', ( #284 ), #150 ) ;
#88 = PRESENTATION_LAYER_ASSIGNMENT (  '', '', ( #129 ) ) ;
#89 = SURFACE_SIDE_STYLE ('',( #162 ) ) ;
#90 = MECHANICAL_DESIGN_GEOMETRIC_PRESENTATION_REPRESENTATION (  '', ( #266 ), #139 ) ;
#91 = MECHANICAL_DESIGN_GEOMETRIC_PRESENTATION_REPRESENTATION (  '', ( #129 ), #289 ) ;
#92 = FACE_OUTER_BOUND ( 'NONE', #238, .T. ) ;
#93 = UNCERTAINTY_MEASURE_WITH_UNIT (LENGTH_MEASURE( 1.000000000000000082E-05 ), #22, 'distance_accuracy_value', 'NONE');
#94 = AXIS2_PLACEMENT_3D ( 'NONE', #270, #55, #247 ) ;
#95 = DIRECTION ( 'NONE',  ( 0.000000000000000000, -1.000000000000000000, -0.000000000000000000 ) ) ;
#96 = ORIENTED_EDGE ( 'NONE', *, *, #111, .F. ) ;
#97 = DIRECTION ( 'NONE',  ( 0.000000000000000000, 0.000000000000000000, 1.000000000000000000 ) ) ;
#98 = DIMENSIONAL_EXPONENTS ( 1.000000000000000000, 0.000000000000000000, 0.000000000000000000, 0.000000000000000000, 0.000000000000000000, 0.000000000000000000, 0.000000000000000000 ) ;
#99 = DIRECTION ( 'NONE',  ( 0.000000000000000000, 0.000000000000000000, -1.000000000000000000 ) ) ;
#100 = VERTEX_POINT ( 'NONE', #57 ) ;
#101 = DIRECTION ( 'NONE',  ( -0.000000000000000000, -1.000000000000000000, -0.000000000000000000 ) ) ;
#102 = ORIENTED_EDGE ( 'NONE', *, *, #25, .T. ) ;
#103 = SURFACE_SIDE_STYLE ('',( #12 ) ) ;
#104 = CARTESIAN_POINT ( 'NONE',  ( 4.592425496802575451E-17, 0.000000000000000000, 0.3750000000000000555 ) ) ;
#105 = FILL_AREA_STYLE ('',( #307 ) ) ;
#106 = AXIS2_PLACEMENT_3D ( 'NONE', #269, #52, #30 ) ;
#107 =( NAMED_UNIT ( * ) SI_UNIT ( $, .STERADIAN. ) SOLID_ANGLE_UNIT ( ) );
#108 = DIRECTION ( 'NONE',  ( -5.156407575357275916E-17, 1.000000000000000000, -0.000000000000000000 ) ) ;
#109 = PRESENTATION_STYLE_ASSIGNMENT (( #16 ) ) ;
#110 = LENGTH_MEASURE_WITH_UNIT ( LENGTH_MEASURE( 0.02539999999999999897 ), #279 );
#111 = EDGE_CURVE ( 'NONE', #174, #70, #44, .T. ) ;
#112 = CARTESIAN_POINT ( 'NONE',  ( 0.3750000000000000555, 4.000000000000000000, 4.592425496802576684E-17 ) ) ;
#113 = PLANE ( 'NONE',  #68 ) ;
#114 = AXIS2_PLACEMENT_3D ( 'NONE', #264, #46, #142 ) ;
#115 = CARTESIAN_POINT ( 'NONE',  ( 3.032960542342103792E-32, 1.625000000000000000, 0.000000000000000000 ) ) ;
#116 = VECTOR ( 'NONE', #182, 39.37007874015748143 ) ;
#117 = SURFACE_STYLE_FILL_AREA ( #225 ) ;
#118 = EDGE_LOOP ( 'NONE', ( #299, #240, #295, #244 ) ) ;
#119 = DIMENSIONAL_EXPONENTS ( 1.000000000000000000, 0.000000000000000000, 0.000000000000000000, 0.000000000000000000, 0.000000000000000000, 0.000000000000000000, 0.000000000000000000 ) ;
#120 = ADVANCED_FACE ( 'NONE', ( #213 ), #138, .T. ) ;
#121 = DIRECTION ( 'NONE',  ( 0.000000000000000000, 0.000000000000000000, -1.000000000000000000 ) ) ;
#122 = ORIENTED_EDGE ( 'NONE', *, *, #190, .F. ) ;
#123 = PLANE ( 'NONE',  #179 ) ;
#124 = PRESENTATION_LAYER_ASSIGNMENT (  '', '', ( #266 ) ) ;
#125 = CARTESIAN_POINT ( 'NONE',  ( 0.000000000000000000, 0.000000000000000000, 0.000000000000000000 ) ) ;
#126 = ORIENTED_EDGE ( 'NONE', *, *, #25, .F. ) ;
#127 = FILL_AREA_STYLE ('',( #180 ) ) ;
#128 = CARTESIAN_POINT ( 'NONE',  ( -1.224646799147352714E-16, 4.000000000000000000, 0.000000000000000000 ) ) ;
#129 = STYLED_ITEM ( 'NONE', ( #153 ), #288 ) ;
#130 = SURFACE_STYLE_FILL_AREA ( #36 ) ;
#131 = DIRECTION ( 'NONE',  ( -5.156407575357275299E-17, 1.000000000000000000, -0.000000000000000000 ) ) ;
#132 = ADVANCED_FACE ( 'NONE', ( #92 ), #113, .F. ) ;
#133 = LENGTH_MEASURE_WITH_UNIT ( LENGTH_MEASURE( 0.02539999999999999897 ), #206 );
#134 =( CONVERSION_BASED_UNIT ( 'INCH', #133 ) LENGTH_UNIT ( ) NAMED_UNIT ( #146 ) );
#135 = CARTESIAN_POINT ( 'NONE',  ( 4.985351078100356093E-34, 1.625000000000000000, 0.000000000000000000 ) ) ;
#136 = PRESENTATION_LAYER_ASSIGNMENT (  '', '', ( #284 ) ) ;
#137 =( CONVERSION_BASED_UNIT ( 'INCH', #181 ) LENGTH_UNIT ( ) NAMED_UNIT ( #196 ) );
#138 = CYLINDRICAL_SURFACE ( 'NONE', #73, 0.3750000000000000555 ) ;
#139 =( GEOMETRIC_REPRESENTATION_CONTEXT ( 3 ) GLOBAL_UNCERTAINTY_ASSIGNED_CONTEXT ( ( #93 ) ) GLOBAL_UNIT_ASSIGNED_CONTEXT ( ( #22, #257, #236 ) ) REPRESENTATION_CONTEXT ( 'NONE', 'WORKASPACE' ) );
#140 = DIRECTION ( 'NONE',  ( 1.000000000000000000, 5.156407575357275916E-17, 0.000000000000000000 ) ) ;
#141 = ORIENTED_EDGE ( 'NONE', *, *, #163, .T. ) ;
#142 = DIRECTION ( 'NONE',  ( -1.000000000000000000, 0.000000000000000000, 0.000000000000000000 ) ) ;
#143 = VERTEX_POINT ( 'NONE', #172 ) ;
#144 = COLOUR_RGB ( '',1.000000000000000000, 0.000000000000000000, 0.000000000000000000 ) ;
#145 = UNCERTAINTY_MEASURE_WITH_UNIT (LENGTH_MEASURE( 1.000000000000000082E-05 ), #137, 'distance_accuracy_value', 'NONE');
#146 = DIMENSIONAL_EXPONENTS ( 1.000000000000000000, 0.000000000000000000, 0.000000000000000000, 0.000000000000000000, 0.000000000000000000, 0.000000000000000000, 0.000000000000000000 ) ;
#147 = ORIENTED_EDGE ( 'NONE', *, *, #163, .F. ) ;
#148 = FILL_AREA_STYLE_COLOUR ( '', #183 ) ;
#149 = VERTEX_POINT ( 'NONE', #189 ) ;
#150 =( GEOMETRIC_REPRESENTATION_CONTEXT ( 3 ) GLOBAL_UNCERTAINTY_ASSIGNED_CONTEXT ( ( #3 ) ) GLOBAL_UNIT_ASSIGNED_CONTEXT ( ( #154, #208, #249 ) ) REPRESENTATION_CONTEXT ( 'NONE', 'WORKASPACE' ) );
#151 = SURFACE_STYLE_USAGE ( .BOTH. , #103 ) ;
#152 = FACE_OUTER_BOUND ( 'NONE', #27, .T. ) ;
#153 = PRESENTATION_STYLE_ASSIGNMENT (( #300 ) ) ;
#154 =( CONVERSION_BASED_UNIT ( 'INCH', #110 ) LENGTH_UNIT ( ) NAMED_UNIT ( #263 ) );
#155 = DIRECTION ( 'NONE',  ( -5.156407575357275299E-17, 1.000000000000000000, -0.000000000000000000 ) ) ;
#156 = UNCERTAINTY_MEASURE_WITH_UNIT (LENGTH_MEASURE( 1.000000000000000082E-05 ), #134, 'distance_accuracy_value', 'NONE');
#157 = PRODUCT_DEFINITION_SHAPE ( 'NONE', 'NONE',  #308 ) ;
#158 = CARTESIAN_POINT ( 'NONE',  ( -0.3750000000000002220, 4.000000000000000000, 0.000000000000000000 ) ) ;
#159 = DIRECTION ( 'NONE',  ( -0.000000000000000000, -1.000000000000000000, -0.000000000000000000 ) ) ;
#160 = CARTESIAN_POINT ( 'NONE',  ( 0.3749999999999999445, 4.000000000000000000, 4.592425496802576068E-17 ) ) ;
#161 = UNCERTAINTY_MEASURE_WITH_UNIT (LENGTH_MEASURE( 1.000000000000000082E-05 ), #274, 'distance_accuracy_value', 'NONE');
#162 = SURFACE_STYLE_FILL_AREA ( #212 ) ;
#163 = EDGE_CURVE ( 'NONE', #174, #200, #20, .T. ) ;
#164 = CIRCLE ( 'NONE', #209, 0.3750000000000000555 ) ;
#165 = SURFACE_STYLE_USAGE ( .BOTH. , #49 ) ;
#166 = DIRECTION ( 'NONE',  ( 0.000000000000000000, 0.000000000000000000, -1.000000000000000000 ) ) ;
#167 = CARTESIAN_POINT ( 'NONE',  ( 0.000000000000000000, 1.625000000000000000, 0.000000000000000000 ) ) ;
#168 = EDGE_LOOP ( 'NONE', ( #242, #273, #126, #265 ) ) ;
#169 = MECHANICAL_DESIGN_GEOMETRIC_PRESENTATION_REPRESENTATION (  '', ( #37 ), #80 ) ;
#170 =( NAMED_UNIT ( * ) PLANE_ANGLE_UNIT ( ) SI_UNIT ( $, .RADIAN. ) );
#171 = VERTEX_POINT ( 'NONE', #217 ) ;
#172 = CARTESIAN_POINT ( 'NONE',  ( 4.592425496802575451E-17, 1.625000000000000000, 0.3750000000000000555 ) ) ;
#173 = CYLINDRICAL_SURFACE ( 'NONE', #94, 0.3750000000000001110 ) ;
#174 = VERTEX_POINT ( 'NONE', #297 ) ;
#175 = CIRCLE ( 'NONE', #214, 0.3750000000000000555 ) ;
#176 = CYLINDRICAL_SURFACE ( 'NONE', #272, 0.3750000000000001110 ) ;
#177 = PRODUCT ( '23300', '23300', '', ( #21 ) ) ;
#178 = CARTESIAN_POINT ( 'NONE',  ( 0.000000000000000000, 1.625000000000000000, 0.000000000000000000 ) ) ;
#179 = AXIS2_PLACEMENT_3D ( 'NONE', #178, #252, #18 ) ;
#180 = FILL_AREA_STYLE_COLOUR ( '', #31 ) ;
#181 = LENGTH_MEASURE_WITH_UNIT ( LENGTH_MEASURE( 0.02539999999999999897 ), #233 );
#182 = DIRECTION ( 'NONE',  ( -5.156407575357275916E-17, 1.000000000000000000, -0.000000000000000000 ) ) ;
#183 = COLOUR_RGB ( '',1.000000000000000000, 0.000000000000000000, 0.000000000000000000 ) ;
#184 = APPLICATION_PROTOCOL_DEFINITION ( 'draft international standard', 'automotive_design', 1998, #234 ) ;
#185 = CARTESIAN_POINT ( 'NONE',  ( 0.000000000000000000, 0.000000000000000000, 0.000000000000000000 ) ) ;
#186 =( NAMED_UNIT ( * ) SI_UNIT ( $, .STERADIAN. ) SOLID_ANGLE_UNIT ( ) );
#187 = CARTESIAN_POINT ( 'NONE',  ( 0.3750000000000000555, 4.000000000000000000, 0.000000000000000000 ) ) ;
#188 = AXIS2_PLACEMENT_3D ( 'NONE', #115, #245, #191 ) ;
#189 = CARTESIAN_POINT ( 'NONE',  ( 0.000000000000000000, 0.000000000000000000, -0.3750000000000000555 ) ) ;
#190 = EDGE_CURVE ( 'NONE', #149, #9, #15, .T. ) ;
#191 = DIRECTION ( 'NONE',  ( -1.000000000000000000, 0.000000000000000000, 0.000000000000000000 ) ) ;
#192 = ORIENTED_EDGE ( 'NONE', *, *, #190, .T. ) ;
#193 = APPLICATION_PROTOCOL_DEFINITION ( 'draft international standard', 'automotive_design', 1998, #29 ) ;
#194 = CARTESIAN_POINT ( 'NONE',  ( -0.3750000000000000555, 1.625000000000000000, 0.000000000000000000 ) ) ;
#195 = EDGE_LOOP ( 'NONE', ( #79, #293, #122, #298 ) ) ;
#196 = DIMENSIONAL_EXPONENTS ( 1.000000000000000000, 0.000000000000000000, 0.000000000000000000, 0.000000000000000000, 0.000000000000000000, 0.000000000000000000, 0.000000000000000000 ) ;
#197 = DIRECTION ( 'NONE',  ( -0.000000000000000000, -1.000000000000000000, -0.000000000000000000 ) ) ;
#198 = ORIENTED_EDGE ( 'NONE', *, *, #248, .F. ) ;
#199 =( LENGTH_UNIT ( ) NAMED_UNIT ( * ) SI_UNIT ( $, .METRE. ) );
#200 = VERTEX_POINT ( 'NONE', #194 ) ;
#201 = SURFACE_SIDE_STYLE ('',( #276 ) ) ;
#202 = SURFACE_STYLE_FILL_AREA ( #105 ) ;
#203 = CIRCLE ( 'NONE', #280, 0.3750000000000000555 ) ;
#204 = ADVANCED_FACE ( 'NONE', ( #241 ), #294, .T. ) ;
#205 = CYLINDRICAL_SURFACE ( 'NONE', #61, 0.3750000000000000555 ) ;
#206 =( LENGTH_UNIT ( ) NAMED_UNIT ( * ) SI_UNIT ( $, .METRE. ) );
#207 = PLANE ( 'NONE',  #239 ) ;
#208 =( NAMED_UNIT ( * ) PLANE_ANGLE_UNIT ( ) SI_UNIT ( $, .RADIAN. ) );
#209 = AXIS2_PLACEMENT_3D ( 'NONE', #292, #69, #121 ) ;
#210 = PRESENTATION_LAYER_ASSIGNMENT (  '', '', ( #81 ) ) ;
#211 = PRESENTATION_STYLE_ASSIGNMENT (( #228 ) ) ;
#212 = FILL_AREA_STYLE ('',( #215 ) ) ;
#213 = FACE_OUTER_BOUND ( 'NONE', #118, .T. ) ;
#214 = AXIS2_PLACEMENT_3D ( 'NONE', #167, #268, #51 ) ;
#215 = FILL_AREA_STYLE_COLOUR ( '', #144 ) ;
#216 = STYLED_ITEM ( 'NONE', ( #14 ), #275 ) ;
#217 = CARTESIAN_POINT ( 'NONE',  ( -0.3750000000000002776, 4.000000000000000000, 0.000000000000000000 ) ) ;
#218 = LENGTH_MEASURE_WITH_UNIT ( LENGTH_MEASURE( 0.02539999999999999897 ), #199 );
#219 = ORIENTED_EDGE ( 'NONE', *, *, #262, .F. ) ;
#220 = EDGE_LOOP ( 'NONE', ( #10, #219 ) ) ;
#221 = FILL_AREA_STYLE ('',( #54 ) ) ;
#222 = EDGE_CURVE ( 'NONE', #9, #149, #164, .T. ) ;
#223 = EDGE_LOOP ( 'NONE', ( #192, #267 ) ) ;
#224 = CLOSED_SHELL ( 'NONE', ( #24, #66, #53, #132 ) ) ;
#225 = FILL_AREA_STYLE ('',( #148 ) ) ;
#226 = LENGTH_MEASURE_WITH_UNIT ( LENGTH_MEASURE( 0.02539999999999999897 ), #271 );
#227 = EDGE_CURVE ( 'NONE', #100, #143, #203, .T. ) ;
#228 = SURFACE_STYLE_USAGE ( .BOTH. , #303 ) ;
#229 = CIRCLE ( 'NONE', #64, 0.3750000000000001665 ) ;
#230 = SURFACE_SIDE_STYLE ('',( #130 ) ) ;
#231 = LINE ( 'NONE', #158, #260 ) ;
#232 = AXIS2_PLACEMENT_3D ( 'NONE', #125, #95, #99 ) ;
#233 =( LENGTH_UNIT ( ) NAMED_UNIT ( * ) SI_UNIT ( $, .METRE. ) );
#234 = APPLICATION_CONTEXT ( 'automotive_design' ) ;
#235 = COLOUR_RGB ( '',0.7921568627450980005, 0.8196078431372548767, 0.9333333333333333481 ) ;
#236 =( NAMED_UNIT ( * ) SI_UNIT ( $, .STERADIAN. ) SOLID_ANGLE_UNIT ( ) );
#237 =( NAMED_UNIT ( * ) SI_UNIT ( $, .STERADIAN. ) SOLID_ANGLE_UNIT ( ) );
#238 = EDGE_LOOP ( 'NONE', ( #102, #72 ) ) ;
#239 = AXIS2_PLACEMENT_3D ( 'NONE', #135, #250, #253 ) ;
#240 = ORIENTED_EDGE ( 'NONE', *, *, #262, .T. ) ;
#241 = FACE_OUTER_BOUND ( 'NONE', #223, .T. ) ;
#242 = ORIENTED_EDGE ( 'NONE', *, *, #1, .T. ) ;
#243 = FACE_OUTER_BOUND ( 'NONE', #220, .T. ) ;
#244 = ORIENTED_EDGE ( 'NONE', *, *, #222, .F. ) ;
#245 = DIRECTION ( 'NONE',  ( -5.156407575357275299E-17, 1.000000000000000000, -0.000000000000000000 ) ) ;
#246 = CIRCLE ( 'NONE', #106, 0.3750000000000000555 ) ;
#247 = DIRECTION ( 'NONE',  ( -1.000000000000000000, 0.000000000000000000, 0.000000000000000000 ) ) ;
#248 = EDGE_CURVE ( 'NONE', #70, #171, #48, .T. ) ;
#249 =( NAMED_UNIT ( * ) SI_UNIT ( $, .STERADIAN. ) SOLID_ANGLE_UNIT ( ) );
#250 = DIRECTION ( 'NONE',  ( -5.156407575357275916E-17, 1.000000000000000000, 0.000000000000000000 ) ) ;
#251 = VECTOR ( 'NONE', #34, 39.37007874015748143 ) ;
#252 = DIRECTION ( 'NONE',  ( 0.000000000000000000, 1.000000000000000000, 0.000000000000000000 ) ) ;
#253 = DIRECTION ( 'NONE',  ( -1.000000000000000000, -5.156407575357275916E-17, 0.000000000000000000 ) ) ;
#254 = DIRECTION ( 'NONE',  ( 0.000000000000000000, 0.000000000000000000, -1.000000000000000000 ) ) ;
#255 = MECHANICAL_DESIGN_GEOMETRIC_PRESENTATION_REPRESENTATION (  '', ( #216 ), #11 ) ;
#256 =( GEOMETRIC_REPRESENTATION_CONTEXT ( 3 ) GLOBAL_UNCERTAINTY_ASSIGNED_CONTEXT ( ( #156 ) ) GLOBAL_UNIT_ASSIGNED_CONTEXT ( ( #134, #71, #42 ) ) REPRESENTATION_CONTEXT ( 'NONE', 'WORKASPACE' ) );
#257 =( NAMED_UNIT ( * ) PLANE_ANGLE_UNIT ( ) SI_UNIT ( $, .RADIAN. ) );
#258 = PRESENTATION_STYLE_ASSIGNMENT (( #259 ) ) ;
#259 = SURFACE_STYLE_USAGE ( .BOTH. , #89 ) ;
#260 = VECTOR ( 'NONE', #108, 39.37007874015748143 ) ;
#261 =( GEOMETRIC_REPRESENTATION_CONTEXT ( 3 ) GLOBAL_UNCERTAINTY_ASSIGNED_CONTEXT ( ( #145 ) ) GLOBAL_UNIT_ASSIGNED_CONTEXT ( ( #137, #43, #186 ) ) REPRESENTATION_CONTEXT ( 'NONE', 'WORKASPACE' ) );
#262 = EDGE_CURVE ( 'NONE', #143, #100, #175, .T. ) ;
#263 = DIMENSIONAL_EXPONENTS ( 1.000000000000000000, 0.000000000000000000, 0.000000000000000000, 0.000000000000000000, 0.000000000000000000, 0.000000000000000000, 0.000000000000000000 ) ;
#264 = CARTESIAN_POINT ( 'NONE',  ( -1.224646799147352714E-16, 4.000000000000000000, 0.000000000000000000 ) ) ;
#265 = ORIENTED_EDGE ( 'NONE', *, *, #63, .F. ) ;
#266 = STYLED_ITEM ( 'NONE', ( #258 ), #120 ) ;
#267 = ORIENTED_EDGE ( 'NONE', *, *, #222, .T. ) ;
#268 = DIRECTION ( 'NONE',  ( -0.000000000000000000, -1.000000000000000000, -0.000000000000000000 ) ) ;
#269 = CARTESIAN_POINT ( 'NONE',  ( 3.032960542342103792E-32, 1.625000000000000000, 0.000000000000000000 ) ) ;
#270 = CARTESIAN_POINT ( 'NONE',  ( -1.224646799147352714E-16, 4.000000000000000000, 0.000000000000000000 ) ) ;
#271 =( LENGTH_UNIT ( ) NAMED_UNIT ( * ) SI_UNIT ( $, .METRE. ) );
#272 = AXIS2_PLACEMENT_3D ( 'NONE', #128, #131, #19 ) ;
#273 = ORIENTED_EDGE ( 'NONE', *, *, #111, .T. ) ;
#274 =( CONVERSION_BASED_UNIT ( 'INCH', #83 ) LENGTH_UNIT ( ) NAMED_UNIT ( #98 ) );
#275 = ADVANCED_FACE ( 'NONE', ( #243 ), #123, .T. ) ;
#276 = SURFACE_STYLE_FILL_AREA ( #127 ) ;
#277 = UNCERTAINTY_MEASURE_WITH_UNIT (LENGTH_MEASURE( 1.000000000000000082E-05 ), #278, 'distance_accuracy_value', 'NONE');
#278 =( CONVERSION_BASED_UNIT ( 'INCH', #226 ) LENGTH_UNIT ( ) NAMED_UNIT ( #119 ) );
#279 =( LENGTH_UNIT ( ) NAMED_UNIT ( * ) SI_UNIT ( $, .METRE. ) );
#280 = AXIS2_PLACEMENT_3D ( 'NONE', #8, #101, #166 ) ;
#281 = ADVANCED_BREP_SHAPE_REPRESENTATION ( '23300', ( #78, #291, #23 ), #261 ) ;
#282 = CARTESIAN_POINT ( 'NONE',  ( 0.000000000000000000, 0.000000000000000000, 0.000000000000000000 ) ) ;
#283 = PRODUCT_RELATED_PRODUCT_CATEGORY ( 'part', '', ( #177 ) ) ;
#284 = STYLED_ITEM ( 'NONE', ( #211 ), #78 ) ;
#285 = SHAPE_DEFINITION_REPRESENTATION ( #157, #281 ) ;
#286 = DIRECTION ( 'NONE',  ( 5.156407575357275916E-17, -1.000000000000000000, 0.000000000000000000 ) ) ;
#287 = PRODUCT_DEFINITION_CONTEXT ( 'detailed design', #29, 'design' ) ;
#288 = ADVANCED_FACE ( 'NONE', ( #39 ), #205, .T. ) ;
#289 =( GEOMETRIC_REPRESENTATION_CONTEXT ( 3 ) GLOBAL_UNCERTAINTY_ASSIGNED_CONTEXT ( ( #277 ) ) GLOBAL_UNIT_ASSIGNED_CONTEXT ( ( #278, #304, #35 ) ) REPRESENTATION_CONTEXT ( 'NONE', 'WORKASPACE' ) );
#290 = PRESENTATION_STYLE_ASSIGNMENT (( #165 ) ) ;
#291 = MANIFOLD_SOLID_BREP ( 'Revolve - Tool Body (Straight Shanked)', #224 ) ;
#292 = CARTESIAN_POINT ( 'NONE',  ( 0.000000000000000000, 0.000000000000000000, 0.000000000000000000 ) ) ;
#293 = ORIENTED_EDGE ( 'NONE', *, *, #76, .T. ) ;
#294 = PLANE ( 'NONE',  #232 ) ;
#295 = ORIENTED_EDGE ( 'NONE', *, *, #82, .T. ) ;
#296 = COLOUR_RGB ( '',1.000000000000000000, 0.000000000000000000, 0.000000000000000000 ) ;
#297 = CARTESIAN_POINT ( 'NONE',  ( 0.3750000000000000555, 1.625000000000000000, 4.592425496802576684E-17 ) ) ;
#298 = ORIENTED_EDGE ( 'NONE', *, *, #82, .F. ) ;
#299 = ORIENTED_EDGE ( 'NONE', *, *, #76, .F. ) ;
#300 = SURFACE_STYLE_USAGE ( .BOTH. , #201 ) ;
#301 =( LENGTH_UNIT ( ) NAMED_UNIT ( * ) SI_UNIT ( $, .METRE. ) );
#302 = VECTOR ( 'NONE', #159, 39.37007874015748143 ) ;
#303 = SURFACE_SIDE_STYLE ('',( #202 ) ) ;
#304 =( NAMED_UNIT ( * ) PLANE_ANGLE_UNIT ( ) SI_UNIT ( $, .RADIAN. ) );
#305 = LINE ( 'NONE', #62, #302 ) ;
#306 = FILL_AREA_STYLE_COLOUR ( '', #33 ) ;
#307 = FILL_AREA_STYLE_COLOUR ( '', #235 ) ;
#308 = PRODUCT_DEFINITION ( 'UNKNOWN', '', #74, #287 ) ;
#309 = DIRECTION ( 'NONE',  ( 0.000000000000000000, 0.000000000000000000, -1.000000000000000000 ) ) ;
ENDSEC;
END-ISO-10303-21;
