ISO-10303-21;
HEADER;
FILE_DESCRIPTION (( 'STEP AP214' ),
    '1' );
FILE_NAME ('06435.STEP',
    '2023-07-05T16:02:54',
    ( '' ),
    ( '' ),
    'SwSTEP 2.0',
    'SolidWorks 2023',
    '' );
FILE_SCHEMA (( 'AUTOMOTIVE_DESIGN' ));
ENDSEC;

DATA;
#1 = SURFACE_STYLE_FILL_AREA ( #161 ) ;
#2 =( NAMED_UNIT ( * ) PLANE_ANGLE_UNIT ( ) SI_UNIT ( $, .RADIAN. ) );
#3 = PRODUCT_DEFINITION_FORMATION_WITH_SPECIFIED_SOURCE ( 'ANY', '', #41, .NOT_KNOWN. ) ;
#4 = CARTESIAN_POINT ( 'NONE',  ( -6.123233995736766036E-17, 2.500000000000000000, 0.000000000000000000 ) ) ;
#5 =( LENGTH_UNIT ( ) NAMED_UNIT ( * ) SI_UNIT ( $, .METRE. ) );
#6 = CIRCLE ( 'NONE', #150, 0.1249999999999999861 ) ;
#7 = SURFACE_STYLE_USAGE ( .BOTH. , #32 ) ;
#8 = MANIFOLD_SOLID_BREP ( 'Revolve - Cutting Edge', #144 ) ;
#9 =( NAMED_UNIT ( * ) SI_UNIT ( $, .STERADIAN. ) SOLID_ANGLE_UNIT ( ) );
#10 = DIRECTION ( 'NONE',  ( 0.000000000000000000, 1.000000000000000000, 0.000000000000000000 ) ) ;
#11 = SURFACE_SIDE_STYLE ('',( #154 ) ) ;
#12 = LENGTH_MEASURE_WITH_UNIT ( LENGTH_MEASURE( 0.02539999999999999897 ), #137 );
#13 = EDGE_LOOP ( 'NONE', ( #147, #201, #89, #236 ) ) ;
#14 = DIMENSIONAL_EXPONENTS ( 1.000000000000000000, 0.000000000000000000, 0.000000000000000000, 0.000000000000000000, 0.000000000000000000, 0.000000000000000000, 0.000000000000000000 ) ;
#15 = EDGE_LOOP ( 'NONE', ( #31, #75 ) ) ;
#16 = ORIENTED_EDGE ( 'NONE', *, *, #106, .F. ) ;
#17 = VERTEX_POINT ( 'NONE', #190 ) ;
#18 = EDGE_CURVE ( 'NONE', #33, #57, #255, .T. ) ;
#19 = SURFACE_SIDE_STYLE ('',( #20 ) ) ;
#20 = SURFACE_STYLE_FILL_AREA ( #38 ) ;
#21 = AXIS2_PLACEMENT_3D ( 'NONE', #103, #125, #66 ) ;
#22 = VECTOR ( 'NONE', #172, 39.37007874015748854 ) ;
#23 = CYLINDRICAL_SURFACE ( 'NONE', #228, 0.1249999999999999167 ) ;
#24 = SURFACE_SIDE_STYLE ('',( #1 ) ) ;
#25 = CARTESIAN_POINT ( 'NONE',  ( -0.1250000000000001388, 2.500000000000000000, 0.000000000000000000 ) ) ;
#26 = CARTESIAN_POINT ( 'NONE',  ( 0.000000000000000000, 39.37007874015748143, 0.000000000000000000 ) ) ;
#27 = AXIS2_PLACEMENT_3D ( 'NONE', #4, #129, #211 ) ;
#28 = CARTESIAN_POINT ( 'NONE',  ( 2.347681869555226296E-16, 0.07216878364870282780, 0.000000000000000000 ) ) ;
#29 = PRESENTATION_LAYER_ASSIGNMENT (  '', '', ( #67 ) ) ;
#30 = VECTOR ( 'NONE', #90, 39.37007874015748143 ) ;
#31 = ORIENTED_EDGE ( 'NONE', *, *, #249, .F. ) ;
#32 = SURFACE_SIDE_STYLE ('',( #56 ) ) ;
#33 = VERTEX_POINT ( 'NONE', #210 ) ;
#34 =( CONVERSION_BASED_UNIT ( 'INCH', #12 ) LENGTH_UNIT ( ) NAMED_UNIT ( #112 ) );
#35 = CARTESIAN_POINT ( 'NONE',  ( 0.1250000000000000278, 0.07216878364870273066, 1.530808498934191201E-17 ) ) ;
#36 = STYLED_ITEM ( 'NONE', ( #159 ), #184 ) ;
#37 = CIRCLE ( 'NONE', #186, 0.1249999999999997780 ) ;
#38 = FILL_AREA_STYLE ('',( #221 ) ) ;
#39 = FACE_OUTER_BOUND ( 'NONE', #13, .T. ) ;
#40 =( NAMED_UNIT ( * ) PLANE_ANGLE_UNIT ( ) SI_UNIT ( $, .RADIAN. ) );
#41 = PRODUCT ( '06435', '06435', '', ( #213 ) ) ;
#42 =( CONVERSION_BASED_UNIT ( 'INCH', #140 ) LENGTH_UNIT ( ) NAMED_UNIT ( #252 ) );
#43 = PLANE ( 'NONE',  #45 ) ;
#44 = MECHANICAL_DESIGN_GEOMETRIC_PRESENTATION_REPRESENTATION (  '', ( #216 ), #149 ) ;
#45 = AXIS2_PLACEMENT_3D ( 'NONE', #80, #200, #98 ) ;
#46 = PRODUCT_RELATED_PRODUCT_CATEGORY ( 'part', '', ( #41 ) ) ;
#47 = FACE_OUTER_BOUND ( 'NONE', #51, .T. ) ;
#48 = UNCERTAINTY_MEASURE_WITH_UNIT (LENGTH_MEASURE( 1.000000000000000082E-05 ), #42, 'distance_accuracy_value', 'NONE');
#49 =( NAMED_UNIT ( * ) PLANE_ANGLE_UNIT ( ) SI_UNIT ( $, .RADIAN. ) );
#50 = APPLICATION_CONTEXT ( 'automotive_design' ) ;
#51 = EDGE_LOOP ( 'NONE', ( #261, #239, #92 ) ) ;
#52 = DIRECTION ( 'NONE',  ( 0.000000000000000000, 0.000000000000000000, 1.000000000000000000 ) ) ;
#53 = CONICAL_SURFACE ( 'NONE', #237, 68.19097667594041923, 1.047197551196600074 ) ;
#54 = MECHANICAL_DESIGN_GEOMETRIC_PRESENTATION_REPRESENTATION (  '', ( #36 ), #118 ) ;
#55 = FACE_OUTER_BOUND ( 'NONE', #199, .T. ) ;
#56 = SURFACE_STYLE_FILL_AREA ( #218 ) ;
#57 = VERTEX_POINT ( 'NONE', #25 ) ;
#58 = DIRECTION ( 'NONE',  ( -1.000000000000000000, 0.000000000000000000, 0.000000000000000000 ) ) ;
#59 =( GEOMETRIC_REPRESENTATION_CONTEXT ( 3 ) GLOBAL_UNCERTAINTY_ASSIGNED_CONTEXT ( ( #166 ) ) GLOBAL_UNIT_ASSIGNED_CONTEXT ( ( #126, #49, #9 ) ) REPRESENTATION_CONTEXT ( 'NONE', 'WORKASPACE' ) );
#60 = PRESENTATION_STYLE_ASSIGNMENT (( #202 ) ) ;
#61 = DIRECTION ( 'NONE',  ( -1.219197302182064860E-16, 1.000000000000000000, -0.000000000000000000 ) ) ;
#62 = CARTESIAN_POINT ( 'NONE',  ( -0.1249999999999999861, 2.500000000000000000, 0.000000000000000000 ) ) ;
#63 = VECTOR ( 'NONE', #209, 39.37007874015748143 ) ;
#64 = PRESENTATION_LAYER_ASSIGNMENT (  '', '', ( #203 ) ) ;
#65 = EDGE_CURVE ( 'NONE', #78, #33, #214, .T. ) ;
#66 = DIRECTION ( 'NONE',  ( -1.000000000000000000, -1.365923996832134074E-16, 0.000000000000000000 ) ) ;
#67 = STYLED_ITEM ( 'NONE', ( #109 ), #8 ) ;
#68 = ADVANCED_FACE ( 'NONE', ( #47 ), #53, .T. ) ;
#69 =( CONVERSION_BASED_UNIT ( 'INCH', #73 ) LENGTH_UNIT ( ) NAMED_UNIT ( #191 ) );
#70 = PRODUCT_DEFINITION ( 'UNKNOWN', '', #3, #104 ) ;
#71 = PLANE ( 'NONE',  #194 ) ;
#72 = EDGE_LOOP ( 'NONE', ( #76, #253 ) ) ;
#73 = LENGTH_MEASURE_WITH_UNIT ( LENGTH_MEASURE( 0.02539999999999999897 ), #251 );
#74 = STYLED_ITEM ( 'NONE', ( #60 ), #155 ) ;
#75 = ORIENTED_EDGE ( 'NONE', *, *, #207, .F. ) ;
#76 = ORIENTED_EDGE ( 'NONE', *, *, #245, .T. ) ;
#77 = DIRECTION ( 'NONE',  ( -1.219197302182064860E-16, 1.000000000000000000, -0.000000000000000000 ) ) ;
#78 = VERTEX_POINT ( 'NONE', #35 ) ;
#79 =( GEOMETRIC_REPRESENTATION_CONTEXT ( 3 ) GLOBAL_UNCERTAINTY_ASSIGNED_CONTEXT ( ( #208 ) ) GLOBAL_UNIT_ASSIGNED_CONTEXT ( ( #34, #110, #170 ) ) REPRESENTATION_CONTEXT ( 'NONE', 'WORKASPACE' ) );
#80 = CARTESIAN_POINT ( 'NONE',  ( 0.000000000000000000, 0.07216878364870282780, 0.000000000000000000 ) ) ;
#81 =( GEOMETRIC_REPRESENTATION_CONTEXT ( 3 ) GLOBAL_UNCERTAINTY_ASSIGNED_CONTEXT ( ( #48 ) ) GLOBAL_UNIT_ASSIGNED_CONTEXT ( ( #42, #40, #227 ) ) REPRESENTATION_CONTEXT ( 'NONE', 'WORKASPACE' ) );
#82 = EDGE_CURVE ( 'NONE', #78, #196, #173, .T. ) ;
#83 = LENGTH_MEASURE_WITH_UNIT ( LENGTH_MEASURE( 0.02539999999999999897 ), #5 );
#84 = COLOUR_RGB ( '',1.000000000000000000, 0.000000000000000000, 0.000000000000000000 ) ;
#85 = UNCERTAINTY_MEASURE_WITH_UNIT (LENGTH_MEASURE( 1.000000000000000082E-05 ), #222, 'distance_accuracy_value', 'NONE');
#86 = DIRECTION ( 'NONE',  ( -0.000000000000000000, -1.000000000000000000, -0.000000000000000000 ) ) ;
#87 = LINE ( 'NONE', #240, #22 ) ;
#88 = ORIENTED_EDGE ( 'NONE', *, *, #65, .F. ) ;
#89 = ORIENTED_EDGE ( 'NONE', *, *, #245, .F. ) ;
#90 = DIRECTION ( 'NONE',  ( -1.219197302182064860E-16, 1.000000000000000000, -0.000000000000000000 ) ) ;
#91 = DIMENSIONAL_EXPONENTS ( 1.000000000000000000, 0.000000000000000000, 0.000000000000000000, 0.000000000000000000, 0.000000000000000000, 0.000000000000000000, 0.000000000000000000 ) ;
#92 = ORIENTED_EDGE ( 'NONE', *, *, #207, .T. ) ;
#93 = FACE_OUTER_BOUND ( 'NONE', #132, .T. ) ;
#94 = ORIENTED_EDGE ( 'NONE', *, *, #82, .F. ) ;
#95 = SURFACE_STYLE_USAGE ( .BOTH. , #19 ) ;
#96 = APPLICATION_PROTOCOL_DEFINITION ( 'draft international standard', 'automotive_design', 1998, #224 ) ;
#97 = CONICAL_SURFACE ( 'NONE', #142, 68.19097667594041923, 1.047197551196600074 ) ;
#98 = DIRECTION ( 'NONE',  ( 0.000000000000000000, -0.000000000000000000, 1.000000000000000000 ) ) ;
#99 = EDGE_CURVE ( 'NONE', #148, #174, #87, .T. ) ;
#100 = UNCERTAINTY_MEASURE_WITH_UNIT (LENGTH_MEASURE( 1.000000000000000082E-05 ), #69, 'distance_accuracy_value', 'NONE');
#101 = DIRECTION ( 'NONE',  ( -0.000000000000000000, -1.000000000000000000, -0.000000000000000000 ) ) ;
#102 = DIRECTION ( 'NONE',  ( -1.000000000000000000, -1.365923996832134074E-16, 0.000000000000000000 ) ) ;
#103 = CARTESIAN_POINT ( 'NONE',  ( 2.347681869555226296E-16, 0.07216878364870271678, 0.000000000000000000 ) ) ;
#104 = PRODUCT_DEFINITION_CONTEXT ( 'detailed design', #224, 'design' ) ;
#105 = PRESENTATION_STYLE_ASSIGNMENT (( #7 ) ) ;
#106 = EDGE_CURVE ( 'NONE', #148, #17, #176, .T. ) ;
#107 = ADVANCED_BREP_SHAPE_REPRESENTATION ( '06435', ( #8, #184, #247 ), #59 ) ;
#108 = ADVANCED_FACE ( 'NONE', ( #153 ), #97, .T. ) ;
#109 = PRESENTATION_STYLE_ASSIGNMENT (( #130 ) ) ;
#110 =( NAMED_UNIT ( * ) PLANE_ANGLE_UNIT ( ) SI_UNIT ( $, .RADIAN. ) );
#111 = ORIENTED_EDGE ( 'NONE', *, *, #263, .F. ) ;
#112 = DIMENSIONAL_EXPONENTS ( 1.000000000000000000, 0.000000000000000000, 0.000000000000000000, 0.000000000000000000, 0.000000000000000000, 0.000000000000000000, 0.000000000000000000 ) ;
#113 = PLANE ( 'NONE',  #120 ) ;
#114 = EDGE_CURVE ( 'NONE', #196, #57, #193, .T. ) ;
#115 = ORIENTED_EDGE ( 'NONE', *, *, #249, .T. ) ;
#116 = FILL_AREA_STYLE_COLOUR ( '', #189 ) ;
#117 = DIRECTION ( 'NONE',  ( -1.000000000000000000, 0.000000000000000000, 0.000000000000000000 ) ) ;
#118 =( GEOMETRIC_REPRESENTATION_CONTEXT ( 3 ) GLOBAL_UNCERTAINTY_ASSIGNED_CONTEXT ( ( #85 ) ) GLOBAL_UNIT_ASSIGNED_CONTEXT ( ( #222, #182, #183 ) ) REPRESENTATION_CONTEXT ( 'NONE', 'WORKASPACE' ) );
#119 = LENGTH_MEASURE_WITH_UNIT ( LENGTH_MEASURE( 0.02539999999999999897 ), #264 );
#120 = AXIS2_PLACEMENT_3D ( 'NONE', #28, #192, #136 ) ;
#121 = SHAPE_DEFINITION_REPRESENTATION ( #206, #107 ) ;
#122 = DIRECTION ( 'NONE',  ( 1.219197302182064860E-16, -1.000000000000000000, 0.000000000000000000 ) ) ;
#123 = ADVANCED_FACE ( 'NONE', ( #55 ), #113, .F. ) ;
#124 = DIRECTION ( 'NONE',  ( 0.000000000000000000, 0.000000000000000000, -1.000000000000000000 ) ) ;
#125 = DIRECTION ( 'NONE',  ( -1.219197302182064860E-16, 1.000000000000000000, -0.000000000000000000 ) ) ;
#126 =( CONVERSION_BASED_UNIT ( 'INCH', #83 ) LENGTH_UNIT ( ) NAMED_UNIT ( #246 ) );
#127 = ADVANCED_FACE ( 'NONE', ( #171 ), #71, .F. ) ;
#128 = CARTESIAN_POINT ( 'NONE',  ( 0.1249999999999999861, 2.500000000000000000, 1.530808498934191201E-17 ) ) ;
#129 = DIRECTION ( 'NONE',  ( -1.219197302182064860E-16, 1.000000000000000000, -0.000000000000000000 ) ) ;
#130 = SURFACE_STYLE_USAGE ( .BOTH. , #11 ) ;
#131 = DIRECTION ( 'NONE',  ( 1.000000000000000000, 0.000000000000000000, 0.000000000000000000 ) ) ;
#132 = EDGE_LOOP ( 'NONE', ( #94, #259, #152, #234 ) ) ;
#133 = MECHANICAL_DESIGN_GEOMETRIC_PRESENTATION_REPRESENTATION (  '', ( #67 ), #179 ) ;
#134 = MECHANICAL_DESIGN_GEOMETRIC_PRESENTATION_REPRESENTATION (  '', ( #203 ), #79 ) ;
#135 = EDGE_LOOP ( 'NONE', ( #16, #217, #115 ) ) ;
#136 = DIRECTION ( 'NONE',  ( -1.000000000000000000, -1.219197302182064860E-16, 0.000000000000000000 ) ) ;
#137 =( LENGTH_UNIT ( ) NAMED_UNIT ( * ) SI_UNIT ( $, .METRE. ) );
#138 = AXIS2_PLACEMENT_3D ( 'NONE', #151, #254, #238 ) ;
#139 = CARTESIAN_POINT ( 'NONE',  ( 0.000000000000000000, 0.07216878364870282780, 0.1250000000000000000 ) ) ;
#140 = LENGTH_MEASURE_WITH_UNIT ( LENGTH_MEASURE( 0.02539999999999999897 ), #225 );
#141 = PRESENTATION_LAYER_ASSIGNMENT (  '', '', ( #74 ) ) ;
#142 = AXIS2_PLACEMENT_3D ( 'NONE', #212, #10, #52 ) ;
#143 = SURFACE_SIDE_STYLE ('',( #168 ) ) ;
#144 = CLOSED_SHELL ( 'NONE', ( #68, #155, #108 ) ) ;
#145 =( NAMED_UNIT ( * ) PLANE_ANGLE_UNIT ( ) SI_UNIT ( $, .RADIAN. ) );
#146 = APPLICATION_PROTOCOL_DEFINITION ( 'draft international standard', 'automotive_design', 1998, #50 ) ;
#147 = ORIENTED_EDGE ( 'NONE', *, *, #263, .T. ) ;
#148 = VERTEX_POINT ( 'NONE', #205 ) ;
#149 =( GEOMETRIC_REPRESENTATION_CONTEXT ( 3 ) GLOBAL_UNCERTAINTY_ASSIGNED_CONTEXT ( ( #100 ) ) GLOBAL_UNIT_ASSIGNED_CONTEXT ( ( #69, #145, #233 ) ) REPRESENTATION_CONTEXT ( 'NONE', 'WORKASPACE' ) );
#150 = AXIS2_PLACEMENT_3D ( 'NONE', #158, #86, #124 ) ;
#151 = CARTESIAN_POINT ( 'NONE',  ( -6.123233995736766036E-17, 2.500000000000000000, 0.000000000000000000 ) ) ;
#152 = ORIENTED_EDGE ( 'NONE', *, *, #18, .T. ) ;
#153 = FACE_OUTER_BOUND ( 'NONE', #135, .T. ) ;
#154 = SURFACE_STYLE_FILL_AREA ( #177 ) ;
#155 = ADVANCED_FACE ( 'NONE', ( #178 ), #43, .T. ) ;
#156 = CYLINDRICAL_SURFACE ( 'NONE', #231, 0.1249999999999999167 ) ;
#157 =( NAMED_UNIT ( * ) SI_UNIT ( $, .STERADIAN. ) SOLID_ANGLE_UNIT ( ) );
#158 = CARTESIAN_POINT ( 'NONE',  ( 0.000000000000000000, 0.07216878364870282780, 0.000000000000000000 ) ) ;
#159 = PRESENTATION_STYLE_ASSIGNMENT (( #95 ) ) ;
#160 = ADVANCED_FACE ( 'NONE', ( #93 ), #23, .T. ) ;
#161 = FILL_AREA_STYLE ('',( #116 ) ) ;
#162 = CARTESIAN_POINT ( 'NONE',  ( 2.347681869555226296E-16, 0.07216878364870271678, 0.000000000000000000 ) ) ;
#163 = COLOUR_RGB ( '',1.000000000000000000, 0.000000000000000000, 0.000000000000000000 ) ;
#164 = COLOUR_RGB ( '',0.7921568627450980005, 0.8196078431372548767, 0.9333333333333333481 ) ;
#165 = FILL_AREA_STYLE ('',( #188 ) ) ;
#166 = UNCERTAINTY_MEASURE_WITH_UNIT (LENGTH_MEASURE( 1.000000000000000082E-05 ), #126, 'distance_accuracy_value', 'NONE');
#167 = DIRECTION ( 'NONE',  ( 0.000000000000000000, 0.000000000000000000, -1.000000000000000000 ) ) ;
#168 = SURFACE_STYLE_FILL_AREA ( #165 ) ;
#169 = ADVANCED_FACE ( 'NONE', ( #39 ), #156, .T. ) ;
#170 =( NAMED_UNIT ( * ) SI_UNIT ( $, .STERADIAN. ) SOLID_ANGLE_UNIT ( ) );
#171 = FACE_OUTER_BOUND ( 'NONE', #72, .T. ) ;
#172 = DIRECTION ( 'NONE',  ( 0.000000000000000000, 0.4999999999999979461, 0.8660254037844397068 ) ) ;
#173 = LINE ( 'NONE', #197, #30 ) ;
#174 = VERTEX_POINT ( 'NONE', #139 ) ;
#175 = CARTESIAN_POINT ( 'NONE',  ( 0.000000000000000000, 0.000000000000000000, 0.000000000000000000 ) ) ;
#176 = LINE ( 'NONE', #260, #204 ) ;
#177 = FILL_AREA_STYLE ('',( #219 ) ) ;
#178 = FACE_OUTER_BOUND ( 'NONE', #15, .T. ) ;
#179 =( GEOMETRIC_REPRESENTATION_CONTEXT ( 3 ) GLOBAL_UNCERTAINTY_ASSIGNED_CONTEXT ( ( #185 ) ) GLOBAL_UNIT_ASSIGNED_CONTEXT ( ( #243, #2, #157 ) ) REPRESENTATION_CONTEXT ( 'NONE', 'WORKASPACE' ) );
#180 = PRESENTATION_LAYER_ASSIGNMENT (  '', '', ( #216 ) ) ;
#181 = AXIS2_PLACEMENT_3D ( 'NONE', #230, #101, #167 ) ;
#182 =( NAMED_UNIT ( * ) PLANE_ANGLE_UNIT ( ) SI_UNIT ( $, .RADIAN. ) );
#183 =( NAMED_UNIT ( * ) SI_UNIT ( $, .STERADIAN. ) SOLID_ANGLE_UNIT ( ) );
#184 = MANIFOLD_SOLID_BREP ( 'Revolve - Tool Body (Pointed)', #187 ) ;
#185 = UNCERTAINTY_MEASURE_WITH_UNIT (LENGTH_MEASURE( 1.000000000000000082E-05 ), #243, 'distance_accuracy_value', 'NONE');
#186 = AXIS2_PLACEMENT_3D ( 'NONE', #162, #61, #102 ) ;
#187 = CLOSED_SHELL ( 'NONE', ( #169, #123, #160, #127 ) ) ;
#188 = FILL_AREA_STYLE_COLOUR ( '', #163 ) ;
#189 = COLOUR_RGB ( '',1.000000000000000000, 0.000000000000000000, 0.000000000000000000 ) ;
#190 = CARTESIAN_POINT ( 'NONE',  ( 1.530808498934191509E-17, 0.07216878364870282780, -0.1250000000000000000 ) ) ;
#191 = DIMENSIONAL_EXPONENTS ( 1.000000000000000000, 0.000000000000000000, 0.000000000000000000, 0.000000000000000000, 0.000000000000000000, 0.000000000000000000, 0.000000000000000000 ) ;
#192 = DIRECTION ( 'NONE',  ( -1.219197302182064860E-16, 1.000000000000000000, 0.000000000000000000 ) ) ;
#193 = CIRCLE ( 'NONE', #138, 0.1250000000000000555 ) ;
#194 = AXIS2_PLACEMENT_3D ( 'NONE', #220, #122, #244 ) ;
#195 = DIRECTION ( 'NONE',  ( 1.060575238724908024E-16, 0.4999999999999979461, -0.8660254037844397068 ) ) ;
#196 = VERTEX_POINT ( 'NONE', #128 ) ;
#197 = CARTESIAN_POINT ( 'NONE',  ( 0.1249999999999998473, 2.500000000000000000, 1.530808498934190276E-17 ) ) ;
#198 = DIRECTION ( 'NONE',  ( 0.000000000000000000, 1.000000000000000000, 0.000000000000000000 ) ) ;
#199 = EDGE_LOOP ( 'NONE', ( #111, #88 ) ) ;
#200 = DIRECTION ( 'NONE',  ( 0.000000000000000000, 1.000000000000000000, 0.000000000000000000 ) ) ;
#201 = ORIENTED_EDGE ( 'NONE', *, *, #82, .T. ) ;
#202 = SURFACE_STYLE_USAGE ( .BOTH. , #24 ) ;
#203 = STYLED_ITEM ( 'NONE', ( #229 ), #68 ) ;
#204 = VECTOR ( 'NONE', #195, 39.37007874015748854 ) ;
#205 = CARTESIAN_POINT ( 'NONE',  ( 0.000000000000000000, 0.000000000000000000, 0.000000000000000000 ) ) ;
#206 = PRODUCT_DEFINITION_SHAPE ( 'NONE', 'NONE',  #70 ) ;
#207 = EDGE_CURVE ( 'NONE', #17, #174, #6, .T. ) ;
#208 = UNCERTAINTY_MEASURE_WITH_UNIT (LENGTH_MEASURE( 1.000000000000000082E-05 ), #34, 'distance_accuracy_value', 'NONE');
#209 = DIRECTION ( 'NONE',  ( -1.219197302182064860E-16, 1.000000000000000000, -0.000000000000000000 ) ) ;
#210 = CARTESIAN_POINT ( 'NONE',  ( -0.1249999999999995420, 0.07216878364870270290, 0.000000000000000000 ) ) ;
#211 = DIRECTION ( 'NONE',  ( -1.000000000000000000, 0.000000000000000000, 0.000000000000000000 ) ) ;
#212 = CARTESIAN_POINT ( 'NONE',  ( 0.000000000000000000, 39.37007874015748143, 0.000000000000000000 ) ) ;
#213 = PRODUCT_CONTEXT ( 'NONE', #50, 'mechanical' ) ;
#214 = CIRCLE ( 'NONE', #21, 0.1249999999999997780 ) ;
#215 = DIRECTION ( 'NONE',  ( 0.000000000000000000, 0.000000000000000000, 1.000000000000000000 ) ) ;
#216 = STYLED_ITEM ( 'NONE', ( #105 ), #108 ) ;
#217 = ORIENTED_EDGE ( 'NONE', *, *, #99, .T. ) ;
#218 = FILL_AREA_STYLE ('',( #256 ) ) ;
#219 = FILL_AREA_STYLE_COLOUR ( '', #250 ) ;
#220 = CARTESIAN_POINT ( 'NONE',  ( 0.1250000000000000000, 2.500000000000000000, 0.000000000000000000 ) ) ;
#221 = FILL_AREA_STYLE_COLOUR ( '', #164 ) ;
#222 =( CONVERSION_BASED_UNIT ( 'INCH', #119 ) LENGTH_UNIT ( ) NAMED_UNIT ( #14 ) );
#223 = DIRECTION ( 'NONE',  ( -1.219197302182064860E-16, 1.000000000000000000, -0.000000000000000000 ) ) ;
#224 = APPLICATION_CONTEXT ( 'automotive_design' ) ;
#225 =( LENGTH_UNIT ( ) NAMED_UNIT ( * ) SI_UNIT ( $, .METRE. ) );
#226 = LENGTH_MEASURE_WITH_UNIT ( LENGTH_MEASURE( 0.02539999999999999897 ), #241 );
#227 =( NAMED_UNIT ( * ) SI_UNIT ( $, .STERADIAN. ) SOLID_ANGLE_UNIT ( ) );
#228 = AXIS2_PLACEMENT_3D ( 'NONE', #262, #77, #117 ) ;
#229 = PRESENTATION_STYLE_ASSIGNMENT (( #248 ) ) ;
#230 = CARTESIAN_POINT ( 'NONE',  ( 0.000000000000000000, 0.07216878364870282780, 0.000000000000000000 ) ) ;
#231 = AXIS2_PLACEMENT_3D ( 'NONE', #242, #223, #58 ) ;
#232 = MECHANICAL_DESIGN_GEOMETRIC_PRESENTATION_REPRESENTATION (  '', ( #74 ), #81 ) ;
#233 =( NAMED_UNIT ( * ) SI_UNIT ( $, .STERADIAN. ) SOLID_ANGLE_UNIT ( ) );
#234 = ORIENTED_EDGE ( 'NONE', *, *, #114, .F. ) ;
#235 = DIRECTION ( 'NONE',  ( 0.000000000000000000, 0.000000000000000000, 1.000000000000000000 ) ) ;
#236 = ORIENTED_EDGE ( 'NONE', *, *, #18, .F. ) ;
#237 = AXIS2_PLACEMENT_3D ( 'NONE', #26, #198, #215 ) ;
#238 = DIRECTION ( 'NONE',  ( -1.000000000000000000, 0.000000000000000000, 0.000000000000000000 ) ) ;
#239 = ORIENTED_EDGE ( 'NONE', *, *, #106, .T. ) ;
#240 = CARTESIAN_POINT ( 'NONE',  ( 0.000000000000000000, 0.000000000000000000, 0.000000000000000000 ) ) ;
#241 =( LENGTH_UNIT ( ) NAMED_UNIT ( * ) SI_UNIT ( $, .METRE. ) );
#242 = CARTESIAN_POINT ( 'NONE',  ( -6.123233995736766036E-17, 2.500000000000000000, 0.000000000000000000 ) ) ;
#243 =( CONVERSION_BASED_UNIT ( 'INCH', #226 ) LENGTH_UNIT ( ) NAMED_UNIT ( #91 ) );
#244 = DIRECTION ( 'NONE',  ( 1.000000000000000000, 1.219197302182064860E-16, 0.000000000000000000 ) ) ;
#245 = EDGE_CURVE ( 'NONE', #57, #196, #257, .T. ) ;
#246 = DIMENSIONAL_EXPONENTS ( 1.000000000000000000, 0.000000000000000000, 0.000000000000000000, 0.000000000000000000, 0.000000000000000000, 0.000000000000000000, 0.000000000000000000 ) ;
#247 = AXIS2_PLACEMENT_3D ( 'NONE', #175, #235, #131 ) ;
#248 = SURFACE_STYLE_USAGE ( .BOTH. , #143 ) ;
#249 = EDGE_CURVE ( 'NONE', #174, #17, #258, .T. ) ;
#250 = COLOUR_RGB ( '',0.7921568627450980005, 0.8196078431372548767, 0.9333333333333333481 ) ;
#251 =( LENGTH_UNIT ( ) NAMED_UNIT ( * ) SI_UNIT ( $, .METRE. ) );
#252 = DIMENSIONAL_EXPONENTS ( 1.000000000000000000, 0.000000000000000000, 0.000000000000000000, 0.000000000000000000, 0.000000000000000000, 0.000000000000000000, 0.000000000000000000 ) ;
#253 = ORIENTED_EDGE ( 'NONE', *, *, #114, .T. ) ;
#254 = DIRECTION ( 'NONE',  ( -1.219197302182064860E-16, 1.000000000000000000, -0.000000000000000000 ) ) ;
#255 = LINE ( 'NONE', #62, #63 ) ;
#256 = FILL_AREA_STYLE_COLOUR ( '', #84 ) ;
#257 = CIRCLE ( 'NONE', #27, 0.1250000000000000555 ) ;
#258 = CIRCLE ( 'NONE', #181, 0.1249999999999999861 ) ;
#259 = ORIENTED_EDGE ( 'NONE', *, *, #65, .T. ) ;
#260 = CARTESIAN_POINT ( 'NONE',  ( 0.000000000000000000, 0.000000000000000000, 0.000000000000000000 ) ) ;
#261 = ORIENTED_EDGE ( 'NONE', *, *, #99, .F. ) ;
#262 = CARTESIAN_POINT ( 'NONE',  ( -6.123233995736766036E-17, 2.500000000000000000, 0.000000000000000000 ) ) ;
#263 = EDGE_CURVE ( 'NONE', #33, #78, #37, .T. ) ;
#264 =( LENGTH_UNIT ( ) NAMED_UNIT ( * ) SI_UNIT ( $, .METRE. ) );
#265 = PRESENTATION_LAYER_ASSIGNMENT (  '', '', ( #36 ) ) ;
ENDSEC;
END-ISO-10303-21;
