ISO-10303-21;
HEADER;
FILE_DESCRIPTION (( 'STEP AP214' ),
    '1' );
FILE_NAME ('59803.STEP',
    '2023-07-24T15:42:11',
    ( '' ),
    ( '' ),
    'SwSTEP 2.0',
    'SolidWorks 2023',
    '' );
FILE_SCHEMA (( 'AUTOMOTIVE_DESIGN' ));
ENDSEC;

DATA;
#1 = SURFACE_STYLE_FILL_AREA ( #155 ) ;
#2 = ADVANCED_BREP_SHAPE_REPRESENTATION ( '59803', ( #14, #133, #278 ), #225 ) ;
#3 = CYLINDRICAL_SURFACE ( 'NONE', #332, 4.000000000000000000 ) ;
#4 = CIRCLE ( 'NONE', #141, 3.500000000000000000 ) ;
#5 = TOROIDAL_SURFACE ( 'NONE', #364, 3.500000000000000000, 0.5000000000000000000 ) ;
#6 = ORIENTED_EDGE ( 'NONE', *, *, #91, .T. ) ;
#7 = APPLICATION_PROTOCOL_DEFINITION ( 'draft international standard', 'automotive_design', 1998, #105 ) ;
#8 = ADVANCED_FACE ( 'NONE', ( #128 ), #76, .T. ) ;
#9 = AXIS2_PLACEMENT_3D ( 'NONE', #176, #262, #362 ) ;
#10 = DIRECTION ( 'NONE',  ( 0.000000000000000000, 0.000000000000000000, 1.000000000000000000 ) ) ;
#11 = UNCERTAINTY_MEASURE_WITH_UNIT (LENGTH_MEASURE( 1.000000000000000082E-05 ), #334, 'distance_accuracy_value', 'NONE');
#12 = ORIENTED_EDGE ( 'NONE', *, *, #199, .F. ) ;
#13 = DIRECTION ( 'NONE',  ( 0.000000000000000000, 0.000000000000000000, -1.000000000000000000 ) ) ;
#14 = MANIFOLD_SOLID_BREP ( 'Revolve - Cutting Edge', #72 ) ;
#15 = COLOUR_RGB ( '',1.000000000000000000, 0.000000000000000000, 0.000000000000000000 ) ;
#16 = AXIS2_PLACEMENT_3D ( 'NONE', #98, #153, #208 ) ;
#17 = CARTESIAN_POINT ( 'NONE',  ( 0.000000000000000000, 0.000000000000000000, 0.000000000000000000 ) ) ;
#18 = ORIENTED_EDGE ( 'NONE', *, *, #284, .T. ) ;
#19 = DIRECTION ( 'NONE',  ( -1.223542297630008506E-16, 1.000000000000000000, -0.000000000000000000 ) ) ;
#20 = CARTESIAN_POINT ( 'NONE',  ( -1.469576158976823750E-15, 75.00000000000000000, 0.000000000000000000 ) ) ;
#21 = AXIS2_PLACEMENT_3D ( 'NONE', #107, #346, #138 ) ;
#22 = CIRCLE ( 'NONE', #16, 4.000000000000000000 ) ;
#23 = CARTESIAN_POINT ( 'NONE',  ( 0.000000000000000000, 24.00000000000000000, -4.000000000000000000 ) ) ;
#24 = EDGE_LOOP ( 'NONE', ( #12, #120, #297, #236 ) ) ;
#25 = CYLINDRICAL_SURFACE ( 'NONE', #198, 3.999999999999998224 ) ;
#26 = EDGE_CURVE ( 'NONE', #350, #131, #367, .T. ) ;
#27 = SURFACE_SIDE_STYLE ('',( #343 ) ) ;
#28 = AXIS2_PLACEMENT_3D ( 'NONE', #54, #218, #59 ) ;
#29 = EDGE_LOOP ( 'NONE', ( #220, #124, #272, #282 ) ) ;
#30 =( NAMED_UNIT ( * ) PLANE_ANGLE_UNIT ( ) SI_UNIT ( $, .RADIAN. ) );
#31 = EDGE_LOOP ( 'NONE', ( #201, #270 ) ) ;
#32 = FILL_AREA_STYLE_COLOUR ( '', #173 ) ;
#33 = SURFACE_STYLE_FILL_AREA ( #211 ) ;
#34 = DIRECTION ( 'NONE',  ( -0.000000000000000000, -1.000000000000000000, -0.000000000000000000 ) ) ;
#35 = UNCERTAINTY_MEASURE_WITH_UNIT (LENGTH_MEASURE( 1.000000000000000082E-05 ), #108, 'distance_accuracy_value', 'NONE');
#36 = VECTOR ( 'NONE', #19, 1000.000000000000000 ) ;
#37 = EDGE_LOOP ( 'NONE', ( #163, #6, #316, #292 ) ) ;
#38 = EDGE_CURVE ( 'NONE', #69, #57, #197, .T. ) ;
#39 =( NAMED_UNIT ( * ) SI_UNIT ( $, .STERADIAN. ) SOLID_ANGLE_UNIT ( ) );
#40 = SURFACE_STYLE_USAGE ( .BOTH. , #196 ) ;
#41 = MECHANICAL_DESIGN_GEOMETRIC_PRESENTATION_REPRESENTATION (  '', ( #66 ), #51 ) ;
#42 = CIRCLE ( 'NONE', #363, 4.000000000000000000 ) ;
#43 = AXIS2_PLACEMENT_3D ( 'NONE', #142, #259, #226 ) ;
#44 = EDGE_CURVE ( 'NONE', #206, #131, #42, .T. ) ;
#45 =( NAMED_UNIT ( * ) SI_UNIT ( $, .STERADIAN. ) SOLID_ANGLE_UNIT ( ) );
#46 = COLOUR_RGB ( '',1.000000000000000000, 0.000000000000000000, 0.000000000000000000 ) ;
#47 = CYLINDRICAL_SURFACE ( 'NONE', #304, 3.999999999999998224 ) ;
#48 = CARTESIAN_POINT ( 'NONE',  ( 4.000000000000000000, 75.00000000000000000, 0.000000000000000000 ) ) ;
#49 = FACE_OUTER_BOUND ( 'NONE', #24, .T. ) ;
#50 = ORIENTED_EDGE ( 'NONE', *, *, #207, .T. ) ;
#51 =( GEOMETRIC_REPRESENTATION_CONTEXT ( 3 ) GLOBAL_UNCERTAINTY_ASSIGNED_CONTEXT ( ( #172 ) ) GLOBAL_UNIT_ASSIGNED_CONTEXT ( ( #263, #30, #242 ) ) REPRESENTATION_CONTEXT ( 'NONE', 'WORKASPACE' ) );
#52 = EDGE_CURVE ( 'NONE', #74, #249, #110, .T. ) ;
#53 = EDGE_LOOP ( 'NONE', ( #116, #171 ) ) ;
#54 = CARTESIAN_POINT ( 'NONE',  ( -1.469576158976823750E-15, 75.00000000000000000, 0.000000000000000000 ) ) ;
#55 = CARTESIAN_POINT ( 'NONE',  ( 0.000000000000000000, 0.5000000000000000000, 0.000000000000000000 ) ) ;
#56 = FILL_AREA_STYLE ('',( #283 ) ) ;
#57 = VERTEX_POINT ( 'NONE', #319 ) ;
#58 =( GEOMETRIC_REPRESENTATION_CONTEXT ( 3 ) GLOBAL_UNCERTAINTY_ASSIGNED_CONTEXT ( ( #219 ) ) GLOBAL_UNIT_ASSIGNED_CONTEXT ( ( #353, #331, #45 ) ) REPRESENTATION_CONTEXT ( 'NONE', 'WORKASPACE' ) );
#59 = DIRECTION ( 'NONE',  ( -1.000000000000000000, 0.000000000000000000, 0.000000000000000000 ) ) ;
#60 = ORIENTED_EDGE ( 'NONE', *, *, #26, .F. ) ;
#61 = FACE_OUTER_BOUND ( 'NONE', #37, .T. ) ;
#62 = PRESENTATION_STYLE_ASSIGNMENT (( #248 ) ) ;
#63 = CARTESIAN_POINT ( 'NONE',  ( 0.000000000000000000, 0.000000000000000000, 0.000000000000000000 ) ) ;
#64 = AXIS2_PLACEMENT_3D ( 'NONE', #344, #250, #318 ) ;
#65 = PRODUCT ( '59803', '59803', '', ( #114 ) ) ;
#66 = STYLED_ITEM ( 'NONE', ( #100 ), #8 ) ;
#67 = CIRCLE ( 'NONE', #64, 3.500000000000000000 ) ;
#68 = DIRECTION ( 'NONE',  ( -0.000000000000000000, -1.000000000000000000, -0.000000000000000000 ) ) ;
#69 = VERTEX_POINT ( 'NONE', #222 ) ;
#70 = CARTESIAN_POINT ( 'NONE',  ( 4.898587196589412829E-16, 24.00000000000000000, 4.000000000000000000 ) ) ;
#71 = CARTESIAN_POINT ( 'NONE',  ( 3.999999999999996447, 75.00000000000000000, 4.898587196589410857E-16 ) ) ;
#72 = CLOSED_SHELL ( 'NONE', ( #324, #342, #166, #307, #96, #8 ) ) ;
#73 = MECHANICAL_DESIGN_GEOMETRIC_PRESENTATION_REPRESENTATION (  '', ( #256 ), #289 ) ;
#74 = VERTEX_POINT ( 'NONE', #253 ) ;
#75 = SURFACE_STYLE_FILL_AREA ( #146 ) ;
#76 = PLANE ( 'NONE',  #21 ) ;
#77 =( NAMED_UNIT ( * ) PLANE_ANGLE_UNIT ( ) SI_UNIT ( $, .RADIAN. ) );
#78 = PRODUCT_RELATED_PRODUCT_CATEGORY ( 'part', '', ( #65 ) ) ;
#79 = STYLED_ITEM ( 'NONE', ( #327 ), #133 ) ;
#80 = SURFACE_STYLE_USAGE ( .BOTH. , #27 ) ;
#81 = ORIENTED_EDGE ( 'NONE', *, *, #284, .F. ) ;
#82 = FACE_OUTER_BOUND ( 'NONE', #209, .T. ) ;
#83 = FACE_OUTER_BOUND ( 'NONE', #223, .T. ) ;
#84 = SURFACE_SIDE_STYLE ('',( #1 ) ) ;
#85 = CARTESIAN_POINT ( 'NONE',  ( -1.469576158976823750E-15, 75.00000000000000000, 0.000000000000000000 ) ) ;
#86 =( GEOMETRIC_REPRESENTATION_CONTEXT ( 3 ) GLOBAL_UNCERTAINTY_ASSIGNED_CONTEXT ( ( #11 ) ) GLOBAL_UNIT_ASSIGNED_CONTEXT ( ( #334, #308, #359 ) ) REPRESENTATION_CONTEXT ( 'NONE', 'WORKASPACE' ) );
#87 = CARTESIAN_POINT ( 'NONE',  ( 4.286263797015736595E-16, 0.5000000000000000000, 3.500000000000000000 ) ) ;
#88 = PRESENTATION_LAYER_ASSIGNMENT (  '', '', ( #246 ) ) ;
#89 = CARTESIAN_POINT ( 'NONE',  ( -1.469576158976823750E-15, 75.00000000000000000, 0.000000000000000000 ) ) ;
#90 = UNCERTAINTY_MEASURE_WITH_UNIT (LENGTH_MEASURE( 1.000000000000000082E-05 ), #351, 'distance_accuracy_value', 'NONE');
#91 = EDGE_CURVE ( 'NONE', #206, #301, #117, .T. ) ;
#92 =( LENGTH_UNIT ( ) NAMED_UNIT ( * ) SI_UNIT ( .MILLI., .METRE. ) );
#93 =( NAMED_UNIT ( * ) PLANE_ANGLE_UNIT ( ) SI_UNIT ( $, .RADIAN. ) );
#94 = PRESENTATION_LAYER_ASSIGNMENT (  '', '', ( #122 ) ) ;
#95 = DIRECTION ( 'NONE',  ( -1.223542297630008506E-16, 1.000000000000000000, -0.000000000000000000 ) ) ;
#96 = ADVANCED_FACE ( 'NONE', ( #83 ), #3, .T. ) ;
#97 = SURFACE_STYLE_USAGE ( .BOTH. , #238 ) ;
#98 = CARTESIAN_POINT ( 'NONE',  ( 0.000000000000000000, 24.00000000000000000, 0.000000000000000000 ) ) ;
#99 = AXIS2_PLACEMENT_3D ( 'NONE', #227, #326, #325 ) ;
#100 = PRESENTATION_STYLE_ASSIGNMENT (( #365 ) ) ;
#101 = DIRECTION ( 'NONE',  ( -0.000000000000000000, -1.000000000000000000, -0.000000000000000000 ) ) ;
#102 = CARTESIAN_POINT ( 'NONE',  ( 0.000000000000000000, 0.5000000000000000000, 0.000000000000000000 ) ) ;
#103 = EDGE_CURVE ( 'NONE', #269, #301, #4, .T. ) ;
#104 = STYLED_ITEM ( 'NONE', ( #203 ), #166 ) ;
#105 = APPLICATION_CONTEXT ( 'automotive_design' ) ;
#106 = SURFACE_STYLE_USAGE ( .BOTH. , #132 ) ;
#107 = CARTESIAN_POINT ( 'NONE',  ( 0.000000000000000000, 24.00000000000000000, 0.000000000000000000 ) ) ;
#108 =( LENGTH_UNIT ( ) NAMED_UNIT ( * ) SI_UNIT ( .MILLI., .METRE. ) );
#109 =( NAMED_UNIT ( * ) PLANE_ANGLE_UNIT ( ) SI_UNIT ( $, .RADIAN. ) );
#110 = CIRCLE ( 'NONE', #28, 4.000000000000001776 ) ;
#111 =( LENGTH_UNIT ( ) NAMED_UNIT ( * ) SI_UNIT ( .MILLI., .METRE. ) );
#112 = EDGE_CURVE ( 'NONE', #249, #74, #267, .T. ) ;
#113 = ORIENTED_EDGE ( 'NONE', *, *, #258, .F. ) ;
#114 = PRODUCT_CONTEXT ( 'NONE', #105, 'mechanical' ) ;
#115 = DIRECTION ( 'NONE',  ( 0.000000000000000000, 0.000000000000000000, -1.000000000000000000 ) ) ;
#116 = ORIENTED_EDGE ( 'NONE', *, *, #235, .F. ) ;
#117 = CIRCLE ( 'NONE', #260, 0.5000000000000000000 ) ;
#118 = CARTESIAN_POINT ( 'NONE',  ( 4.770489558936219510E-15, 24.00000000000000000, 0.000000000000000000 ) ) ;
#119 = ORIENTED_EDGE ( 'NONE', *, *, #26, .T. ) ;
#120 = ORIENTED_EDGE ( 'NONE', *, *, #38, .T. ) ;
#121 = MECHANICAL_DESIGN_GEOMETRIC_PRESENTATION_REPRESENTATION (  '', ( #275 ), #254 ) ;
#122 = STYLED_ITEM ( 'NONE', ( #161 ), #96 ) ;
#123 = DIRECTION ( 'NONE',  ( -1.223542297630008506E-16, 1.000000000000000000, 0.000000000000000000 ) ) ;
#124 = ORIENTED_EDGE ( 'NONE', *, *, #199, .T. ) ;
#125 = LINE ( 'NONE', #71, #36 ) ;
#126 = ORIENTED_EDGE ( 'NONE', *, *, #103, .T. ) ;
#127 = DIRECTION ( 'NONE',  ( -1.000000000000000000, -1.223542297630008506E-16, 0.000000000000000000 ) ) ;
#128 = FACE_OUTER_BOUND ( 'NONE', #53, .T. ) ;
#129 = DIRECTION ( 'NONE',  ( -1.223542297630008506E-16, 1.000000000000000000, -0.000000000000000000 ) ) ;
#130 = FILL_AREA_STYLE_COLOUR ( '', #229 ) ;
#131 = VERTEX_POINT ( 'NONE', #204 ) ;
#132 = SURFACE_SIDE_STYLE ('',( #183 ) ) ;
#133 = MANIFOLD_SOLID_BREP ( 'Revolve - Tool Body (Straight Shanked)', #245 ) ;
#134 = CYLINDRICAL_SURFACE ( 'NONE', #234, 4.000000000000000000 ) ;
#135 = PRESENTATION_LAYER_ASSIGNMENT (  '', '', ( #79 ) ) ;
#136 = PRESENTATION_LAYER_ASSIGNMENT (  '', '', ( #309 ) ) ;
#137 =( NAMED_UNIT ( * ) SI_UNIT ( $, .STERADIAN. ) SOLID_ANGLE_UNIT ( ) );
#138 = DIRECTION ( 'NONE',  ( 0.000000000000000000, -0.000000000000000000, 1.000000000000000000 ) ) ;
#139 = DIRECTION ( 'NONE',  ( -0.000000000000000000, -1.000000000000000000, -0.000000000000000000 ) ) ;
#140 = ADVANCED_FACE ( 'NONE', ( #200 ), #311, .F. ) ;
#141 = AXIS2_PLACEMENT_3D ( 'NONE', #167, #34, #115 ) ;
#142 = CARTESIAN_POINT ( 'NONE',  ( 0.000000000000000000, 24.00000000000000000, 0.000000000000000000 ) ) ;
#143 = EDGE_LOOP ( 'NONE', ( #261, #279 ) ) ;
#144 = MECHANICAL_DESIGN_GEOMETRIC_PRESENTATION_REPRESENTATION (  '', ( #122 ), #191 ) ;
#145 = EDGE_CURVE ( 'NONE', #57, #69, #185, .T. ) ;
#146 = FILL_AREA_STYLE ('',( #335 ) ) ;
#147 = DIRECTION ( 'NONE',  ( 1.223542297630008506E-16, -1.000000000000000000, 0.000000000000000000 ) ) ;
#148 = VECTOR ( 'NONE', #139, 1000.000000000000000 ) ;
#149 = PRESENTATION_LAYER_ASSIGNMENT (  '', '', ( #104 ) ) ;
#150 = PRESENTATION_LAYER_ASSIGNMENT (  '', '', ( #256 ) ) ;
#151 = DIRECTION ( 'NONE',  ( -1.000000000000000000, 0.000000000000000000, 0.000000000000000000 ) ) ;
#152 = CARTESIAN_POINT ( 'NONE',  ( 0.000000000000000000, 0.5000000000000000000, 0.000000000000000000 ) ) ;
#153 = DIRECTION ( 'NONE',  ( -0.000000000000000000, -1.000000000000000000, -0.000000000000000000 ) ) ;
#154 = CARTESIAN_POINT ( 'NONE',  ( 4.592425496802573972E-16, 0.000000000000000000, 3.500000000000000000 ) ) ;
#155 = FILL_AREA_STYLE ('',( #32 ) ) ;
#156 =( NAMED_UNIT ( * ) PLANE_ANGLE_UNIT ( ) SI_UNIT ( $, .RADIAN. ) );
#157 = SURFACE_SIDE_STYLE ('',( #291 ) ) ;
#158 = FILL_AREA_STYLE_COLOUR ( '', #328 ) ;
#159 = AXIS2_PLACEMENT_3D ( 'NONE', #48, #147, #361 ) ;
#160 = DIRECTION ( 'NONE',  ( -1.223542297630008506E-16, 1.000000000000000000, -0.000000000000000000 ) ) ;
#161 = PRESENTATION_STYLE_ASSIGNMENT (( #214 ) ) ;
#162 = FILL_AREA_STYLE ('',( #158 ) ) ;
#163 = ORIENTED_EDGE ( 'NONE', *, *, #264, .T. ) ;
#164 = SURFACE_SIDE_STYLE ('',( #33 ) ) ;
#165 = ORIENTED_EDGE ( 'NONE', *, *, #44, .T. ) ;
#166 = ADVANCED_FACE ( 'NONE', ( #340 ), #268, .T. ) ;
#167 = CARTESIAN_POINT ( 'NONE',  ( 0.000000000000000000, 0.000000000000000000, 0.000000000000000000 ) ) ;
#168 = PRODUCT_DEFINITION_CONTEXT ( 'detailed design', #310, 'design' ) ;
#169 = CARTESIAN_POINT ( 'NONE',  ( 0.000000000000000000, 0.000000000000000000, 0.000000000000000000 ) ) ;
#170 = AXIS2_PLACEMENT_3D ( 'NONE', #17, #178, #13 ) ;
#171 = ORIENTED_EDGE ( 'NONE', *, *, #368, .F. ) ;
#172 = UNCERTAINTY_MEASURE_WITH_UNIT (LENGTH_MEASURE( 1.000000000000000082E-05 ), #263, 'distance_accuracy_value', 'NONE');
#173 = COLOUR_RGB ( '',1.000000000000000000, 0.000000000000000000, 0.000000000000000000 ) ;
#174 = PLANE ( 'NONE',  #299 ) ;
#175 = PRODUCT_DEFINITION ( 'UNKNOWN', '', #315, #168 ) ;
#176 = CARTESIAN_POINT ( 'NONE',  ( 4.770489558936219510E-15, 24.00000000000000000, 0.000000000000000000 ) ) ;
#177 = VECTOR ( 'NONE', #341, 1000.000000000000000 ) ;
#178 = DIRECTION ( 'NONE',  ( 0.000000000000000000, -1.000000000000000000, -0.000000000000000000 ) ) ;
#179 = FILL_AREA_STYLE_COLOUR ( '', #15 ) ;
#180 = CARTESIAN_POINT ( 'NONE',  ( 4.898587196589412829E-16, 0.5000000000000000000, 4.000000000000000000 ) ) ;
#181 = SURFACE_STYLE_FILL_AREA ( #233 ) ;
#182 = ADVANCED_FACE ( 'NONE', ( #49 ), #47, .T. ) ;
#183 = SURFACE_STYLE_FILL_AREA ( #247 ) ;
#184 = CARTESIAN_POINT ( 'NONE',  ( 0.000000000000000000, 0.000000000000000000, -4.000000000000000000 ) ) ;
#185 = CIRCLE ( 'NONE', #9, 3.999999999999996447 ) ;
#186 =( NAMED_UNIT ( * ) PLANE_ANGLE_UNIT ( ) SI_UNIT ( $, .RADIAN. ) );
#187 = ORIENTED_EDGE ( 'NONE', *, *, #91, .F. ) ;
#188 = FILL_AREA_STYLE_COLOUR ( '', #46 ) ;
#189 = UNCERTAINTY_MEASURE_WITH_UNIT (LENGTH_MEASURE( 1.000000000000000082E-05 ), #92, 'distance_accuracy_value', 'NONE');
#190 = VERTEX_POINT ( 'NONE', #70 ) ;
#191 =( GEOMETRIC_REPRESENTATION_CONTEXT ( 3 ) GLOBAL_UNCERTAINTY_ASSIGNED_CONTEXT ( ( #345 ) ) GLOBAL_UNIT_ASSIGNED_CONTEXT ( ( #111, #77, #257 ) ) REPRESENTATION_CONTEXT ( 'NONE', 'WORKASPACE' ) );
#192 = DIRECTION ( 'NONE',  ( -0.000000000000000000, -1.000000000000000000, -0.000000000000000000 ) ) ;
#193 = DIRECTION ( 'NONE',  ( 1.000000000000000000, 0.000000000000000000, -1.224646799147353207E-16 ) ) ;
#194 = PRESENTATION_STYLE_ASSIGNMENT (( #302 ) ) ;
#195 = ADVANCED_FACE ( 'NONE', ( #306 ), #174, .F. ) ;
#196 = SURFACE_SIDE_STYLE ('',( #303 ) ) ;
#197 = CIRCLE ( 'NONE', #336, 3.999999999999996447 ) ;
#198 = AXIS2_PLACEMENT_3D ( 'NONE', #85, #160, #221 ) ;
#199 = EDGE_CURVE ( 'NONE', #69, #74, #125, .T. ) ;
#200 = FACE_OUTER_BOUND ( 'NONE', #31, .T. ) ;
#201 = ORIENTED_EDGE ( 'NONE', *, *, #112, .T. ) ;
#202 =( GEOMETRIC_REPRESENTATION_CONTEXT ( 3 ) GLOBAL_UNCERTAINTY_ASSIGNED_CONTEXT ( ( #330 ) ) GLOBAL_UNIT_ASSIGNED_CONTEXT ( ( #274, #156, #137 ) ) REPRESENTATION_CONTEXT ( 'NONE', 'WORKASPACE' ) );
#203 = PRESENTATION_STYLE_ASSIGNMENT (( #97 ) ) ;
#204 = CARTESIAN_POINT ( 'NONE',  ( 0.000000000000000000, 0.5000000000000000000, -4.000000000000000000 ) ) ;
#205 = DIRECTION ( 'NONE',  ( -1.000000000000000000, 0.000000000000000000, 0.000000000000000000 ) ) ;
#206 = VERTEX_POINT ( 'NONE', #180 ) ;
#207 = EDGE_CURVE ( 'NONE', #131, #269, #232, .T. ) ;
#208 = DIRECTION ( 'NONE',  ( 0.000000000000000000, 0.000000000000000000, -1.000000000000000000 ) ) ;
#209 = EDGE_LOOP ( 'NONE', ( #187, #165, #50, #81 ) ) ;
#210 = MECHANICAL_DESIGN_GEOMETRIC_PRESENTATION_REPRESENTATION (  '', ( #104 ), #86 ) ;
#211 = FILL_AREA_STYLE ('',( #130 ) ) ;
#212 = ORIENTED_EDGE ( 'NONE', *, *, #368, .T. ) ;
#213 = PRESENTATION_STYLE_ASSIGNMENT (( #106 ) ) ;
#214 = SURFACE_STYLE_USAGE ( .BOTH. , #84 ) ;
#215 = AXIS2_PLACEMENT_3D ( 'NONE', #152, #68, #271 ) ;
#216 = CARTESIAN_POINT ( 'NONE',  ( -4.000000000000000000, 75.00000000000000000, 0.000000000000000000 ) ) ;
#217 = FILL_AREA_STYLE_COLOUR ( '', #240 ) ;
#218 = DIRECTION ( 'NONE',  ( -1.223542297630008506E-16, 1.000000000000000000, -0.000000000000000000 ) ) ;
#219 = UNCERTAINTY_MEASURE_WITH_UNIT (LENGTH_MEASURE( 1.000000000000000082E-05 ), #353, 'distance_accuracy_value', 'NONE');
#220 = ORIENTED_EDGE ( 'NONE', *, *, #145, .T. ) ;
#221 = DIRECTION ( 'NONE',  ( -1.000000000000000000, 0.000000000000000000, 0.000000000000000000 ) ) ;
#222 = CARTESIAN_POINT ( 'NONE',  ( 4.000000000000000000, 24.00000000000000000, 4.898587196589413815E-16 ) ) ;
#223 = EDGE_LOOP ( 'NONE', ( #113, #212, #119, #323 ) ) ;
#224 = VECTOR ( 'NONE', #231, 1000.000000000000000 ) ;
#225 =( GEOMETRIC_REPRESENTATION_CONTEXT ( 3 ) GLOBAL_UNCERTAINTY_ASSIGNED_CONTEXT ( ( #189 ) ) GLOBAL_UNIT_ASSIGNED_CONTEXT ( ( #92, #356, #39 ) ) REPRESENTATION_CONTEXT ( 'NONE', 'WORKASPACE' ) );
#226 = DIRECTION ( 'NONE',  ( 0.000000000000000000, 0.000000000000000000, -1.000000000000000000 ) ) ;
#227 = CARTESIAN_POINT ( 'NONE',  ( 0.000000000000000000, 0.5000000000000000000, 0.000000000000000000 ) ) ;
#228 = DIRECTION ( 'NONE',  ( 1.000000000000000000, 0.000000000000000000, 0.000000000000000000 ) ) ;
#229 = COLOUR_RGB ( '',1.000000000000000000, 0.000000000000000000, 0.000000000000000000 ) ;
#230 = APPLICATION_PROTOCOL_DEFINITION ( 'draft international standard', 'automotive_design', 1998, #310 ) ;
#231 = DIRECTION ( 'NONE',  ( -0.000000000000000000, -1.000000000000000000, -0.000000000000000000 ) ) ;
#232 = CIRCLE ( 'NONE', #349, 0.5000000000000000000 ) ;
#233 = FILL_AREA_STYLE ('',( #179 ) ) ;
#234 = AXIS2_PLACEMENT_3D ( 'NONE', #290, #192, #243 ) ;
#235 = EDGE_CURVE ( 'NONE', #350, #190, #22, .T. ) ;
#236 = ORIENTED_EDGE ( 'NONE', *, *, #52, .F. ) ;
#237 = DIRECTION ( 'NONE',  ( 0.000000000000000000, 0.000000000000000000, 1.000000000000000000 ) ) ;
#238 = SURFACE_SIDE_STYLE ('',( #75 ) ) ;
#239 = COLOUR_RGB ( '',1.000000000000000000, 0.000000000000000000, 0.000000000000000000 ) ;
#240 = COLOUR_RGB ( '',1.000000000000000000, 0.000000000000000000, 0.000000000000000000 ) ;
#241 = FACE_OUTER_BOUND ( 'NONE', #295, .T. ) ;
#242 =( NAMED_UNIT ( * ) SI_UNIT ( $, .STERADIAN. ) SOLID_ANGLE_UNIT ( ) );
#243 = DIRECTION ( 'NONE',  ( 0.000000000000000000, 0.000000000000000000, -1.000000000000000000 ) ) ;
#244 =( LENGTH_UNIT ( ) NAMED_UNIT ( * ) SI_UNIT ( .MILLI., .METRE. ) );
#245 = CLOSED_SHELL ( 'NONE', ( #293, #195, #182, #140 ) ) ;
#246 = STYLED_ITEM ( 'NONE', ( #347 ), #324 ) ;
#247 = FILL_AREA_STYLE ('',( #188 ) ) ;
#248 = SURFACE_STYLE_USAGE ( .BOTH. , #157 ) ;
#249 = VERTEX_POINT ( 'NONE', #358 ) ;
#250 = DIRECTION ( 'NONE',  ( -0.000000000000000000, -1.000000000000000000, -0.000000000000000000 ) ) ;
#251 = DIRECTION ( 'NONE',  ( 0.000000000000000000, 0.000000000000000000, -1.000000000000000000 ) ) ;
#252 =( NAMED_UNIT ( * ) SI_UNIT ( $, .STERADIAN. ) SOLID_ANGLE_UNIT ( ) );
#253 = CARTESIAN_POINT ( 'NONE',  ( 4.000000000000000000, 75.00000000000000000, 4.898587196589412829E-16 ) ) ;
#254 =( GEOMETRIC_REPRESENTATION_CONTEXT ( 3 ) GLOBAL_UNCERTAINTY_ASSIGNED_CONTEXT ( ( #329 ) ) GLOBAL_UNIT_ASSIGNED_CONTEXT ( ( #244, #109, #321 ) ) REPRESENTATION_CONTEXT ( 'NONE', 'WORKASPACE' ) );
#255 = AXIS2_PLACEMENT_3D ( 'NONE', #89, #129, #265 ) ;
#256 = STYLED_ITEM ( 'NONE', ( #194 ), #342 ) ;
#257 =( NAMED_UNIT ( * ) SI_UNIT ( $, .STERADIAN. ) SOLID_ANGLE_UNIT ( ) );
#258 = EDGE_CURVE ( 'NONE', #190, #206, #339, .T. ) ;
#259 = DIRECTION ( 'NONE',  ( -0.000000000000000000, -1.000000000000000000, -0.000000000000000000 ) ) ;
#260 = AXIS2_PLACEMENT_3D ( 'NONE', #87, #193, #370 ) ;
#261 = ORIENTED_EDGE ( 'NONE', *, *, #145, .F. ) ;
#262 = DIRECTION ( 'NONE',  ( -1.223542297630008506E-16, 1.000000000000000000, -0.000000000000000000 ) ) ;
#263 =( LENGTH_UNIT ( ) NAMED_UNIT ( * ) SI_UNIT ( .MILLI., .METRE. ) );
#264 = EDGE_CURVE ( 'NONE', #131, #206, #277, .T. ) ;
#265 = DIRECTION ( 'NONE',  ( -1.000000000000000000, 0.000000000000000000, 0.000000000000000000 ) ) ;
#266 = PRESENTATION_LAYER_ASSIGNMENT (  '', '', ( #275 ) ) ;
#267 = CIRCLE ( 'NONE', #255, 4.000000000000001776 ) ;
#268 = PLANE ( 'NONE',  #170 ) ;
#269 = VERTEX_POINT ( 'NONE', #322 ) ;
#270 = ORIENTED_EDGE ( 'NONE', *, *, #52, .T. ) ;
#271 = DIRECTION ( 'NONE',  ( 0.000000000000000000, 0.000000000000000000, -1.000000000000000000 ) ) ;
#272 = ORIENTED_EDGE ( 'NONE', *, *, #112, .F. ) ;
#273 = EDGE_CURVE ( 'NONE', #57, #249, #369, .T. ) ;
#274 =( LENGTH_UNIT ( ) NAMED_UNIT ( * ) SI_UNIT ( .MILLI., .METRE. ) );
#275 = STYLED_ITEM ( 'NONE', ( #62 ), #14 ) ;
#276 = SURFACE_SIDE_STYLE ('',( #181 ) ) ;
#277 = CIRCLE ( 'NONE', #215, 4.000000000000000000 ) ;
#278 = AXIS2_PLACEMENT_3D ( 'NONE', #169, #10, #228 ) ;
#279 = ORIENTED_EDGE ( 'NONE', *, *, #38, .F. ) ;
#280 =( NAMED_UNIT ( * ) SI_UNIT ( $, .STERADIAN. ) SOLID_ANGLE_UNIT ( ) );
#281 = CARTESIAN_POINT ( 'NONE',  ( 4.770489558936219510E-15, 24.00000000000000000, 0.000000000000000000 ) ) ;
#282 = ORIENTED_EDGE ( 'NONE', *, *, #273, .F. ) ;
#283 = FILL_AREA_STYLE_COLOUR ( '', #298 ) ;
#284 = EDGE_CURVE ( 'NONE', #301, #269, #67, .T. ) ;
#285 = DIRECTION ( 'NONE',  ( 0.000000000000000000, 0.000000000000000000, -1.000000000000000000 ) ) ;
#286 = DIRECTION ( 'NONE',  ( -1.223542297630008506E-16, 1.000000000000000000, -0.000000000000000000 ) ) ;
#287 = PRESENTATION_LAYER_ASSIGNMENT (  '', '', ( #66 ) ) ;
#288 =( GEOMETRIC_REPRESENTATION_CONTEXT ( 3 ) GLOBAL_UNCERTAINTY_ASSIGNED_CONTEXT ( ( #35 ) ) GLOBAL_UNIT_ASSIGNED_CONTEXT ( ( #108, #186, #280 ) ) REPRESENTATION_CONTEXT ( 'NONE', 'WORKASPACE' ) );
#289 =( GEOMETRIC_REPRESENTATION_CONTEXT ( 3 ) GLOBAL_UNCERTAINTY_ASSIGNED_CONTEXT ( ( #90 ) ) GLOBAL_UNIT_ASSIGNED_CONTEXT ( ( #351, #93, #252 ) ) REPRESENTATION_CONTEXT ( 'NONE', 'WORKASPACE' ) );
#290 = CARTESIAN_POINT ( 'NONE',  ( 0.000000000000000000, 0.000000000000000000, 0.000000000000000000 ) ) ;
#291 = SURFACE_STYLE_FILL_AREA ( #56 ) ;
#292 = ORIENTED_EDGE ( 'NONE', *, *, #207, .F. ) ;
#293 = ADVANCED_FACE ( 'NONE', ( #366 ), #25, .T. ) ;
#294 = DIRECTION ( 'NONE',  ( -1.000000000000000000, 0.000000000000000000, 0.000000000000000000 ) ) ;
#295 = EDGE_LOOP ( 'NONE', ( #333, #320, #317, #60 ) ) ;
#296 = DIRECTION ( 'NONE',  ( -0.000000000000000000, -1.000000000000000000, -0.000000000000000000 ) ) ;
#297 = ORIENTED_EDGE ( 'NONE', *, *, #273, .T. ) ;
#298 = COLOUR_RGB ( '',0.7921568627450980005, 0.8196078431372548767, 0.9333333333333333481 ) ;
#299 = AXIS2_PLACEMENT_3D ( 'NONE', #118, #123, #127 ) ;
#300 = CIRCLE ( 'NONE', #43, 4.000000000000000000 ) ;
#301 = VERTEX_POINT ( 'NONE', #154 ) ;
#302 = SURFACE_STYLE_USAGE ( .BOTH. , #164 ) ;
#303 = SURFACE_STYLE_FILL_AREA ( #162 ) ;
#304 = AXIS2_PLACEMENT_3D ( 'NONE', #20, #95, #151 ) ;
#305 = TOROIDAL_SURFACE ( 'NONE', #99, 3.500000000000000000, 0.5000000000000000000 ) ;
#306 = FACE_OUTER_BOUND ( 'NONE', #143, .T. ) ;
#307 = ADVANCED_FACE ( 'NONE', ( #82 ), #5, .T. ) ;
#308 =( NAMED_UNIT ( * ) PLANE_ANGLE_UNIT ( ) SI_UNIT ( $, .RADIAN. ) );
#309 = STYLED_ITEM ( 'NONE', ( #213 ), #307 ) ;
#310 = APPLICATION_CONTEXT ( 'automotive_design' ) ;
#311 = PLANE ( 'NONE',  #159 ) ;
#312 = CARTESIAN_POINT ( 'NONE',  ( 4.898587196589412829E-16, 0.000000000000000000, 4.000000000000000000 ) ) ;
#313 = CARTESIAN_POINT ( 'NONE',  ( 0.000000000000000000, 0.5000000000000000000, -3.500000000000000000 ) ) ;
#314 = FILL_AREA_STYLE ('',( #217 ) ) ;
#315 = PRODUCT_DEFINITION_FORMATION_WITH_SPECIFIED_SOURCE ( 'ANY', '', #65, .NOT_KNOWN. ) ;
#316 = ORIENTED_EDGE ( 'NONE', *, *, #103, .F. ) ;
#317 = ORIENTED_EDGE ( 'NONE', *, *, #264, .F. ) ;
#318 = DIRECTION ( 'NONE',  ( 0.000000000000000000, 0.000000000000000000, -1.000000000000000000 ) ) ;
#319 = CARTESIAN_POINT ( 'NONE',  ( -3.999999999999991562, 24.00000000000000000, 0.000000000000000000 ) ) ;
#320 = ORIENTED_EDGE ( 'NONE', *, *, #258, .T. ) ;
#321 =( NAMED_UNIT ( * ) SI_UNIT ( $, .STERADIAN. ) SOLID_ANGLE_UNIT ( ) );
#322 = CARTESIAN_POINT ( 'NONE',  ( 0.000000000000000000, 0.000000000000000000, -3.500000000000000000 ) ) ;
#323 = ORIENTED_EDGE ( 'NONE', *, *, #44, .F. ) ;
#324 = ADVANCED_FACE ( 'NONE', ( #241 ), #134, .T. ) ;
#325 = DIRECTION ( 'NONE',  ( 0.000000000000000000, 0.000000000000000000, -1.000000000000000000 ) ) ;
#326 = DIRECTION ( 'NONE',  ( -0.000000000000000000, -1.000000000000000000, -0.000000000000000000 ) ) ;
#327 = PRESENTATION_STYLE_ASSIGNMENT (( #40 ) ) ;
#328 = COLOUR_RGB ( '',0.7921568627450980005, 0.8196078431372548767, 0.9333333333333333481 ) ;
#329 = UNCERTAINTY_MEASURE_WITH_UNIT (LENGTH_MEASURE( 1.000000000000000082E-05 ), #244, 'distance_accuracy_value', 'NONE');
#330 = UNCERTAINTY_MEASURE_WITH_UNIT (LENGTH_MEASURE( 1.000000000000000082E-05 ), #274, 'distance_accuracy_value', 'NONE');
#331 =( NAMED_UNIT ( * ) PLANE_ANGLE_UNIT ( ) SI_UNIT ( $, .RADIAN. ) );
#332 = AXIS2_PLACEMENT_3D ( 'NONE', #63, #296, #352 ) ;
#333 = ORIENTED_EDGE ( 'NONE', *, *, #235, .T. ) ;
#334 =( LENGTH_UNIT ( ) NAMED_UNIT ( * ) SI_UNIT ( .MILLI., .METRE. ) );
#335 = FILL_AREA_STYLE_COLOUR ( '', #239 ) ;
#336 = AXIS2_PLACEMENT_3D ( 'NONE', #281, #286, #294 ) ;
#337 = MECHANICAL_DESIGN_GEOMETRIC_PRESENTATION_REPRESENTATION (  '', ( #79 ), #58 ) ;
#338 = MECHANICAL_DESIGN_GEOMETRIC_PRESENTATION_REPRESENTATION (  '', ( #246 ), #202 ) ;
#339 = LINE ( 'NONE', #312, #224 ) ;
#340 = FACE_OUTER_BOUND ( 'NONE', #360, .T. ) ;
#341 = DIRECTION ( 'NONE',  ( -1.223542297630008506E-16, 1.000000000000000000, -0.000000000000000000 ) ) ;
#342 = ADVANCED_FACE ( 'NONE', ( #61 ), #305, .T. ) ;
#343 = SURFACE_STYLE_FILL_AREA ( #314 ) ;
#344 = CARTESIAN_POINT ( 'NONE',  ( 0.000000000000000000, 0.000000000000000000, 0.000000000000000000 ) ) ;
#345 = UNCERTAINTY_MEASURE_WITH_UNIT (LENGTH_MEASURE( 1.000000000000000082E-05 ), #111, 'distance_accuracy_value', 'NONE');
#346 = DIRECTION ( 'NONE',  ( 0.000000000000000000, 1.000000000000000000, 0.000000000000000000 ) ) ;
#347 = PRESENTATION_STYLE_ASSIGNMENT (( #80 ) ) ;
#348 = DIRECTION ( 'NONE',  ( -0.000000000000000000, -1.000000000000000000, -0.000000000000000000 ) ) ;
#349 = AXIS2_PLACEMENT_3D ( 'NONE', #313, #205, #237 ) ;
#350 = VERTEX_POINT ( 'NONE', #23 ) ;
#351 =( LENGTH_UNIT ( ) NAMED_UNIT ( * ) SI_UNIT ( .MILLI., .METRE. ) );
#352 = DIRECTION ( 'NONE',  ( 0.000000000000000000, 0.000000000000000000, -1.000000000000000000 ) ) ;
#353 =( LENGTH_UNIT ( ) NAMED_UNIT ( * ) SI_UNIT ( .MILLI., .METRE. ) );
#354 = PRODUCT_DEFINITION_SHAPE ( 'NONE', 'NONE',  #175 ) ;
#355 = MECHANICAL_DESIGN_GEOMETRIC_PRESENTATION_REPRESENTATION (  '', ( #309 ), #288 ) ;
#356 =( NAMED_UNIT ( * ) PLANE_ANGLE_UNIT ( ) SI_UNIT ( $, .RADIAN. ) );
#357 = SHAPE_DEFINITION_REPRESENTATION ( #354, #2 ) ;
#358 = CARTESIAN_POINT ( 'NONE',  ( -4.000000000000003553, 75.00000000000000000, 0.000000000000000000 ) ) ;
#359 =( NAMED_UNIT ( * ) SI_UNIT ( $, .STERADIAN. ) SOLID_ANGLE_UNIT ( ) );
#360 = EDGE_LOOP ( 'NONE', ( #126, #18 ) ) ;
#361 = DIRECTION ( 'NONE',  ( 1.000000000000000000, 1.223542297630008506E-16, 0.000000000000000000 ) ) ;
#362 = DIRECTION ( 'NONE',  ( -1.000000000000000000, 0.000000000000000000, 0.000000000000000000 ) ) ;
#363 = AXIS2_PLACEMENT_3D ( 'NONE', #102, #348, #251 ) ;
#364 = AXIS2_PLACEMENT_3D ( 'NONE', #55, #101, #285 ) ;
#365 = SURFACE_STYLE_USAGE ( .BOTH. , #276 ) ;
#366 = FACE_OUTER_BOUND ( 'NONE', #29, .T. ) ;
#367 = LINE ( 'NONE', #184, #148 ) ;
#368 = EDGE_CURVE ( 'NONE', #190, #350, #300, .T. ) ;
#369 = LINE ( 'NONE', #216, #177 ) ;
#370 = DIRECTION ( 'NONE',  ( -1.224646799147353454E-16, 0.000000000000000000, -1.000000000000000000 ) ) ;
ENDSEC;
END-ISO-10303-21;
