ISO-10303-21;
HEADER;
FILE_DESCRIPTION (( 'STEP AP214' ),
    '1' );
FILE_NAME ('Micro_RNC-312-2.STEP',
    '2021-09-03T17:37:19',
    ( '' ),
    ( '' ),
    'SwSTEP 2.0',
    'SolidWorks 2020',
    '' );
FILE_SCHEMA (( 'AUTOMOTIVE_DESIGN' ));
ENDSEC;

DATA;
#1 = DIRECTION ( 'NONE',  ( 0.0000000000000000000, 0.0000000000000000000, -1.000000000000000000 ) ) ;
#2 = CARTESIAN_POINT ( 'NONE',  ( 0.0000000000000000000, 0.0000000000000000000, 0.0000000000000000000 ) ) ;
#3 = STYLED_ITEM ( 'NONE', ( #68 ), #38 ) ;
#4 = DIRECTION ( 'NONE',  ( 0.0000000000000000000, 0.0000000000000000000, 1.000000000000000000 ) ) ;
#5 = FILL_AREA_STYLE ('',( #83 ) ) ;
#6 = APPLICATION_PROTOCOL_DEFINITION ( 'draft international standard', 'automotive_design', 1998, #131 ) ;
#7 = AXIS2_PLACEMENT_3D ( 'NONE', #77, #143, #248 ) ;
#8 = LINE ( 'NONE', #48, #74 ) ;
#9 =( NAMED_UNIT ( * ) SI_UNIT ( $, .STERADIAN. ) SOLID_ANGLE_UNIT ( ) );
#10 = CARTESIAN_POINT ( 'NONE',  ( -0.003999999999999999216, -9.812482478168165875E-18, 2.500000000000000000 ) ) ;
#11 = ADVANCED_FACE ( 'NONE', ( #18 ), #117, .T. ) ;
#12 = DIRECTION ( 'NONE',  ( -0.0000000000000000000, -0.0000000000000000000, -1.000000000000000000 ) ) ;
#13 = ADVANCED_FACE ( 'NONE', ( #45 ), #129, .T. ) ;
#14 = ORIENTED_EDGE ( 'NONE', *, *, #84, .T. ) ;
#15 = AXIS2_PLACEMENT_3D ( 'NONE', #175, #4, #105 ) ;
#16 = EDGE_CURVE ( 'NONE', #199, #20, #47, .T. ) ;
#17 = CARTESIAN_POINT ( 'NONE',  ( -0.003999999999999999216, -4.898587196589411612E-19, 2.500000000000000000 ) ) ;
#18 = FACE_OUTER_BOUND ( 'NONE', #114, .T. ) ;
#19 = FACE_OUTER_BOUND ( 'NONE', #51, .T. ) ;
#20 = VERTEX_POINT ( 'NONE', #106 ) ;
#21 = ORIENTED_EDGE ( 'NONE', *, *, #169, .F. ) ;
#22 = VERTEX_POINT ( 'NONE', #124 ) ;
#23 = EDGE_CURVE ( 'NONE', #227, #212, #127, .T. ) ;
#24 =( GEOMETRIC_REPRESENTATION_CONTEXT ( 3 ) GLOBAL_UNCERTAINTY_ASSIGNED_CONTEXT ( ( #100 ) ) GLOBAL_UNIT_ASSIGNED_CONTEXT ( ( #200, #101, #98 ) ) REPRESENTATION_CONTEXT ( 'NONE', 'WORKASPACE' ) );
#25 = CARTESIAN_POINT ( 'NONE',  ( 0.0000000000000000000, 0.0000000000000000000, 0.1522499999999993858 ) ) ;
#26 = MECHANICAL_DESIGN_GEOMETRIC_PRESENTATION_REPRESENTATION (  '', ( #3 ), #24 ) ;
#27 = CARTESIAN_POINT ( 'NONE',  ( 0.0000000000000000000, 0.0000000000000000000, 2.500000000000000000 ) ) ;
#28 = DIRECTION ( 'NONE',  ( -0.0000000000000000000, -0.0000000000000000000, -1.000000000000000000 ) ) ;
#29 = DIRECTION ( 'NONE',  ( 0.0000000000000000000, 0.0000000000000000000, -1.000000000000000000 ) ) ;
#30 = DIRECTION ( 'NONE',  ( -1.000000000000000000, 0.0000000000000000000, 0.0000000000000000000 ) ) ;
#31 = DIRECTION ( 'NONE',  ( -1.000000000000000000, 0.0000000000000000000, 0.0000000000000000000 ) ) ;
#32 = VECTOR ( 'NONE', #91, 39.37007874015748143 ) ;
#33 = CONICAL_SURFACE ( 'NONE', #43, 0.003999999999999999216, 0.7853981633974503884 ) ;
#34 =( CONVERSION_BASED_UNIT ( 'INCH', #121 ) LENGTH_UNIT ( ) NAMED_UNIT ( #183 ) );
#35 = FACE_OUTER_BOUND ( 'NONE', #58, .T. ) ;
#36 = ORIENTED_EDGE ( 'NONE', *, *, #221, .F. ) ;
#37 = ORIENTED_EDGE ( 'NONE', *, *, #133, .F. ) ;
#38 = MANIFOLD_SOLID_BREP ( 'Mirror1', #73 ) ;
#39 = AXIS2_PLACEMENT_3D ( 'NONE', #194, #218, #110 ) ;
#40 = ORIENTED_EDGE ( 'NONE', *, *, #133, .T. ) ;
#41 =( LENGTH_UNIT ( ) NAMED_UNIT ( * ) SI_UNIT ( $, .METRE. ) );
#42 = CARTESIAN_POINT ( 'NONE',  ( 0.0000000000000000000, 0.0000000000000000000, 0.0000000000000000000 ) ) ;
#43 = AXIS2_PLACEMENT_3D ( 'NONE', #115, #243, #231 ) ;
#44 = EDGE_LOOP ( 'NONE', ( #118, #78, #97, #55 ) ) ;
#45 = FACE_OUTER_BOUND ( 'NONE', #44, .T. ) ;
#46 = CARTESIAN_POINT ( 'NONE',  ( -0.1562500000000000000, 0.0000000000000000000, 2.500000000000000000 ) ) ;
#47 = CIRCLE ( 'NONE', #109, 0.1562500000000000000 ) ;
#48 = CARTESIAN_POINT ( 'NONE',  ( 0.1562500000000000000, 1.913510623667739463E-17, 2.500000000000000000 ) ) ;
#49 = CIRCLE ( 'NONE', #247, 0.003999999999999999216 ) ;
#50 =( NAMED_UNIT ( * ) PLANE_ANGLE_UNIT ( ) SI_UNIT ( $, .RADIAN. ) );
#51 = EDGE_LOOP ( 'NONE', ( #196, #153 ) ) ;
#52 = DIRECTION ( 'NONE',  ( 0.0000000000000000000, 0.0000000000000000000, 1.000000000000000000 ) ) ;
#53 = ORIENTED_EDGE ( 'NONE', *, *, #23, .T. ) ;
#54 = CARTESIAN_POINT ( 'NONE',  ( 0.1562500000000000000, 1.913510623667739463E-17, 2.347750000000000448 ) ) ;
#55 = ORIENTED_EDGE ( 'NONE', *, *, #23, .F. ) ;
#56 = DIRECTION ( 'NONE',  ( -0.7071067811865490160, -8.659560562354951347E-17, -0.7071067811865460184 ) ) ;
#57 = AXIS2_PLACEMENT_3D ( 'NONE', #238, #28, #216 ) ;
#58 = EDGE_LOOP ( 'NONE', ( #21, #79, #76, #136 ) ) ;
#59 = DIRECTION ( 'NONE',  ( -1.000000000000000000, 0.0000000000000000000, 0.0000000000000000000 ) ) ;
#60 = LENGTH_MEASURE_WITH_UNIT ( LENGTH_MEASURE( 0.02539999999999999897 ), #204 );
#61 = EDGE_CURVE ( 'NONE', #132, #227, #49, .T. ) ;
#62 = COLOUR_RGB ( '',0.7921568627450980005, 0.8196078431372548767, 0.9333333333333333481 ) ;
#63 = UNCERTAINTY_MEASURE_WITH_UNIT (LENGTH_MEASURE( 1.000000000000000082E-05 ), #139, 'distance_accuracy_value', 'NONE');
#64 = SHAPE_DEFINITION_REPRESENTATION ( #222, #185 ) ;
#65 = FILL_AREA_STYLE_COLOUR ( '', #166 ) ;
#66 = PRESENTATION_LAYER_ASSIGNMENT (  '', '', ( #189 ) ) ;
#67 = ADVANCED_FACE ( 'NONE', ( #233 ), #197, .T. ) ;
#68 = PRESENTATION_STYLE_ASSIGNMENT (( #186 ) ) ;
#69 = APPLICATION_PROTOCOL_DEFINITION ( 'draft international standard', 'automotive_design', 1998, #72 ) ;
#70 = DIRECTION ( 'NONE',  ( 1.000000000000000000, 0.0000000000000000000, 0.0000000000000000000 ) ) ;
#71 = EDGE_CURVE ( 'NONE', #227, #132, #223, .T. ) ;
#72 = APPLICATION_CONTEXT ( 'automotive_design' ) ;
#73 = CLOSED_SHELL ( 'NONE', ( #13, #11, #102, #187, #67, #224, #206, #201 ) ) ;
#74 = VECTOR ( 'NONE', #130, 39.37007874015748143 ) ;
#75 = LINE ( 'NONE', #17, #239 ) ;
#76 = ORIENTED_EDGE ( 'NONE', *, *, #160, .T. ) ;
#77 = CARTESIAN_POINT ( 'NONE',  ( 0.0000000000000000000, 0.0000000000000000000, 2.500000000000000000 ) ) ;
#78 = ORIENTED_EDGE ( 'NONE', *, *, #221, .T. ) ;
#79 = ORIENTED_EDGE ( 'NONE', *, *, #112, .T. ) ;
#80 = DIRECTION ( 'NONE',  ( 0.0000000000000000000, 0.0000000000000000000, 1.000000000000000000 ) ) ;
#81 = PLANE ( 'NONE',  #7 ) ;
#82 = EDGE_LOOP ( 'NONE', ( #209, #211 ) ) ;
#83 = FILL_AREA_STYLE_COLOUR ( '', #62 ) ;
#84 = EDGE_CURVE ( 'NONE', #134, #20, #236, .T. ) ;
#85 = AXIS2_PLACEMENT_3D ( 'NONE', #27, #168, #182 ) ;
#86 = SURFACE_SIDE_STYLE ('',( #146 ) ) ;
#87 = CARTESIAN_POINT ( 'NONE',  ( 0.003999999999999999216, 0.0000000000000000000, 2.500000000000000000 ) ) ;
#88 = PRODUCT ( 'Micro_RNC-312-2', 'Micro_RNC-312-2', '', ( #167 ) ) ;
#89 = PRODUCT_DEFINITION ( 'UNKNOWN', '', #234, #176 ) ;
#90 = VECTOR ( 'NONE', #165, 39.37007874015748143 ) ;
#91 = DIRECTION ( 'NONE',  ( 0.7071067811865490160, 0.0000000000000000000, 0.7071067811865460184 ) ) ;
#92 =( GEOMETRIC_REPRESENTATION_CONTEXT ( 3 ) GLOBAL_UNCERTAINTY_ASSIGNED_CONTEXT ( ( #63 ) ) GLOBAL_UNIT_ASSIGNED_CONTEXT ( ( #139, #225, #120 ) ) REPRESENTATION_CONTEXT ( 'NONE', 'WORKASPACE' ) );
#93 = FACE_OUTER_BOUND ( 'NONE', #157, .T. ) ;
#94 =( GEOMETRIC_REPRESENTATION_CONTEXT ( 3 ) GLOBAL_UNCERTAINTY_ASSIGNED_CONTEXT ( ( #158 ) ) GLOBAL_UNIT_ASSIGNED_CONTEXT ( ( #34, #50, #9 ) ) REPRESENTATION_CONTEXT ( 'NONE', 'WORKASPACE' ) );
#95 = CARTESIAN_POINT ( 'NONE',  ( 0.003999999999999999216, 0.0000000000000000000, 0.0000000000000000000 ) ) ;
#96 = CARTESIAN_POINT ( 'NONE',  ( 0.0000000000000000000, 0.0000000000000000000, 2.347750000000000448 ) ) ;
#97 = ORIENTED_EDGE ( 'NONE', *, *, #112, .F. ) ;
#98 =( NAMED_UNIT ( * ) SI_UNIT ( $, .STERADIAN. ) SOLID_ANGLE_UNIT ( ) );
#99 = ORIENTED_EDGE ( 'NONE', *, *, #170, .F. ) ;
#100 = UNCERTAINTY_MEASURE_WITH_UNIT (LENGTH_MEASURE( 1.000000000000000082E-05 ), #200, 'distance_accuracy_value', 'NONE');
#101 =( NAMED_UNIT ( * ) PLANE_ANGLE_UNIT ( ) SI_UNIT ( $, .RADIAN. ) );
#102 = ADVANCED_FACE ( 'NONE', ( #164 ), #148, .T. ) ;
#103 = AXIS2_PLACEMENT_3D ( 'NONE', #173, #12, #198 ) ;
#104 = DIRECTION ( 'NONE',  ( -0.7071067811865490160, 8.659560562354951347E-17, 0.7071067811865460184 ) ) ;
#105 = DIRECTION ( 'NONE',  ( 1.000000000000000000, 0.0000000000000000000, 0.0000000000000000000 ) ) ;
#106 = CARTESIAN_POINT ( 'NONE',  ( -0.1562500000000000000, 0.0000000000000000000, 0.1522499999999993858 ) ) ;
#107 = SURFACE_STYLE_FILL_AREA ( #5 ) ;
#108 = DIRECTION ( 'NONE',  ( -0.0000000000000000000, -0.0000000000000000000, -1.000000000000000000 ) ) ;
#109 = AXIS2_PLACEMENT_3D ( 'NONE', #25, #108, #188 ) ;
#110 = DIRECTION ( 'NONE',  ( -1.000000000000000000, 0.0000000000000000000, 0.0000000000000000000 ) ) ;
#111 = AXIS2_PLACEMENT_3D ( 'NONE', #96, #152, #190 ) ;
#112 = EDGE_CURVE ( 'NONE', #212, #22, #219, .T. ) ;
#113 = LINE ( 'NONE', #192, #32 ) ;
#114 = EDGE_LOOP ( 'NONE', ( #99, #14, #245, #156 ) ) ;
#115 = CARTESIAN_POINT ( 'NONE',  ( 0.0000000000000000000, 0.0000000000000000000, 2.500000000000000000 ) ) ;
#116 = DIRECTION ( 'NONE',  ( 1.000000000000000000, 0.0000000000000000000, 0.0000000000000000000 ) ) ;
#117 = CONICAL_SURFACE ( 'NONE', #15, 0.003999999999999999216, 0.7853981633974503884 ) ;
#118 = ORIENTED_EDGE ( 'NONE', *, *, #71, .T. ) ;
#119 = CARTESIAN_POINT ( 'NONE',  ( 0.0000000000000000000, 0.0000000000000000000, 0.0000000000000000000 ) ) ;
#120 =( NAMED_UNIT ( * ) SI_UNIT ( $, .STERADIAN. ) SOLID_ANGLE_UNIT ( ) );
#121 = LENGTH_MEASURE_WITH_UNIT ( LENGTH_MEASURE( 0.02539999999999999897 ), #235 );
#122 = AXIS2_PLACEMENT_3D ( 'NONE', #241, #242, #31 ) ;
#123 = DIRECTION ( 'NONE',  ( 0.0000000000000000000, 0.0000000000000000000, 1.000000000000000000 ) ) ;
#124 = CARTESIAN_POINT ( 'NONE',  ( -0.1562500000000000000, 0.0000000000000000000, 2.347750000000000448 ) ) ;
#125 = AXIS2_PLACEMENT_3D ( 'NONE', #207, #230, #59 ) ;
#126 = EDGE_CURVE ( 'NONE', #20, #199, #151, .T. ) ;
#127 = LINE ( 'NONE', #87, #90 ) ;
#128 = DIRECTION ( 'NONE',  ( -0.0000000000000000000, -0.0000000000000000000, -1.000000000000000000 ) ) ;
#129 = CONICAL_SURFACE ( 'NONE', #85, 0.003999999999999999216, 0.7853981633974503884 ) ;
#130 = DIRECTION ( 'NONE',  ( -0.0000000000000000000, -0.0000000000000000000, -1.000000000000000000 ) ) ;
#131 = APPLICATION_CONTEXT ( 'automotive_design' ) ;
#132 = VERTEX_POINT ( 'NONE', #10 ) ;
#133 = EDGE_CURVE ( 'NONE', #22, #212, #203, .T. ) ;
#134 = VERTEX_POINT ( 'NONE', #220 ) ;
#135 = DIRECTION ( 'NONE',  ( 1.000000000000000000, 0.0000000000000000000, -0.0000000000000000000 ) ) ;
#136 = ORIENTED_EDGE ( 'NONE', *, *, #16, .F. ) ;
#137 = PRODUCT_RELATED_PRODUCT_CATEGORY ( 'part', '', ( #88 ) ) ;
#138 = CARTESIAN_POINT ( 'NONE',  ( 0.0000000000000000000, 0.0000000000000000000, 2.500000000000000000 ) ) ;
#139 =( CONVERSION_BASED_UNIT ( 'INCH', #155 ) LENGTH_UNIT ( ) NAMED_UNIT ( #210 ) );
#140 = ORIENTED_EDGE ( 'NONE', *, *, #150, .F. ) ;
#141 = CARTESIAN_POINT ( 'NONE',  ( 0.003999999999999999216, 0.0000000000000000000, 2.500000000000000000 ) ) ;
#142 = ORIENTED_EDGE ( 'NONE', *, *, #84, .F. ) ;
#143 = DIRECTION ( 'NONE',  ( 0.0000000000000000000, 0.0000000000000000000, 1.000000000000000000 ) ) ;
#144 = AXIS2_PLACEMENT_3D ( 'NONE', #205, #29, #30 ) ;
#145 = EDGE_CURVE ( 'NONE', #184, #199, #113, .T. ) ;
#146 = SURFACE_STYLE_FILL_AREA ( #237 ) ;
#147 = AXIS2_PLACEMENT_3D ( 'NONE', #193, #154, #240 ) ;
#148 = CYLINDRICAL_SURFACE ( 'NONE', #57, 0.1562500000000000000 ) ;
#149 = LINE ( 'NONE', #46, #172 ) ;
#150 = EDGE_CURVE ( 'NONE', #184, #134, #213, .T. ) ;
#151 = CIRCLE ( 'NONE', #39, 0.1562500000000000000 ) ;
#152 = DIRECTION ( 'NONE',  ( 0.0000000000000000000, 0.0000000000000000000, -1.000000000000000000 ) ) ;
#153 = ORIENTED_EDGE ( 'NONE', *, *, #61, .F. ) ;
#154 = DIRECTION ( 'NONE',  ( -0.0000000000000000000, -0.0000000000000000000, -1.000000000000000000 ) ) ;
#155 = LENGTH_MEASURE_WITH_UNIT ( LENGTH_MEASURE( 0.02539999999999999897 ), #41 );
#156 = ORIENTED_EDGE ( 'NONE', *, *, #145, .F. ) ;
#157 = EDGE_LOOP ( 'NONE', ( #36, #159, #53, #37 ) ) ;
#158 = UNCERTAINTY_MEASURE_WITH_UNIT (LENGTH_MEASURE( 1.000000000000000082E-05 ), #34, 'distance_accuracy_value', 'NONE');
#159 = ORIENTED_EDGE ( 'NONE', *, *, #61, .T. ) ;
#160 = EDGE_CURVE ( 'NONE', #22, #20, #149, .T. ) ;
#161 = ORIENTED_EDGE ( 'NONE', *, *, #126, .F. ) ;
#162 = DIRECTION ( 'NONE',  ( -1.000000000000000000, 0.0000000000000000000, 0.0000000000000000000 ) ) ;
#163 = PRESENTATION_LAYER_ASSIGNMENT (  '', '', ( #3 ) ) ;
#164 = FACE_OUTER_BOUND ( 'NONE', #179, .T. ) ;
#165 = DIRECTION ( 'NONE',  ( 0.7071067811865490160, 0.0000000000000000000, -0.7071067811865460184 ) ) ;
#166 = COLOUR_RGB ( '',0.7921568627450980005, 0.8196078431372548767, 0.9333333333333333481 ) ;
#167 = PRODUCT_CONTEXT ( 'NONE', #131, 'mechanical' ) ;
#168 = DIRECTION ( 'NONE',  ( 0.0000000000000000000, 0.0000000000000000000, -1.000000000000000000 ) ) ;
#169 = EDGE_CURVE ( 'NONE', #212, #199, #8, .T. ) ;
#170 = EDGE_CURVE ( 'NONE', #134, #184, #181, .T. ) ;
#171 = AXIS2_PLACEMENT_3D ( 'NONE', #119, #80, #70 ) ;
#172 = VECTOR ( 'NONE', #128, 39.37007874015748143 ) ;
#173 = CARTESIAN_POINT ( 'NONE',  ( 0.0000000000000000000, 0.0000000000000000000, 2.500000000000000000 ) ) ;
#174 = FACE_OUTER_BOUND ( 'NONE', #82, .T. ) ;
#175 = CARTESIAN_POINT ( 'NONE',  ( 0.0000000000000000000, 0.0000000000000000000, 0.0000000000000000000 ) ) ;
#176 = PRODUCT_DEFINITION_CONTEXT ( 'detailed design', #72, 'design' ) ;
#177 = AXIS2_PLACEMENT_3D ( 'NONE', #42, #52, #135 ) ;
#178 = ORIENTED_EDGE ( 'NONE', *, *, #145, .T. ) ;
#179 = EDGE_LOOP ( 'NONE', ( #40, #226, #161, #246 ) ) ;
#180 = SURFACE_SIDE_STYLE ('',( #107 ) ) ;
#181 = CIRCLE ( 'NONE', #125, 0.003999999999999999216 ) ;
#182 = DIRECTION ( 'NONE',  ( 1.000000000000000000, 0.0000000000000000000, 0.0000000000000000000 ) ) ;
#183 = DIMENSIONAL_EXPONENTS ( 1.000000000000000000, 0.0000000000000000000, 0.0000000000000000000, 0.0000000000000000000, 0.0000000000000000000, 0.0000000000000000000, 0.0000000000000000000 ) ;
#184 = VERTEX_POINT ( 'NONE', #95 ) ;
#185 = ADVANCED_BREP_SHAPE_REPRESENTATION ( 'Micro_RNC-312-2', ( #38, #229 ), #92 ) ;
#186 = SURFACE_STYLE_USAGE ( .BOTH. , #86 ) ;
#187 = ADVANCED_FACE ( 'NONE', ( #35 ), #228, .T. ) ;
#188 = DIRECTION ( 'NONE',  ( -1.000000000000000000, 0.0000000000000000000, 0.0000000000000000000 ) ) ;
#189 = STYLED_ITEM ( 'NONE', ( #215 ), #185 ) ;
#190 = DIRECTION ( 'NONE',  ( -1.000000000000000000, 0.0000000000000000000, 0.0000000000000000000 ) ) ;
#191 = CARTESIAN_POINT ( 'NONE',  ( -0.003999999999999999216, 4.898587196589411612E-19, 0.0000000000000000000 ) ) ;
#192 = CARTESIAN_POINT ( 'NONE',  ( 0.003999999999999999216, 0.0000000000000000000, 0.0000000000000000000 ) ) ;
#193 = CARTESIAN_POINT ( 'NONE',  ( 0.0000000000000000000, 0.0000000000000000000, 0.0000000000000000000 ) ) ;
#194 = CARTESIAN_POINT ( 'NONE',  ( 0.0000000000000000000, 0.0000000000000000000, 0.1522499999999993858 ) ) ;
#195 = DIMENSIONAL_EXPONENTS ( 1.000000000000000000, 0.0000000000000000000, 0.0000000000000000000, 0.0000000000000000000, 0.0000000000000000000, 0.0000000000000000000, 0.0000000000000000000 ) ;
#196 = ORIENTED_EDGE ( 'NONE', *, *, #71, .F. ) ;
#197 = CONICAL_SURFACE ( 'NONE', #171, 0.003999999999999999216, 0.7853981633974503884 ) ;
#198 = DIRECTION ( 'NONE',  ( -1.000000000000000000, 0.0000000000000000000, 0.0000000000000000000 ) ) ;
#199 = VERTEX_POINT ( 'NONE', #244 ) ;
#200 =( CONVERSION_BASED_UNIT ( 'INCH', #60 ) LENGTH_UNIT ( ) NAMED_UNIT ( #195 ) );
#201 = ADVANCED_FACE ( 'NONE', ( #19 ), #81, .T. ) ;
#202 = ORIENTED_EDGE ( 'NONE', *, *, #16, .T. ) ;
#203 = CIRCLE ( 'NONE', #122, 0.1562500000000000000 ) ;
#204 =( LENGTH_UNIT ( ) NAMED_UNIT ( * ) SI_UNIT ( $, .METRE. ) );
#205 = CARTESIAN_POINT ( 'NONE',  ( 0.0000000000000000000, 0.0000000000000000000, 2.500000000000000000 ) ) ;
#206 = ADVANCED_FACE ( 'NONE', ( #93 ), #33, .T. ) ;
#207 = CARTESIAN_POINT ( 'NONE',  ( 0.0000000000000000000, 0.0000000000000000000, 0.0000000000000000000 ) ) ;
#208 = MECHANICAL_DESIGN_GEOMETRIC_PRESENTATION_REPRESENTATION (  '', ( #189 ), #94 ) ;
#209 = ORIENTED_EDGE ( 'NONE', *, *, #150, .T. ) ;
#210 = DIMENSIONAL_EXPONENTS ( 1.000000000000000000, 0.0000000000000000000, 0.0000000000000000000, 0.0000000000000000000, 0.0000000000000000000, 0.0000000000000000000, 0.0000000000000000000 ) ;
#211 = ORIENTED_EDGE ( 'NONE', *, *, #170, .T. ) ;
#212 = VERTEX_POINT ( 'NONE', #54 ) ;
#213 = CIRCLE ( 'NONE', #147, 0.003999999999999999216 ) ;
#214 = PLANE ( 'NONE',  #177 ) ;
#215 = PRESENTATION_STYLE_ASSIGNMENT (( #232 ) ) ;
#216 = DIRECTION ( 'NONE',  ( -1.000000000000000000, 0.0000000000000000000, 0.0000000000000000000 ) ) ;
#217 = VECTOR ( 'NONE', #104, 39.37007874015748143 ) ;
#218 = DIRECTION ( 'NONE',  ( -0.0000000000000000000, -0.0000000000000000000, -1.000000000000000000 ) ) ;
#219 = CIRCLE ( 'NONE', #111, 0.1562500000000000000 ) ;
#220 = CARTESIAN_POINT ( 'NONE',  ( -0.003999999999999999216, 9.812482478168165875E-18, 0.0000000000000000000 ) ) ;
#221 = EDGE_CURVE ( 'NONE', #132, #22, #75, .T. ) ;
#222 = PRODUCT_DEFINITION_SHAPE ( 'NONE', 'NONE',  #89 ) ;
#223 = CIRCLE ( 'NONE', #144, 0.003999999999999999216 ) ;
#224 = ADVANCED_FACE ( 'NONE', ( #174 ), #214, .F. ) ;
#225 =( NAMED_UNIT ( * ) PLANE_ANGLE_UNIT ( ) SI_UNIT ( $, .RADIAN. ) );
#226 = ORIENTED_EDGE ( 'NONE', *, *, #169, .T. ) ;
#227 = VERTEX_POINT ( 'NONE', #141 ) ;
#228 = CYLINDRICAL_SURFACE ( 'NONE', #103, 0.1562500000000000000 ) ;
#229 = AXIS2_PLACEMENT_3D ( 'NONE', #2, #123, #116 ) ;
#230 = DIRECTION ( 'NONE',  ( -0.0000000000000000000, -0.0000000000000000000, -1.000000000000000000 ) ) ;
#231 = DIRECTION ( 'NONE',  ( 1.000000000000000000, 0.0000000000000000000, 0.0000000000000000000 ) ) ;
#232 = SURFACE_STYLE_USAGE ( .BOTH. , #180 ) ;
#233 = FACE_OUTER_BOUND ( 'NONE', #249, .T. ) ;
#234 = PRODUCT_DEFINITION_FORMATION_WITH_SPECIFIED_SOURCE ( 'ANY', '', #88, .NOT_KNOWN. ) ;
#235 =( LENGTH_UNIT ( ) NAMED_UNIT ( * ) SI_UNIT ( $, .METRE. ) );
#236 = LINE ( 'NONE', #191, #217 ) ;
#237 = FILL_AREA_STYLE ('',( #65 ) ) ;
#238 = CARTESIAN_POINT ( 'NONE',  ( 0.0000000000000000000, 0.0000000000000000000, 2.500000000000000000 ) ) ;
#239 = VECTOR ( 'NONE', #56, 39.37007874015748143 ) ;
#240 = DIRECTION ( 'NONE',  ( -1.000000000000000000, 0.0000000000000000000, 0.0000000000000000000 ) ) ;
#241 = CARTESIAN_POINT ( 'NONE',  ( 0.0000000000000000000, 0.0000000000000000000, 2.347750000000000448 ) ) ;
#242 = DIRECTION ( 'NONE',  ( 0.0000000000000000000, 0.0000000000000000000, -1.000000000000000000 ) ) ;
#243 = DIRECTION ( 'NONE',  ( 0.0000000000000000000, 0.0000000000000000000, -1.000000000000000000 ) ) ;
#244 = CARTESIAN_POINT ( 'NONE',  ( 0.1562500000000000000, 1.913510623667739463E-17, 0.1522499999999993858 ) ) ;
#245 = ORIENTED_EDGE ( 'NONE', *, *, #126, .T. ) ;
#246 = ORIENTED_EDGE ( 'NONE', *, *, #160, .F. ) ;
#247 = AXIS2_PLACEMENT_3D ( 'NONE', #138, #1, #162 ) ;
#248 = DIRECTION ( 'NONE',  ( 1.000000000000000000, 0.0000000000000000000, -0.0000000000000000000 ) ) ;
#249 = EDGE_LOOP ( 'NONE', ( #142, #140, #178, #202 ) ) ;
ENDSEC;
END-ISO-10303-21;
