ISO-10303-21;
HEADER;
FILE_DESCRIPTION (( 'STEP AP214' ),
    '1' );
FILE_NAME ('Micro_SPD-250-100.STEP',
    '2021-09-03T21:20:25',
    ( '' ),
    ( '' ),
    'SwSTEP 2.0',
    'SolidWorks 2020',
    '' );
FILE_SCHEMA (( 'AUTOMOTIVE_DESIGN' ));
ENDSEC;

DATA;
#1 =( LENGTH_UNIT ( ) NAMED_UNIT ( * ) SI_UNIT ( $, .METRE. ) );
#2 = EDGE_LOOP ( 'NONE', ( #229, #249 ) ) ;
#3 = EDGE_CURVE ( 'NONE', #135, #86, #133, .T. ) ;
#4 = ADVANCED_FACE ( 'NONE', ( #309 ), #331, .T. ) ;
#5 = FACE_OUTER_BOUND ( 'NONE', #262, .T. ) ;
#6 = ORIENTED_EDGE ( 'NONE', *, *, #142, .F. ) ;
#7 = PRODUCT_CONTEXT ( 'NONE', #278, 'mechanical' ) ;
#8 = ORIENTED_EDGE ( 'NONE', *, *, #305, .F. ) ;
#9 =( NAMED_UNIT ( * ) PLANE_ANGLE_UNIT ( ) SI_UNIT ( $, .RADIAN. ) );
#10 = AXIS2_PLACEMENT_3D ( 'NONE', #28, #270, #242 ) ;
#11 = ORIENTED_EDGE ( 'NONE', *, *, #26, .F. ) ;
#12 = DIRECTION ( 'NONE',  ( -0.0000000000000000000, -0.0000000000000000000, -1.000000000000000000 ) ) ;
#13 = ORIENTED_EDGE ( 'NONE', *, *, #142, .T. ) ;
#14 = EDGE_LOOP ( 'NONE', ( #146, #294, #169, #141 ) ) ;
#15 = AXIS2_PLACEMENT_3D ( 'NONE', #190, #322, #104 ) ;
#16 = EDGE_CURVE ( 'NONE', #135, #113, #281, .T. ) ;
#17 = DIRECTION ( 'NONE',  ( 1.000000000000000000, 0.0000000000000000000, 0.0000000000000000000 ) ) ;
#18 = DIRECTION ( 'NONE',  ( -0.7660444431189794567, 9.381338752702748037E-17, 0.6427876096865376976 ) ) ;
#19 = CARTESIAN_POINT ( 'NONE',  ( 0.0000000000000000000, 0.0000000000000000000, 0.0000000000000000000 ) ) ;
#20 = AXIS2_PLACEMENT_3D ( 'NONE', #165, #328, #298 ) ;
#21 = CARTESIAN_POINT ( 'NONE',  ( -0.1250000000000000555, 0.0000000000000000000, 2.500000000000000000 ) ) ;
#22 = CYLINDRICAL_SURFACE ( 'NONE', #90, 0.1249500000000000749 ) ;
#23 = ADVANCED_FACE ( 'NONE', ( #41 ), #96, .T. ) ;
#24 = LINE ( 'NONE', #129, #315 ) ;
#25 = VECTOR ( 'NONE', #64, 39.37007874015748143 ) ;
#26 = EDGE_CURVE ( 'NONE', #162, #302, #176, .T. ) ;
#27 = AXIS2_PLACEMENT_3D ( 'NONE', #286, #75, #346 ) ;
#28 = CARTESIAN_POINT ( 'NONE',  ( 0.0000000000000000000, 0.0000000000000000000, 2.485000000000000320 ) ) ;
#29 = ORIENTED_EDGE ( 'NONE', *, *, #245, .F. ) ;
#30 = ORIENTED_EDGE ( 'NONE', *, *, #311, .F. ) ;
#31 = DIRECTION ( 'NONE',  ( -1.000000000000000000, 0.0000000000000000000, 0.0000000000000000000 ) ) ;
#32 = ORIENTED_EDGE ( 'NONE', *, *, #305, .T. ) ;
#33 = CIRCLE ( 'NONE', #222, 0.02149999999999999481 ) ;
#34 = LENGTH_MEASURE_WITH_UNIT ( LENGTH_MEASURE( 0.02539999999999999897 ), #168 );
#35 = ORIENTED_EDGE ( 'NONE', *, *, #122, .T. ) ;
#36 = LINE ( 'NONE', #193, #248 ) ;
#37 = ORIENTED_EDGE ( 'NONE', *, *, #149, .F. ) ;
#38 = FILL_AREA_STYLE_COLOUR ( '', #91 ) ;
#39 = EDGE_LOOP ( 'NONE', ( #265, #45, #206, #88 ) ) ;
#40 = MECHANICAL_DESIGN_GEOMETRIC_PRESENTATION_REPRESENTATION (  '', ( #299 ), #201 ) ;
#41 = FACE_OUTER_BOUND ( 'NONE', #329, .T. ) ;
#42 = CARTESIAN_POINT ( 'NONE',  ( 0.0000000000000000000, 0.0000000000000000000, 0.0000000000000000000 ) ) ;
#43 = PRODUCT_RELATED_PRODUCT_CATEGORY ( 'part', '', ( #98 ) ) ;
#44 = APPLICATION_CONTEXT ( 'automotive_design' ) ;
#45 = ORIENTED_EDGE ( 'NONE', *, *, #152, .T. ) ;
#46 = EDGE_CURVE ( 'NONE', #279, #113, #240, .T. ) ;
#47 = LENGTH_MEASURE_WITH_UNIT ( LENGTH_MEASURE( 0.02539999999999999897 ), #203 );
#48 = CARTESIAN_POINT ( 'NONE',  ( -0.1249500000000000749, 0.0000000000000000000, 0.0000000000000000000 ) ) ;
#49 = CIRCLE ( 'NONE', #20, 0.1250000000000000555 ) ;
#50 = CARTESIAN_POINT ( 'NONE',  ( 0.0000000000000000000, 0.0000000000000000000, 0.0000000000000000000 ) ) ;
#51 = DIRECTION ( 'NONE',  ( -1.000000000000000000, 0.0000000000000000000, 0.0000000000000000000 ) ) ;
#52 = CARTESIAN_POINT ( 'NONE',  ( 0.0000000000000000000, 0.0000000000000000000, 0.0000000000000000000 ) ) ;
#53 = DIRECTION ( 'NONE',  ( -0.0000000000000000000, -0.0000000000000000000, -1.000000000000000000 ) ) ;
#54 = FACE_OUTER_BOUND ( 'NONE', #271, .T. ) ;
#55 = PRESENTATION_STYLE_ASSIGNMENT (( #160 ) ) ;
#56 = CIRCLE ( 'NONE', #182, 0.1249500000000000194 ) ;
#57 =( NAMED_UNIT ( * ) SI_UNIT ( $, .STERADIAN. ) SOLID_ANGLE_UNIT ( ) );
#58 = ORIENTED_EDGE ( 'NONE', *, *, #16, .T. ) ;
#59 = ORIENTED_EDGE ( 'NONE', *, *, #46, .F. ) ;
#60 = PRODUCT_DEFINITION_SHAPE ( 'NONE', 'NONE',  #156 ) ;
#61 = COLOUR_RGB ( '',0.7921568627450980005, 0.8196078431372548767, 0.9333333333333333481 ) ;
#62 = DIRECTION ( 'NONE',  ( 0.0000000000000000000, 0.0000000000000000000, 1.000000000000000000 ) ) ;
#63 = ADVANCED_FACE ( 'NONE', ( #223 ), #339, .T. ) ;
#64 = DIRECTION ( 'NONE',  ( 0.7071067811865507924, 8.659560562354973534E-17, -0.7071067811865443531 ) ) ;
#65 = EDGE_CURVE ( 'NONE', #171, #324, #123, .T. ) ;
#66 = SHAPE_DEFINITION_REPRESENTATION ( #60, #77 ) ;
#67 = DIRECTION ( 'NONE',  ( 0.0000000000000000000, 0.0000000000000000000, -1.000000000000000000 ) ) ;
#68 = PRESENTATION_LAYER_ASSIGNMENT (  '', '', ( #76 ) ) ;
#69 = ORIENTED_EDGE ( 'NONE', *, *, #26, .T. ) ;
#70 = EDGE_CURVE ( 'NONE', #171, #304, #33, .T. ) ;
#71 = DIRECTION ( 'NONE',  ( -0.0000000000000000000, -0.0000000000000000000, -1.000000000000000000 ) ) ;
#72 = EDGE_CURVE ( 'NONE', #86, #135, #267, .T. ) ;
#73 = ORIENTED_EDGE ( 'NONE', *, *, #192, .F. ) ;
#74 = CONICAL_SURFACE ( 'NONE', #289, 0.02149999999999999481, 0.8726646259971668762 ) ;
#75 = DIRECTION ( 'NONE',  ( -0.0000000000000000000, -0.0000000000000000000, -1.000000000000000000 ) ) ;
#76 = STYLED_ITEM ( 'NONE', ( #175 ), #77 ) ;
#77 = ADVANCED_BREP_SHAPE_REPRESENTATION ( 'Micro_SPD-250-100', ( #330, #202 ), #184 ) ;
#78 = DIRECTION ( 'NONE',  ( -0.0000000000000000000, -0.0000000000000000000, -1.000000000000000000 ) ) ;
#79 = CARTESIAN_POINT ( 'NONE',  ( -0.1100000000000002087, 0.0000000000000000000, 2.500000000000000000 ) ) ;
#80 = ADVANCED_FACE ( 'NONE', ( #144 ), #22, .T. ) ;
#81 = VECTOR ( 'NONE', #277, 39.37007874015748854 ) ;
#82 = ADVANCED_FACE ( 'NONE', ( #312 ), #74, .T. ) ;
#83 = DIRECTION ( 'NONE',  ( -0.0000000000000000000, -0.0000000000000000000, -1.000000000000000000 ) ) ;
#84 = FILL_AREA_STYLE ('',( #263 ) ) ;
#85 = FACE_OUTER_BOUND ( 'NONE', #14, .T. ) ;
#86 = VERTEX_POINT ( 'NONE', #151 ) ;
#87 = CONICAL_SURFACE ( 'NONE', #173, 0.1100000000000002087, 0.7853981633974528309 ) ;
#88 = ORIENTED_EDGE ( 'NONE', *, *, #65, .F. ) ;
#89 = CARTESIAN_POINT ( 'NONE',  ( 0.0000000000000000000, 0.0000000000000000000, 0.7500000000000001110 ) ) ;
#90 = AXIS2_PLACEMENT_3D ( 'NONE', #19, #53, #51 ) ;
#91 = COLOUR_RGB ( '',0.7921568627450980005, 0.8196078431372548767, 0.9333333333333333481 ) ;
#92 = DIRECTION ( 'NONE',  ( -1.000000000000000000, 0.0000000000000000000, 0.0000000000000000000 ) ) ;
#93 = DIRECTION ( 'NONE',  ( 1.000000000000000000, 0.0000000000000000000, 0.0000000000000000000 ) ) ;
#94 =( CONVERSION_BASED_UNIT ( 'INCH', #301 ) LENGTH_UNIT ( ) NAMED_UNIT ( #244 ) );
#95 = DIRECTION ( 'NONE',  ( 1.000000000000000000, 0.0000000000000000000, 0.0000000000000000000 ) ) ;
#96 = CYLINDRICAL_SURFACE ( 'NONE', #314, 0.1250000000000000555 ) ;
#97 = CARTESIAN_POINT ( 'NONE',  ( 0.0000000000000000000, 0.0000000000000000000, 2.500000000000000000 ) ) ;
#98 = PRODUCT ( 'Micro_SPD-250-100', 'Micro_SPD-250-100', '', ( #7 ) ) ;
#99 = DIRECTION ( 'NONE',  ( -0.0000000000000000000, -0.0000000000000000000, -1.000000000000000000 ) ) ;
#100 = CARTESIAN_POINT ( 'NONE',  ( 0.0000000000000000000, 0.0000000000000000000, 0.0000000000000000000 ) ) ;
#101 = UNCERTAINTY_MEASURE_WITH_UNIT (LENGTH_MEASURE( 1.000000000000000082E-05 ), #94, 'distance_accuracy_value', 'NONE');
#102 = DIRECTION ( 'NONE',  ( -0.0000000000000000000, -0.0000000000000000000, -1.000000000000000000 ) ) ;
#103 = LINE ( 'NONE', #126, #228 ) ;
#104 = DIRECTION ( 'NONE',  ( 1.000000000000000000, 0.0000000000000000000, -0.0000000000000000000 ) ) ;
#105 = DIRECTION ( 'NONE',  ( -1.000000000000000000, 0.0000000000000000000, 0.0000000000000000000 ) ) ;
#106 = DIRECTION ( 'NONE',  ( 1.000000000000000000, 0.0000000000000000000, 0.0000000000000000000 ) ) ;
#107 = VERTEX_POINT ( 'NONE', #234 ) ;
#108 = VECTOR ( 'NONE', #18, 39.37007874015748854 ) ;
#109 =( NAMED_UNIT ( * ) PLANE_ANGLE_UNIT ( ) SI_UNIT ( $, .RADIAN. ) );
#110 = ORIENTED_EDGE ( 'NONE', *, *, #70, .F. ) ;
#111 = CARTESIAN_POINT ( 'NONE',  ( -0.1250000000000000555, 0.0000000000000000000, 0.7500499999999999945 ) ) ;
#112 = EDGE_CURVE ( 'NONE', #302, #324, #56, .T. ) ;
#113 = VERTEX_POINT ( 'NONE', #257 ) ;
#114 = APPLICATION_PROTOCOL_DEFINITION ( 'draft international standard', 'automotive_design', 1998, #44 ) ;
#115 = CONICAL_SURFACE ( 'NONE', #209, 0.1249500000000001304, 0.7853981633974591592 ) ;
#116 = ORIENTED_EDGE ( 'NONE', *, *, #269, .T. ) ;
#117 = ORIENTED_EDGE ( 'NONE', *, *, #149, .T. ) ;
#118 = CARTESIAN_POINT ( 'NONE',  ( 0.0000000000000000000, 0.0000000000000000000, 0.0000000000000000000 ) ) ;
#119 = CARTESIAN_POINT ( 'NONE',  ( 0.0000000000000000000, 0.0000000000000000000, 0.0000000000000000000 ) ) ;
#120 = AXIS2_PLACEMENT_3D ( 'NONE', #50, #150, #233 ) ;
#121 = ORIENTED_EDGE ( 'NONE', *, *, #192, .T. ) ;
#122 = EDGE_CURVE ( 'NONE', #107, #324, #103, .T. ) ;
#123 = LINE ( 'NONE', #247, #81 ) ;
#124 = DIRECTION ( 'NONE',  ( -0.0000000000000000000, -0.0000000000000000000, -1.000000000000000000 ) ) ;
#125 = AXIS2_PLACEMENT_3D ( 'NONE', #174, #138, #148 ) ;
#126 = CARTESIAN_POINT ( 'NONE',  ( 0.1249500000000000749, 1.530196175534618635E-17, 0.0000000000000000000 ) ) ;
#127 = CARTESIAN_POINT ( 'NONE',  ( 0.1250000000000000555, 1.530808498934192125E-17, 0.7500499999999999945 ) ) ;
#128 = LINE ( 'NONE', #79, #274 ) ;
#129 = CARTESIAN_POINT ( 'NONE',  ( -0.1249500000000001304, 1.530196175534619251E-17, 0.7500000000000001110 ) ) ;
#130 = CIRCLE ( 'NONE', #260, 0.1249500000000001304 ) ;
#131 = FACE_OUTER_BOUND ( 'NONE', #172, .T. ) ;
#132 =( CONVERSION_BASED_UNIT ( 'INCH', #34 ) LENGTH_UNIT ( ) NAMED_UNIT ( #333 ) );
#133 = CIRCLE ( 'NONE', #282, 0.1100000000000002087 ) ;
#134 = AXIS2_PLACEMENT_3D ( 'NONE', #157, #214, #185 ) ;
#135 = VERTEX_POINT ( 'NONE', #344 ) ;
#136 = DIRECTION ( 'NONE',  ( 0.7071067811865551223, 0.0000000000000000000, 0.7071067811865398012 ) ) ;
#137 = ORIENTED_EDGE ( 'NONE', *, *, #122, .F. ) ;
#138 = DIRECTION ( 'NONE',  ( 0.0000000000000000000, 0.0000000000000000000, -1.000000000000000000 ) ) ;
#139 = AXIS2_PLACEMENT_3D ( 'NONE', #341, #334, #93 ) ;
#140 = DIRECTION ( 'NONE',  ( 1.000000000000000000, 0.0000000000000000000, 0.0000000000000000000 ) ) ;
#141 = ORIENTED_EDGE ( 'NONE', *, *, #276, .F. ) ;
#142 = EDGE_CURVE ( 'NONE', #107, #162, #130, .T. ) ;
#143 = SURFACE_SIDE_STYLE ('',( #170 ) ) ;
#144 = FACE_OUTER_BOUND ( 'NONE', #338, .T. ) ;
#145 = UNCERTAINTY_MEASURE_WITH_UNIT (LENGTH_MEASURE( 1.000000000000000082E-05 ), #251, 'distance_accuracy_value', 'NONE');
#146 = ORIENTED_EDGE ( 'NONE', *, *, #269, .F. ) ;
#147 = ADVANCED_FACE ( 'NONE', ( #342 ), #115, .T. ) ;
#148 = DIRECTION ( 'NONE',  ( 1.000000000000000000, 0.0000000000000000000, 0.0000000000000000000 ) ) ;
#149 = EDGE_CURVE ( 'NONE', #218, #295, #325, .T. ) ;
#150 = DIRECTION ( 'NONE',  ( 0.0000000000000000000, 0.0000000000000000000, 1.000000000000000000 ) ) ;
#151 = CARTESIAN_POINT ( 'NONE',  ( -0.1100000000000002087, 0.0000000000000000000, 2.500000000000000000 ) ) ;
#152 = EDGE_CURVE ( 'NONE', #304, #302, #319, .T. ) ;
#153 = PRESENTATION_LAYER_ASSIGNMENT (  '', '', ( #299 ) ) ;
#154 = CARTESIAN_POINT ( 'NONE',  ( 0.02149999999999999481, 0.0000000000000000000, 0.0000000000000000000 ) ) ;
#155 = MECHANICAL_DESIGN_GEOMETRIC_PRESENTATION_REPRESENTATION (  '', ( #76 ), #283 ) ;
#156 = PRODUCT_DEFINITION ( 'UNKNOWN', '', #210, #287 ) ;
#157 = CARTESIAN_POINT ( 'NONE',  ( 0.0000000000000000000, 0.0000000000000000000, 0.7500499999999999945 ) ) ;
#158 = DIRECTION ( 'NONE',  ( -0.0000000000000000000, -0.0000000000000000000, -1.000000000000000000 ) ) ;
#159 = ADVANCED_FACE ( 'NONE', ( #321 ), #291, .F. ) ;
#160 = SURFACE_STYLE_USAGE ( .BOTH. , #163 ) ;
#161 = CIRCLE ( 'NONE', #232, 0.02149999999999999481 ) ;
#162 = VERTEX_POINT ( 'NONE', #317 ) ;
#163 = SURFACE_SIDE_STYLE ('',( #296 ) ) ;
#164 = EDGE_LOOP ( 'NONE', ( #194, #58, #59, #73 ) ) ;
#165 = CARTESIAN_POINT ( 'NONE',  ( 0.0000000000000000000, 0.0000000000000000000, 0.7500499999999999945 ) ) ;
#166 = ORIENTED_EDGE ( 'NONE', *, *, #152, .F. ) ;
#167 = CONICAL_SURFACE ( 'NONE', #343, 0.1249500000000001304, 0.7853981633974591592 ) ;
#168 =( LENGTH_UNIT ( ) NAMED_UNIT ( * ) SI_UNIT ( $, .METRE. ) );
#169 = ORIENTED_EDGE ( 'NONE', *, *, #311, .T. ) ;
#170 = SURFACE_STYLE_FILL_AREA ( #280 ) ;
#171 = VERTEX_POINT ( 'NONE', #154 ) ;
#172 = EDGE_LOOP ( 'NONE', ( #250, #189 ) ) ;
#173 = AXIS2_PLACEMENT_3D ( 'NONE', #266, #195, #349 ) ;
#174 = CARTESIAN_POINT ( 'NONE',  ( 0.0000000000000000000, 0.0000000000000000000, 2.485000000000000320 ) ) ;
#175 = PRESENTATION_STYLE_ASSIGNMENT (( #177 ) ) ;
#176 = LINE ( 'NONE', #48, #208 ) ;
#177 = SURFACE_STYLE_USAGE ( .BOTH. , #143 ) ;
#178 = DIRECTION ( 'NONE',  ( -1.000000000000000000, 0.0000000000000000000, 0.0000000000000000000 ) ) ;
#179 = AXIS2_PLACEMENT_3D ( 'NONE', #97, #67, #178 ) ;
#180 = DIRECTION ( 'NONE',  ( -1.000000000000000000, 0.0000000000000000000, 0.0000000000000000000 ) ) ;
#181 = LINE ( 'NONE', #231, #259 ) ;
#182 = AXIS2_PLACEMENT_3D ( 'NONE', #345, #83, #180 ) ;
#183 = DIRECTION ( 'NONE',  ( 0.0000000000000000000, 0.0000000000000000000, 1.000000000000000000 ) ) ;
#184 =( GEOMETRIC_REPRESENTATION_CONTEXT ( 3 ) GLOBAL_UNCERTAINTY_ASSIGNED_CONTEXT ( ( #101 ) ) GLOBAL_UNIT_ASSIGNED_CONTEXT ( ( #94, #335, #246 ) ) REPRESENTATION_CONTEXT ( 'NONE', 'WORKASPACE' ) );
#185 = DIRECTION ( 'NONE',  ( 1.000000000000000000, 0.0000000000000000000, 0.0000000000000000000 ) ) ;
#186 = EDGE_CURVE ( 'NONE', #304, #171, #161, .T. ) ;
#187 = CARTESIAN_POINT ( 'NONE',  ( -0.1249500000000000194, 0.0000000000000000000, 0.08680485684528928270 ) ) ;
#188 = AXIS2_PLACEMENT_3D ( 'NONE', #118, #253, #17 ) ;
#189 = ORIENTED_EDGE ( 'NONE', *, *, #3, .T. ) ;
#190 = CARTESIAN_POINT ( 'NONE',  ( 0.0000000000000000000, 0.0000000000000000000, 2.500000000000000000 ) ) ;
#191 = ORIENTED_EDGE ( 'NONE', *, *, #220, .T. ) ;
#192 = EDGE_CURVE ( 'NONE', #86, #279, #128, .T. ) ;
#193 = CARTESIAN_POINT ( 'NONE',  ( 0.1249500000000001304, 0.0000000000000000000, 0.7500000000000001110 ) ) ;
#194 = ORIENTED_EDGE ( 'NONE', *, *, #3, .F. ) ;
#195 = DIRECTION ( 'NONE',  ( 0.0000000000000000000, 0.0000000000000000000, -1.000000000000000000 ) ) ;
#196 = ORIENTED_EDGE ( 'NONE', *, *, #276, .T. ) ;
#197 = CLOSED_SHELL ( 'NONE', ( #63, #219, #313, #4, #23, #323, #318, #284, #147, #80, #82, #159 ) ) ;
#198 = AXIS2_PLACEMENT_3D ( 'NONE', #221, #241, #31 ) ;
#199 = ORIENTED_EDGE ( 'NONE', *, *, #65, .T. ) ;
#200 = CARTESIAN_POINT ( 'NONE',  ( 0.1100000000000002087, 1.347111479062090938E-17, 2.500000000000000000 ) ) ;
#201 =( GEOMETRIC_REPRESENTATION_CONTEXT ( 3 ) GLOBAL_UNCERTAINTY_ASSIGNED_CONTEXT ( ( #337 ) ) GLOBAL_UNIT_ASSIGNED_CONTEXT ( ( #132, #109, #57 ) ) REPRESENTATION_CONTEXT ( 'NONE', 'WORKASPACE' ) );
#202 = AXIS2_PLACEMENT_3D ( 'NONE', #119, #308, #140 ) ;
#203 =( LENGTH_UNIT ( ) NAMED_UNIT ( * ) SI_UNIT ( $, .METRE. ) );
#204 = EDGE_CURVE ( 'NONE', #279, #295, #235, .T. ) ;
#205 = ORIENTED_EDGE ( 'NONE', *, *, #227, .T. ) ;
#206 = ORIENTED_EDGE ( 'NONE', *, *, #112, .T. ) ;
#207 = CARTESIAN_POINT ( 'NONE',  ( -0.02149999999999999481, 2.632990618166808958E-18, 0.0000000000000000000 ) ) ;
#208 = VECTOR ( 'NONE', #12, 39.37007874015748143 ) ;
#209 = AXIS2_PLACEMENT_3D ( 'NONE', #285, #288, #290 ) ;
#210 = PRODUCT_DEFINITION_FORMATION_WITH_SPECIFIED_SOURCE ( 'ANY', '', #98, .NOT_KNOWN. ) ;
#211 = CYLINDRICAL_SURFACE ( 'NONE', #332, 0.1249500000000000749 ) ;
#212 = DIRECTION ( 'NONE',  ( -1.000000000000000000, 0.0000000000000000000, 0.0000000000000000000 ) ) ;
#213 = DIRECTION ( 'NONE',  ( -1.000000000000000000, 0.0000000000000000000, 0.0000000000000000000 ) ) ;
#214 = DIRECTION ( 'NONE',  ( -0.0000000000000000000, -0.0000000000000000000, -1.000000000000000000 ) ) ;
#215 = CARTESIAN_POINT ( 'NONE',  ( 0.0000000000000000000, 0.0000000000000000000, 2.500000000000000000 ) ) ;
#216 = ORIENTED_EDGE ( 'NONE', *, *, #204, .T. ) ;
#217 = CYLINDRICAL_SURFACE ( 'NONE', #236, 0.1250000000000000555 ) ;
#218 = VERTEX_POINT ( 'NONE', #127 ) ;
#219 = ADVANCED_FACE ( 'NONE', ( #54 ), #211, .T. ) ;
#220 = EDGE_CURVE ( 'NONE', #113, #218, #181, .T. ) ;
#221 = CARTESIAN_POINT ( 'NONE',  ( 0.0000000000000000000, 0.0000000000000000000, 0.7500000000000001110 ) ) ;
#222 = AXIS2_PLACEMENT_3D ( 'NONE', #42, #230, #92 ) ;
#223 = FACE_OUTER_BOUND ( 'NONE', #39, .T. ) ;
#224 = CARTESIAN_POINT ( 'NONE',  ( 0.0000000000000000000, 0.0000000000000000000, 2.500000000000000000 ) ) ;
#225 = DIMENSIONAL_EXPONENTS ( 1.000000000000000000, 0.0000000000000000000, 0.0000000000000000000, 0.0000000000000000000, 0.0000000000000000000, 0.0000000000000000000, 0.0000000000000000000 ) ;
#226 = EDGE_LOOP ( 'NONE', ( #29, #6, #196, #117 ) ) ;
#227 = EDGE_CURVE ( 'NONE', #324, #302, #320, .T. ) ;
#228 = VECTOR ( 'NONE', #99, 39.37007874015748143 ) ;
#229 = ORIENTED_EDGE ( 'NONE', *, *, #70, .T. ) ;
#230 = DIRECTION ( 'NONE',  ( -0.0000000000000000000, -0.0000000000000000000, -1.000000000000000000 ) ) ;
#231 = CARTESIAN_POINT ( 'NONE',  ( 0.1250000000000000555, 1.530808498934192125E-17, 2.500000000000000000 ) ) ;
#232 = AXIS2_PLACEMENT_3D ( 'NONE', #52, #78, #213 ) ;
#233 = DIRECTION ( 'NONE',  ( 1.000000000000000000, 0.0000000000000000000, -0.0000000000000000000 ) ) ;
#234 = CARTESIAN_POINT ( 'NONE',  ( 0.1249500000000001304, 0.0000000000000000000, 0.7500000000000001110 ) ) ;
#235 = LINE ( 'NONE', #21, #347 ) ;
#236 = AXIS2_PLACEMENT_3D ( 'NONE', #215, #238, #105 ) ;
#237 = CARTESIAN_POINT ( 'NONE',  ( 0.0000000000000000000, 0.0000000000000000000, 0.0000000000000000000 ) ) ;
#238 = DIRECTION ( 'NONE',  ( -0.0000000000000000000, -0.0000000000000000000, -1.000000000000000000 ) ) ;
#239 = PLANE ( 'NONE',  #15 ) ;
#240 = CIRCLE ( 'NONE', #125, 0.1250000000000000555 ) ;
#241 = DIRECTION ( 'NONE',  ( -0.0000000000000000000, -0.0000000000000000000, -1.000000000000000000 ) ) ;
#242 = DIRECTION ( 'NONE',  ( 1.000000000000000000, 0.0000000000000000000, 0.0000000000000000000 ) ) ;
#243 = ORIENTED_EDGE ( 'NONE', *, *, #227, .F. ) ;
#244 = DIMENSIONAL_EXPONENTS ( 1.000000000000000000, 0.0000000000000000000, 0.0000000000000000000, 0.0000000000000000000, 0.0000000000000000000, 0.0000000000000000000, 0.0000000000000000000 ) ;
#245 = EDGE_CURVE ( 'NONE', #162, #295, #24, .T. ) ;
#246 =( NAMED_UNIT ( * ) SI_UNIT ( $, .STERADIAN. ) SOLID_ANGLE_UNIT ( ) );
#247 = CARTESIAN_POINT ( 'NONE',  ( 0.02149999999999999481, 0.0000000000000000000, 0.0000000000000000000 ) ) ;
#248 = VECTOR ( 'NONE', #136, 39.37007874015748854 ) ;
#249 = ORIENTED_EDGE ( 'NONE', *, *, #186, .T. ) ;
#250 = ORIENTED_EDGE ( 'NONE', *, *, #72, .T. ) ;
#251 =( CONVERSION_BASED_UNIT ( 'INCH', #47 ) LENGTH_UNIT ( ) NAMED_UNIT ( #225 ) );
#252 = DIRECTION ( 'NONE',  ( -1.000000000000000000, 0.0000000000000000000, 0.0000000000000000000 ) ) ;
#253 = DIRECTION ( 'NONE',  ( 0.0000000000000000000, 0.0000000000000000000, 1.000000000000000000 ) ) ;
#254 = DIRECTION ( 'NONE',  ( 1.000000000000000000, 0.0000000000000000000, 0.0000000000000000000 ) ) ;
#255 = CARTESIAN_POINT ( 'NONE',  ( 0.0000000000000000000, 0.0000000000000000000, 0.7500000000000001110 ) ) ;
#256 = DIRECTION ( 'NONE',  ( -0.7071067811865507924, 0.0000000000000000000, -0.7071067811865443531 ) ) ;
#257 = CARTESIAN_POINT ( 'NONE',  ( 0.1250000000000000555, 1.530808498934192125E-17, 2.485000000000000320 ) ) ;
#258 = DIRECTION ( 'NONE',  ( -1.000000000000000000, 0.0000000000000000000, 0.0000000000000000000 ) ) ;
#259 = VECTOR ( 'NONE', #102, 39.37007874015748143 ) ;
#260 = AXIS2_PLACEMENT_3D ( 'NONE', #255, #316, #212 ) ;
#261 = CARTESIAN_POINT ( 'NONE',  ( -0.1250000000000000555, 0.0000000000000000000, 2.485000000000000320 ) ) ;
#262 = EDGE_LOOP ( 'NONE', ( #340, #297, #121, #8 ) ) ;
#263 = FILL_AREA_STYLE_COLOUR ( '', #61 ) ;
#264 = FACE_OUTER_BOUND ( 'NONE', #268, .T. ) ;
#265 = ORIENTED_EDGE ( 'NONE', *, *, #186, .F. ) ;
#266 = CARTESIAN_POINT ( 'NONE',  ( 0.0000000000000000000, 0.0000000000000000000, 2.500000000000000000 ) ) ;
#267 = CIRCLE ( 'NONE', #139, 0.1100000000000002087 ) ;
#268 = EDGE_LOOP ( 'NONE', ( #310, #32, #216, #37 ) ) ;
#269 = EDGE_CURVE ( 'NONE', #162, #107, #307, .T. ) ;
#270 = DIRECTION ( 'NONE',  ( 0.0000000000000000000, 0.0000000000000000000, -1.000000000000000000 ) ) ;
#271 = EDGE_LOOP ( 'NONE', ( #116, #35, #306, #11 ) ) ;
#272 = CARTESIAN_POINT ( 'NONE',  ( 0.0000000000000000000, 0.0000000000000000000, 2.500000000000000000 ) ) ;
#273 = ORIENTED_EDGE ( 'NONE', *, *, #204, .F. ) ;
#274 = VECTOR ( 'NONE', #256, 39.37007874015748143 ) ;
#275 =( NAMED_UNIT ( * ) SI_UNIT ( $, .STERADIAN. ) SOLID_ANGLE_UNIT ( ) );
#276 = EDGE_CURVE ( 'NONE', #107, #218, #36, .T. ) ;
#277 = DIRECTION ( 'NONE',  ( 0.7660444431189794567, 0.0000000000000000000, 0.6427876096865376976 ) ) ;
#278 = APPLICATION_CONTEXT ( 'automotive_design' ) ;
#279 = VERTEX_POINT ( 'NONE', #261 ) ;
#280 = FILL_AREA_STYLE ('',( #38 ) ) ;
#281 = LINE ( 'NONE', #200, #25 ) ;
#282 = AXIS2_PLACEMENT_3D ( 'NONE', #224, #336, #95 ) ;
#283 =( GEOMETRIC_REPRESENTATION_CONTEXT ( 3 ) GLOBAL_UNCERTAINTY_ASSIGNED_CONTEXT ( ( #145 ) ) GLOBAL_UNIT_ASSIGNED_CONTEXT ( ( #251, #9, #275 ) ) REPRESENTATION_CONTEXT ( 'NONE', 'WORKASPACE' ) );
#284 = ADVANCED_FACE ( 'NONE', ( #5 ), #87, .T. ) ;
#285 = CARTESIAN_POINT ( 'NONE',  ( 0.0000000000000000000, 0.0000000000000000000, 0.7500000000000001110 ) ) ;
#286 = CARTESIAN_POINT ( 'NONE',  ( 0.0000000000000000000, 0.0000000000000000000, 0.08680485684528928270 ) ) ;
#287 = PRODUCT_DEFINITION_CONTEXT ( 'detailed design', #44, 'design' ) ;
#288 = DIRECTION ( 'NONE',  ( 0.0000000000000000000, 0.0000000000000000000, 1.000000000000000000 ) ) ;
#289 = AXIS2_PLACEMENT_3D ( 'NONE', #100, #183, #254 ) ;
#290 = DIRECTION ( 'NONE',  ( 1.000000000000000000, 0.0000000000000000000, 0.0000000000000000000 ) ) ;
#291 = PLANE ( 'NONE',  #120 ) ;
#292 = CARTESIAN_POINT ( 'NONE',  ( 0.1249500000000000194, 1.530196175534618327E-17, 0.08680485684528928270 ) ) ;
#293 = CIRCLE ( 'NONE', #10, 0.1250000000000000555 ) ;
#294 = ORIENTED_EDGE ( 'NONE', *, *, #245, .T. ) ;
#295 = VERTEX_POINT ( 'NONE', #111 ) ;
#296 = SURFACE_STYLE_FILL_AREA ( #84 ) ;
#297 = ORIENTED_EDGE ( 'NONE', *, *, #72, .F. ) ;
#298 = DIRECTION ( 'NONE',  ( 1.000000000000000000, 0.0000000000000000000, 0.0000000000000000000 ) ) ;
#299 = STYLED_ITEM ( 'NONE', ( #55 ), #330 ) ;
#300 = EDGE_LOOP ( 'NONE', ( #166, #110, #199, #205 ) ) ;
#301 = LENGTH_MEASURE_WITH_UNIT ( LENGTH_MEASURE( 0.02539999999999999897 ), #1 );
#302 = VERTEX_POINT ( 'NONE', #187 ) ;
#303 = APPLICATION_PROTOCOL_DEFINITION ( 'draft international standard', 'automotive_design', 1998, #278 ) ;
#304 = VERTEX_POINT ( 'NONE', #326 ) ;
#305 = EDGE_CURVE ( 'NONE', #113, #279, #293, .T. ) ;
#306 = ORIENTED_EDGE ( 'NONE', *, *, #112, .F. ) ;
#307 = CIRCLE ( 'NONE', #198, 0.1249500000000001304 ) ;
#308 = DIRECTION ( 'NONE',  ( 0.0000000000000000000, 0.0000000000000000000, 1.000000000000000000 ) ) ;
#309 = FACE_OUTER_BOUND ( 'NONE', #164, .T. ) ;
#310 = ORIENTED_EDGE ( 'NONE', *, *, #220, .F. ) ;
#311 = EDGE_CURVE ( 'NONE', #295, #218, #49, .T. ) ;
#312 = FACE_OUTER_BOUND ( 'NONE', #300, .T. ) ;
#313 = ADVANCED_FACE ( 'NONE', ( #85 ), #167, .T. ) ;
#314 = AXIS2_PLACEMENT_3D ( 'NONE', #272, #71, #252 ) ;
#315 = VECTOR ( 'NONE', #348, 39.37007874015748854 ) ;
#316 = DIRECTION ( 'NONE',  ( -0.0000000000000000000, -0.0000000000000000000, -1.000000000000000000 ) ) ;
#317 = CARTESIAN_POINT ( 'NONE',  ( -0.1249500000000001304, 1.530502337234405688E-17, 0.7500000000000001110 ) ) ;
#318 = ADVANCED_FACE ( 'NONE', ( #131 ), #239, .T. ) ;
#319 = LINE ( 'NONE', #207, #108 ) ;
#320 = CIRCLE ( 'NONE', #27, 0.1249500000000000194 ) ;
#321 = FACE_OUTER_BOUND ( 'NONE', #2, .T. ) ;
#322 = DIRECTION ( 'NONE',  ( 0.0000000000000000000, 0.0000000000000000000, 1.000000000000000000 ) ) ;
#323 = ADVANCED_FACE ( 'NONE', ( #264 ), #217, .T. ) ;
#324 = VERTEX_POINT ( 'NONE', #292 ) ;
#325 = CIRCLE ( 'NONE', #134, 0.1250000000000000555 ) ;
#326 = CARTESIAN_POINT ( 'NONE',  ( -0.02149999999999999481, 8.967476186756496498E-18, 0.0000000000000000000 ) ) ;
#327 = ORIENTED_EDGE ( 'NONE', *, *, #46, .T. ) ;
#328 = DIRECTION ( 'NONE',  ( -0.0000000000000000000, -0.0000000000000000000, -1.000000000000000000 ) ) ;
#329 = EDGE_LOOP ( 'NONE', ( #327, #191, #30, #273 ) ) ;
#330 = MANIFOLD_SOLID_BREP ( 'Cut-Revolve2', #197 ) ;
#331 = CONICAL_SURFACE ( 'NONE', #179, 0.1100000000000002087, 0.7853981633974528309 ) ;
#332 = AXIS2_PLACEMENT_3D ( 'NONE', #237, #158, #258 ) ;
#333 = DIMENSIONAL_EXPONENTS ( 1.000000000000000000, 0.0000000000000000000, 0.0000000000000000000, 0.0000000000000000000, 0.0000000000000000000, 0.0000000000000000000, 0.0000000000000000000 ) ;
#334 = DIRECTION ( 'NONE',  ( 0.0000000000000000000, 0.0000000000000000000, 1.000000000000000000 ) ) ;
#335 =( NAMED_UNIT ( * ) PLANE_ANGLE_UNIT ( ) SI_UNIT ( $, .RADIAN. ) );
#336 = DIRECTION ( 'NONE',  ( 0.0000000000000000000, 0.0000000000000000000, 1.000000000000000000 ) ) ;
#337 = UNCERTAINTY_MEASURE_WITH_UNIT (LENGTH_MEASURE( 1.000000000000000082E-05 ), #132, 'distance_accuracy_value', 'NONE');
#338 = EDGE_LOOP ( 'NONE', ( #137, #13, #69, #243 ) ) ;
#339 = CONICAL_SURFACE ( 'NONE', #188, 0.02149999999999999481, 0.8726646259971668762 ) ;
#340 = ORIENTED_EDGE ( 'NONE', *, *, #16, .F. ) ;
#341 = CARTESIAN_POINT ( 'NONE',  ( 0.0000000000000000000, 0.0000000000000000000, 2.500000000000000000 ) ) ;
#342 = FACE_OUTER_BOUND ( 'NONE', #226, .T. ) ;
#343 = AXIS2_PLACEMENT_3D ( 'NONE', #89, #62, #106 ) ;
#344 = CARTESIAN_POINT ( 'NONE',  ( 0.1100000000000002087, 1.438959988998141454E-17, 2.500000000000000000 ) ) ;
#345 = CARTESIAN_POINT ( 'NONE',  ( 0.0000000000000000000, 0.0000000000000000000, 0.08680485684528928270 ) ) ;
#346 = DIRECTION ( 'NONE',  ( -1.000000000000000000, 0.0000000000000000000, 0.0000000000000000000 ) ) ;
#347 = VECTOR ( 'NONE', #124, 39.37007874015748143 ) ;
#348 = DIRECTION ( 'NONE',  ( -0.7071067811865551223, 8.659560562355026535E-17, 0.7071067811865398012 ) ) ;
#349 = DIRECTION ( 'NONE',  ( -1.000000000000000000, 0.0000000000000000000, 0.0000000000000000000 ) ) ;
ENDSEC;
END-ISO-10303-21;
