ISO-10303-21;
HEADER;
FILE_DESCRIPTION (( 'STEP AP214' ),
    '1' );
FILE_NAME ('59622.STEP',
    '2023-07-24T15:16:19',
    ( '' ),
    ( '' ),
    'SwSTEP 2.0',
    'SolidWorks 2023',
    '' );
FILE_SCHEMA (( 'AUTOMOTIVE_DESIGN' ));
ENDSEC;

DATA;
#1 =( GEOMETRIC_REPRESENTATION_CONTEXT ( 3 ) GLOBAL_UNCERTAINTY_ASSIGNED_CONTEXT ( ( #162 ) ) GLOBAL_UNIT_ASSIGNED_CONTEXT ( ( #13, #354, #69 ) ) REPRESENTATION_CONTEXT ( 'NONE', 'WORKASPACE' ) );
#2 = PRODUCT ( '59622', '59622', '', ( #344 ) ) ;
#3 = SURFACE_STYLE_FILL_AREA ( #310 ) ;
#4 = ADVANCED_FACE ( 'NONE', ( #66 ), #351, .T. ) ;
#5 = STYLED_ITEM ( 'NONE', ( #90 ), #267 ) ;
#6 = ADVANCED_FACE ( 'NONE', ( #150 ), #94, .T. ) ;
#7 = FILL_AREA_STYLE_COLOUR ( '', #134 ) ;
#8 = ORIENTED_EDGE ( 'NONE', *, *, #220, .T. ) ;
#9 = ORIENTED_EDGE ( 'NONE', *, *, #213, .T. ) ;
#10 = AXIS2_PLACEMENT_3D ( 'NONE', #298, #242, #136 ) ;
#11 = COLOUR_RGB ( '',0.7921568627450980005, 0.8196078431372548767, 0.9333333333333333481 ) ;
#12 =( NAMED_UNIT ( * ) PLANE_ANGLE_UNIT ( ) SI_UNIT ( $, .RADIAN. ) );
#13 =( LENGTH_UNIT ( ) NAMED_UNIT ( * ) SI_UNIT ( .MILLI., .METRE. ) );
#14 = ORIENTED_EDGE ( 'NONE', *, *, #76, .F. ) ;
#15 = DIRECTION ( 'NONE',  ( -1.252807796048505441E-16, 1.000000000000000000, -0.000000000000000000 ) ) ;
#16 =( GEOMETRIC_REPRESENTATION_CONTEXT ( 3 ) GLOBAL_UNCERTAINTY_ASSIGNED_CONTEXT ( ( #370 ) ) GLOBAL_UNIT_ASSIGNED_CONTEXT ( ( #243, #359, #342 ) ) REPRESENTATION_CONTEXT ( 'NONE', 'WORKASPACE' ) );
#17 =( GEOMETRIC_REPRESENTATION_CONTEXT ( 3 ) GLOBAL_UNCERTAINTY_ASSIGNED_CONTEXT ( ( #252 ) ) GLOBAL_UNIT_ASSIGNED_CONTEXT ( ( #54, #116, #35 ) ) REPRESENTATION_CONTEXT ( 'NONE', 'WORKASPACE' ) );
#18 = PRESENTATION_STYLE_ASSIGNMENT (( #46 ) ) ;
#19 = DIRECTION ( 'NONE',  ( -1.000000000000000000, 0.000000000000000000, 0.000000000000000000 ) ) ;
#20 = ADVANCED_FACE ( 'NONE', ( #278 ), #100, .F. ) ;
#21 = SURFACE_STYLE_FILL_AREA ( #214 ) ;
#22 = UNCERTAINTY_MEASURE_WITH_UNIT (LENGTH_MEASURE( 1.000000000000000082E-05 ), #130, 'distance_accuracy_value', 'NONE');
#23 = DIRECTION ( 'NONE',  ( 0.000000000000000000, 0.000000000000000000, -1.000000000000000000 ) ) ;
#24 = SURFACE_STYLE_USAGE ( .BOTH. , #99 ) ;
#25 = PRESENTATION_LAYER_ASSIGNMENT (  '', '', ( #141 ) ) ;
#26 = DIRECTION ( 'NONE',  ( -1.000000000000000000, 0.000000000000000000, 0.000000000000000000 ) ) ;
#27 = DIRECTION ( 'NONE',  ( -0.000000000000000000, -1.000000000000000000, -0.000000000000000000 ) ) ;
#28 = DIRECTION ( 'NONE',  ( 1.000000000000000000, 0.000000000000000000, -1.224646799147353207E-16 ) ) ;
#29 = PLANE ( 'NONE',  #315 ) ;
#30 = CIRCLE ( 'NONE', #341, 9.500000000000000000 ) ;
#31 = ORIENTED_EDGE ( 'NONE', *, *, #158, .F. ) ;
#32 = CARTESIAN_POINT ( 'NONE',  ( 0.000000000000000000, 0.000000000000000000, 0.000000000000000000 ) ) ;
#33 = EDGE_CURVE ( 'NONE', #60, #36, #74, .T. ) ;
#34 = UNCERTAINTY_MEASURE_WITH_UNIT (LENGTH_MEASURE( 1.000000000000000082E-05 ), #362, 'distance_accuracy_value', 'NONE');
#35 =( NAMED_UNIT ( * ) SI_UNIT ( $, .STERADIAN. ) SOLID_ANGLE_UNIT ( ) );
#36 = VERTEX_POINT ( 'NONE', #328 ) ;
#37 = ORIENTED_EDGE ( 'NONE', *, *, #158, .T. ) ;
#38 = CARTESIAN_POINT ( 'NONE',  ( -4.408728476930469278E-15, 124.9999999999999858, 0.000000000000000000 ) ) ;
#39 = VECTOR ( 'NONE', #302, 1000.000000000000000 ) ;
#40 = ORIENTED_EDGE ( 'NONE', *, *, #235, .F. ) ;
#41 = EDGE_LOOP ( 'NONE', ( #31, #207, #264, #183 ) ) ;
#42 = DIRECTION ( 'NONE',  ( -1.252807796048505441E-16, 1.000000000000000000, -0.000000000000000000 ) ) ;
#43 = CLOSED_SHELL ( 'NONE', ( #112, #131, #6, #257, #267, #97 ) ) ;
#44 = TOROIDAL_SURFACE ( 'NONE', #188, 9.500000000000000000, 0.5000000000000002220 ) ;
#45 = CARTESIAN_POINT ( 'NONE',  ( -4.408728476930469278E-15, 124.9999999999999858, 0.000000000000000000 ) ) ;
#46 = SURFACE_STYLE_USAGE ( .BOTH. , #101 ) ;
#47 = CARTESIAN_POINT ( 'NONE',  ( -10.00000000000000533, 124.9999999999999858, 0.000000000000000000 ) ) ;
#48 = DIRECTION ( 'NONE',  ( -1.000000000000000000, 0.000000000000000000, 0.000000000000000000 ) ) ;
#49 = FILL_AREA_STYLE ('',( #367 ) ) ;
#50 = PRESENTATION_STYLE_ASSIGNMENT (( #24 ) ) ;
#51 = CIRCLE ( 'NONE', #229, 9.500000000000000000 ) ;
#52 = AXIS2_PLACEMENT_3D ( 'NONE', #201, #55, #280 ) ;
#53 =( NAMED_UNIT ( * ) PLANE_ANGLE_UNIT ( ) SI_UNIT ( $, .RADIAN. ) );
#54 =( LENGTH_UNIT ( ) NAMED_UNIT ( * ) SI_UNIT ( .MILLI., .METRE. ) );
#55 = DIRECTION ( 'NONE',  ( -1.252807796048505441E-16, 1.000000000000000000, -0.000000000000000000 ) ) ;
#56 = DIRECTION ( 'NONE',  ( 0.000000000000000000, 0.000000000000000000, -1.000000000000000000 ) ) ;
#57 = AXIS2_PLACEMENT_3D ( 'NONE', #38, #234, #124 ) ;
#58 = CIRCLE ( 'NONE', #314, 9.999999999999996447 ) ;
#59 = APPLICATION_PROTOCOL_DEFINITION ( 'draft international standard', 'automotive_design', 1998, #95 ) ;
#60 = VERTEX_POINT ( 'NONE', #250 ) ;
#61 = UNCERTAINTY_MEASURE_WITH_UNIT (LENGTH_MEASURE( 1.000000000000000082E-05 ), #253, 'distance_accuracy_value', 'NONE');
#62 =( NAMED_UNIT ( * ) PLANE_ANGLE_UNIT ( ) SI_UNIT ( $, .RADIAN. ) );
#63 = ORIENTED_EDGE ( 'NONE', *, *, #246, .T. ) ;
#64 = PRODUCT_DEFINITION_FORMATION_WITH_SPECIFIED_SOURCE ( 'ANY', '', #2, .NOT_KNOWN. ) ;
#65 = CARTESIAN_POINT ( 'NONE',  ( 10.00000000000000355, 50.00000000000000000, 1.224646799147353848E-15 ) ) ;
#66 = FACE_OUTER_BOUND ( 'NONE', #86, .T. ) ;
#67 = EDGE_LOOP ( 'NONE', ( #71, #296 ) ) ;
#68 = EDGE_CURVE ( 'NONE', #316, #263, #51, .T. ) ;
#69 =( NAMED_UNIT ( * ) SI_UNIT ( $, .STERADIAN. ) SOLID_ANGLE_UNIT ( ) );
#70 = STYLED_ITEM ( 'NONE', ( #293 ), #97 ) ;
#71 = ORIENTED_EDGE ( 'NONE', *, *, #194, .T. ) ;
#72 = CARTESIAN_POINT ( 'NONE',  ( 0.000000000000000000, 50.00000000000000000, 0.000000000000000000 ) ) ;
#73 = SURFACE_SIDE_STYLE ('',( #330 ) ) ;
#74 = CIRCLE ( 'NONE', #209, 10.00000000000000000 ) ;
#75 = DIRECTION ( 'NONE',  ( -0.000000000000000000, -1.000000000000000000, -0.000000000000000000 ) ) ;
#76 = EDGE_CURVE ( 'NONE', #291, #266, #270, .T. ) ;
#77 =( NAMED_UNIT ( * ) SI_UNIT ( $, .STERADIAN. ) SOLID_ANGLE_UNIT ( ) );
#78 = DIRECTION ( 'NONE',  ( -0.000000000000000000, -1.000000000000000000, -0.000000000000000000 ) ) ;
#79 = SURFACE_STYLE_USAGE ( .BOTH. , #329 ) ;
#80 = DIRECTION ( 'NONE',  ( 0.000000000000000000, 0.000000000000000000, -1.000000000000000000 ) ) ;
#81 = SURFACE_SIDE_STYLE ('',( #3 ) ) ;
#82 = COLOUR_RGB ( '',1.000000000000000000, 0.000000000000000000, 0.000000000000000000 ) ;
#83 = CIRCLE ( 'NONE', #260, 0.5000000000000004441 ) ;
#84 = COLOUR_RGB ( '',1.000000000000000000, 0.000000000000000000, 0.000000000000000000 ) ;
#85 = SURFACE_STYLE_FILL_AREA ( #49 ) ;
#86 = EDGE_LOOP ( 'NONE', ( #172, #174, #63, #14 ) ) ;
#87 =( GEOMETRIC_REPRESENTATION_CONTEXT ( 3 ) GLOBAL_UNCERTAINTY_ASSIGNED_CONTEXT ( ( #360 ) ) GLOBAL_UNIT_ASSIGNED_CONTEXT ( ( #169, #12, #321 ) ) REPRESENTATION_CONTEXT ( 'NONE', 'WORKASPACE' ) );
#88 = AXIS2_PLACEMENT_3D ( 'NONE', #72, #187, #305 ) ;
#89 = ORIENTED_EDGE ( 'NONE', *, *, #139, .T. ) ;
#90 = PRESENTATION_STYLE_ASSIGNMENT (( #111 ) ) ;
#91 = MANIFOLD_SOLID_BREP ( 'Revolve - Cutting Edge', #43 ) ;
#92 = UNCERTAINTY_MEASURE_WITH_UNIT (LENGTH_MEASURE( 1.000000000000000082E-05 ), #146, 'distance_accuracy_value', 'NONE');
#93 = VERTEX_POINT ( 'NONE', #65 ) ;
#94 = PLANE ( 'NONE',  #10 ) ;
#95 = APPLICATION_CONTEXT ( 'automotive_design' ) ;
#96 = CIRCLE ( 'NONE', #105, 10.00000000000000000 ) ;
#97 = ADVANCED_FACE ( 'NONE', ( #288 ), #245, .T. ) ;
#98 = STYLED_ITEM ( 'NONE', ( #50 ), #203 ) ;
#99 = SURFACE_SIDE_STYLE ('',( #335 ) ) ;
#100 = PLANE ( 'NONE',  #186 ) ;
#101 = SURFACE_SIDE_STYLE ('',( #85 ) ) ;
#102 = DIRECTION ( 'NONE',  ( 0.000000000000000000, 0.000000000000000000, -1.000000000000000000 ) ) ;
#103 = SURFACE_SIDE_STYLE ('',( #357 ) ) ;
#104 = PRESENTATION_LAYER_ASSIGNMENT (  '', '', ( #331 ) ) ;
#105 = AXIS2_PLACEMENT_3D ( 'NONE', #133, #249, #109 ) ;
#106 = EDGE_CURVE ( 'NONE', #36, #265, #248, .T. ) ;
#107 = CARTESIAN_POINT ( 'NONE',  ( 0.000000000000000000, 50.00000000000000000, 0.000000000000000000 ) ) ;
#108 = UNCERTAINTY_MEASURE_WITH_UNIT (LENGTH_MEASURE( 1.000000000000000082E-05 ), #110, 'distance_accuracy_value', 'NONE');
#109 = DIRECTION ( 'NONE',  ( 0.000000000000000000, 0.000000000000000000, -1.000000000000000000 ) ) ;
#110 =( LENGTH_UNIT ( ) NAMED_UNIT ( * ) SI_UNIT ( .MILLI., .METRE. ) );
#111 = SURFACE_STYLE_USAGE ( .BOTH. , #81 ) ;
#112 = ADVANCED_FACE ( 'NONE', ( #157 ), #251, .T. ) ;
#113 = CARTESIAN_POINT ( 'NONE',  ( -10.00000000000001066, 124.9999999999999858, 0.000000000000000000 ) ) ;
#114 = AXIS2_PLACEMENT_3D ( 'NONE', #212, #15, #26 ) ;
#115 = TOROIDAL_SURFACE ( 'NONE', #197, 9.500000000000000000, 0.5000000000000002220 ) ;
#116 =( NAMED_UNIT ( * ) PLANE_ANGLE_UNIT ( ) SI_UNIT ( $, .RADIAN. ) );
#117 = ORIENTED_EDGE ( 'NONE', *, *, #194, .F. ) ;
#118 = EDGE_CURVE ( 'NONE', #36, #60, #240, .T. ) ;
#119 = SURFACE_STYLE_FILL_AREA ( #149 ) ;
#120 = ORIENTED_EDGE ( 'NONE', *, *, #198, .F. ) ;
#121 = CIRCLE ( 'NONE', #224, 10.00000000000000000 ) ;
#122 = FILL_AREA_STYLE_COLOUR ( '', #82 ) ;
#123 = APPLICATION_CONTEXT ( 'automotive_design' ) ;
#124 = DIRECTION ( 'NONE',  ( -1.000000000000000000, 0.000000000000000000, 0.000000000000000000 ) ) ;
#125 = ORIENTED_EDGE ( 'NONE', *, *, #106, .F. ) ;
#126 = MECHANICAL_DESIGN_GEOMETRIC_PRESENTATION_REPRESENTATION (  '', ( #98 ), #199 ) ;
#127 = FACE_OUTER_BOUND ( 'NONE', #41, .T. ) ;
#128 = FILL_AREA_STYLE_COLOUR ( '', #11 ) ;
#129 = DIRECTION ( 'NONE',  ( -1.252807796048505441E-16, 1.000000000000000000, 0.000000000000000000 ) ) ;
#130 =( LENGTH_UNIT ( ) NAMED_UNIT ( * ) SI_UNIT ( .MILLI., .METRE. ) );
#131 = ADVANCED_FACE ( 'NONE', ( #154 ), #115, .T. ) ;
#132 = CARTESIAN_POINT ( 'NONE',  ( 4.987329993433320396E-15, 50.00000000000000000, 0.000000000000000000 ) ) ;
#133 = CARTESIAN_POINT ( 'NONE',  ( 0.000000000000000000, 0.5000000000000000000, 0.000000000000000000 ) ) ;
#134 = COLOUR_RGB ( '',1.000000000000000000, 0.000000000000000000, 0.000000000000000000 ) ;
#135 = AXIS2_PLACEMENT_3D ( 'NONE', #254, #190, #23 ) ;
#136 = DIRECTION ( 'NONE',  ( 0.000000000000000000, 0.000000000000000000, -1.000000000000000000 ) ) ;
#137 = CARTESIAN_POINT ( 'NONE',  ( 0.000000000000000000, 0.000000000000000000, 0.000000000000000000 ) ) ;
#138 = PRESENTATION_STYLE_ASSIGNMENT (( #79 ) ) ;
#139 = EDGE_CURVE ( 'NONE', #60, #262, #338, .T. ) ;
#140 = CARTESIAN_POINT ( 'NONE',  ( 10.00000000000000000, 124.9999999999999858, 0.000000000000000000 ) ) ;
#141 = STYLED_ITEM ( 'NONE', ( #18 ), #112 ) ;
#142 = ORIENTED_EDGE ( 'NONE', *, *, #33, .T. ) ;
#143 = DIRECTION ( 'NONE',  ( -1.000000000000000000, 0.000000000000000000, 0.000000000000000000 ) ) ;
#144 = DIRECTION ( 'NONE',  ( 1.000000000000000000, 1.252807796048505441E-16, 0.000000000000000000 ) ) ;
#145 = AXIS2_PLACEMENT_3D ( 'NONE', #107, #195, #219 ) ;
#146 =( LENGTH_UNIT ( ) NAMED_UNIT ( * ) SI_UNIT ( .MILLI., .METRE. ) );
#147 = EDGE_LOOP ( 'NONE', ( #237, #89, #236, #125 ) ) ;
#148 = PRODUCT_RELATED_PRODUCT_CATEGORY ( 'part', '', ( #2 ) ) ;
#149 = FILL_AREA_STYLE ('',( #7 ) ) ;
#150 = FACE_OUTER_BOUND ( 'NONE', #239, .T. ) ;
#151 = PRODUCT_DEFINITION_SHAPE ( 'NONE', 'NONE',  #180 ) ;
#152 = SURFACE_SIDE_STYLE ('',( #322 ) ) ;
#153 = ORIENTED_EDGE ( 'NONE', *, *, #106, .T. ) ;
#154 = FACE_OUTER_BOUND ( 'NONE', #227, .T. ) ;
#155 = PRESENTATION_LAYER_ASSIGNMENT (  '', '', ( #163 ) ) ;
#156 = FILL_AREA_STYLE_COLOUR ( '', #324 ) ;
#157 = FACE_OUTER_BOUND ( 'NONE', #147, .T. ) ;
#158 = EDGE_CURVE ( 'NONE', #262, #316, #83, .T. ) ;
#159 =( NAMED_UNIT ( * ) SI_UNIT ( $, .STERADIAN. ) SOLID_ANGLE_UNIT ( ) );
#160 = PRESENTATION_STYLE_ASSIGNMENT (( #184 ) ) ;
#161 = DIRECTION ( 'NONE',  ( -1.000000000000000000, -1.252807796048505441E-16, 0.000000000000000000 ) ) ;
#162 = UNCERTAINTY_MEASURE_WITH_UNIT (LENGTH_MEASURE( 1.000000000000000082E-05 ), #13, 'distance_accuracy_value', 'NONE');
#163 = STYLED_ITEM ( 'NONE', ( #160 ), #257 ) ;
#164 = EDGE_CURVE ( 'NONE', #265, #262, #121, .T. ) ;
#165 = DIRECTION ( 'NONE',  ( -0.000000000000000000, -1.000000000000000000, -0.000000000000000000 ) ) ;
#166 = DIRECTION ( 'NONE',  ( 0.000000000000000000, 0.000000000000000000, -1.000000000000000000 ) ) ;
#167 = CARTESIAN_POINT ( 'NONE',  ( 1.194030629168669469E-15, 0.000000000000000000, 9.500000000000000000 ) ) ;
#168 = FILL_AREA_STYLE_COLOUR ( '', #84 ) ;
#169 =( LENGTH_UNIT ( ) NAMED_UNIT ( * ) SI_UNIT ( .MILLI., .METRE. ) );
#170 = AXIS2_PLACEMENT_3D ( 'NONE', #32, #345, #313 ) ;
#171 = APPLICATION_PROTOCOL_DEFINITION ( 'draft international standard', 'automotive_design', 1998, #123 ) ;
#172 = ORIENTED_EDGE ( 'NONE', *, *, #213, .F. ) ;
#173 = CARTESIAN_POINT ( 'NONE',  ( 0.000000000000000000, 0.000000000000000000, 0.000000000000000000 ) ) ;
#174 = ORIENTED_EDGE ( 'NONE', *, *, #285, .T. ) ;
#175 =( GEOMETRIC_REPRESENTATION_CONTEXT ( 3 ) GLOBAL_UNCERTAINTY_ASSIGNED_CONTEXT ( ( #22 ) ) GLOBAL_UNIT_ASSIGNED_CONTEXT ( ( #130, #53, #159 ) ) REPRESENTATION_CONTEXT ( 'NONE', 'WORKASPACE' ) );
#176 = CIRCLE ( 'NONE', #52, 9.999999999999996447 ) ;
#177 = ORIENTED_EDGE ( 'NONE', *, *, #220, .F. ) ;
#178 = EDGE_LOOP ( 'NONE', ( #346, #142, #153, #40 ) ) ;
#179 = ORIENTED_EDGE ( 'NONE', *, *, #198, .T. ) ;
#180 = PRODUCT_DEFINITION ( 'UNKNOWN', '', #64, #339 ) ;
#181 = ORIENTED_EDGE ( 'NONE', *, *, #285, .F. ) ;
#182 = VECTOR ( 'NONE', #75, 1000.000000000000000 ) ;
#183 = ORIENTED_EDGE ( 'NONE', *, *, #68, .F. ) ;
#184 = SURFACE_STYLE_USAGE ( .BOTH. , #73 ) ;
#185 = DIRECTION ( 'NONE',  ( -1.252807796048505441E-16, 1.000000000000000000, -0.000000000000000000 ) ) ;
#186 = AXIS2_PLACEMENT_3D ( 'NONE', #132, #129, #161 ) ;
#187 = DIRECTION ( 'NONE',  ( 0.000000000000000000, 1.000000000000000000, 0.000000000000000000 ) ) ;
#188 = AXIS2_PLACEMENT_3D ( 'NONE', #196, #317, #56 ) ;
#189 = PRESENTATION_STYLE_ASSIGNMENT (( #332 ) ) ;
#190 = DIRECTION ( 'NONE',  ( -0.000000000000000000, -1.000000000000000000, -0.000000000000000000 ) ) ;
#191 = LINE ( 'NONE', #47, #271 ) ;
#192 = DIRECTION ( 'NONE',  ( -1.252807796048505441E-16, 1.000000000000000000, -0.000000000000000000 ) ) ;
#193 = DIRECTION ( 'NONE',  ( 0.000000000000000000, 0.000000000000000000, -1.000000000000000000 ) ) ;
#194 = EDGE_CURVE ( 'NONE', #266, #291, #325, .T. ) ;
#195 = DIRECTION ( 'NONE',  ( -0.000000000000000000, -1.000000000000000000, -0.000000000000000000 ) ) ;
#196 = CARTESIAN_POINT ( 'NONE',  ( 0.000000000000000000, 0.5000000000000000000, 0.000000000000000000 ) ) ;
#197 = AXIS2_PLACEMENT_3D ( 'NONE', #221, #299, #216 ) ;
#198 = EDGE_CURVE ( 'NONE', #202, #93, #58, .T. ) ;
#199 =( GEOMETRIC_REPRESENTATION_CONTEXT ( 3 ) GLOBAL_UNCERTAINTY_ASSIGNED_CONTEXT ( ( #34 ) ) GLOBAL_UNIT_ASSIGNED_CONTEXT ( ( #362, #358, #77 ) ) REPRESENTATION_CONTEXT ( 'NONE', 'WORKASPACE' ) );
#200 = EDGE_LOOP ( 'NONE', ( #231, #286 ) ) ;
#201 = CARTESIAN_POINT ( 'NONE',  ( 4.987329993433318819E-15, 50.00000000000000000, 0.000000000000000000 ) ) ;
#202 = VERTEX_POINT ( 'NONE', #327 ) ;
#203 = MANIFOLD_SOLID_BREP ( 'Revolve - Tool Body (Straight Shanked)', #312 ) ;
#204 =( GEOMETRIC_REPRESENTATION_CONTEXT ( 3 ) GLOBAL_UNCERTAINTY_ASSIGNED_CONTEXT ( ( #61 ) ) GLOBAL_UNIT_ASSIGNED_CONTEXT ( ( #253, #274, #276 ) ) REPRESENTATION_CONTEXT ( 'NONE', 'WORKASPACE' ) );
#205 =( GEOMETRIC_REPRESENTATION_CONTEXT ( 3 ) GLOBAL_UNCERTAINTY_ASSIGNED_CONTEXT ( ( #108 ) ) GLOBAL_UNIT_ASSIGNED_CONTEXT ( ( #110, #62, #223 ) ) REPRESENTATION_CONTEXT ( 'NONE', 'WORKASPACE' ) );
#206 = FILL_AREA_STYLE ('',( #122 ) ) ;
#207 = ORIENTED_EDGE ( 'NONE', *, *, #235, .T. ) ;
#208 = EDGE_LOOP ( 'NONE', ( #120, #181 ) ) ;
#209 = AXIS2_PLACEMENT_3D ( 'NONE', #364, #27, #80 ) ;
#210 = AXIS2_PLACEMENT_3D ( 'NONE', #173, #311, #166 ) ;
#211 =( NAMED_UNIT ( * ) PLANE_ANGLE_UNIT ( ) SI_UNIT ( $, .RADIAN. ) );
#212 = CARTESIAN_POINT ( 'NONE',  ( -4.408728476930469278E-15, 124.9999999999999858, 0.000000000000000000 ) ) ;
#213 = EDGE_CURVE ( 'NONE', #93, #291, #218, .T. ) ;
#214 = FILL_AREA_STYLE ('',( #272 ) ) ;
#215 = FACE_OUTER_BOUND ( 'NONE', #326, .T. ) ;
#216 = DIRECTION ( 'NONE',  ( 0.000000000000000000, 0.000000000000000000, -1.000000000000000000 ) ) ;
#217 = PRESENTATION_LAYER_ASSIGNMENT (  '', '', ( #98 ) ) ;
#218 = LINE ( 'NONE', #244, #39 ) ;
#219 = DIRECTION ( 'NONE',  ( 0.000000000000000000, 0.000000000000000000, -1.000000000000000000 ) ) ;
#220 = EDGE_CURVE ( 'NONE', #263, #316, #30, .T. ) ;
#221 = CARTESIAN_POINT ( 'NONE',  ( 0.000000000000000000, 0.5000000000000000000, 0.000000000000000000 ) ) ;
#222 = CARTESIAN_POINT ( 'NONE',  ( -4.408728476930469278E-15, 124.9999999999999858, 0.000000000000000000 ) ) ;
#223 =( NAMED_UNIT ( * ) SI_UNIT ( $, .STERADIAN. ) SOLID_ANGLE_UNIT ( ) );
#224 = AXIS2_PLACEMENT_3D ( 'NONE', #334, #303, #193 ) ;
#225 = ADVANCED_FACE ( 'NONE', ( #215 ), #304, .T. ) ;
#226 = DIRECTION ( 'NONE',  ( 1.252807796048505441E-16, -1.000000000000000000, 0.000000000000000000 ) ) ;
#227 = EDGE_LOOP ( 'NONE', ( #289, #37, #177, #318 ) ) ;
#228 = DIRECTION ( 'NONE',  ( 0.000000000000000000, 0.000000000000000000, 1.000000000000000000 ) ) ;
#229 = AXIS2_PLACEMENT_3D ( 'NONE', #137, #78, #301 ) ;
#230 = PRESENTATION_LAYER_ASSIGNMENT (  '', '', ( #294 ) ) ;
#231 = ORIENTED_EDGE ( 'NONE', *, *, #118, .F. ) ;
#232 = SURFACE_SIDE_STYLE ('',( #119 ) ) ;
#233 = MECHANICAL_DESIGN_GEOMETRIC_PRESENTATION_REPRESENTATION (  '', ( #141 ), #16 ) ;
#234 = DIRECTION ( 'NONE',  ( -1.252807796048505441E-16, 1.000000000000000000, -0.000000000000000000 ) ) ;
#235 = EDGE_CURVE ( 'NONE', #262, #265, #96, .T. ) ;
#236 = ORIENTED_EDGE ( 'NONE', *, *, #164, .F. ) ;
#237 = ORIENTED_EDGE ( 'NONE', *, *, #118, .T. ) ;
#238 = PRESENTATION_LAYER_ASSIGNMENT (  '', '', ( #259 ) ) ;
#239 = EDGE_LOOP ( 'NONE', ( #8, #295 ) ) ;
#240 = CIRCLE ( 'NONE', #145, 10.00000000000000000 ) ;
#241 = CARTESIAN_POINT ( 'NONE',  ( 1.224646799147353256E-15, 0.5000000000000000000, 10.00000000000000000 ) ) ;
#242 = DIRECTION ( 'NONE',  ( 0.000000000000000000, -1.000000000000000000, -0.000000000000000000 ) ) ;
#243 =( LENGTH_UNIT ( ) NAMED_UNIT ( * ) SI_UNIT ( .MILLI., .METRE. ) );
#244 = CARTESIAN_POINT ( 'NONE',  ( 9.999999999999994671, 124.9999999999999858, 1.224646799147353256E-15 ) ) ;
#245 = PLANE ( 'NONE',  #88 ) ;
#246 = EDGE_CURVE ( 'NONE', #202, #266, #191, .T. ) ;
#247 = MECHANICAL_DESIGN_GEOMETRIC_PRESENTATION_REPRESENTATION (  '', ( #259 ), #1 ) ;
#248 = LINE ( 'NONE', #336, #182 ) ;
#249 = DIRECTION ( 'NONE',  ( -0.000000000000000000, -1.000000000000000000, -0.000000000000000000 ) ) ;
#250 = CARTESIAN_POINT ( 'NONE',  ( 1.224646799147353256E-15, 50.00000000000000000, 10.00000000000000000 ) ) ;
#251 = CYLINDRICAL_SURFACE ( 'NONE', #135, 10.00000000000000000 ) ;
#252 = UNCERTAINTY_MEASURE_WITH_UNIT (LENGTH_MEASURE( 1.000000000000000082E-05 ), #54, 'distance_accuracy_value', 'NONE');
#253 =( LENGTH_UNIT ( ) NAMED_UNIT ( * ) SI_UNIT ( .MILLI., .METRE. ) );
#254 = CARTESIAN_POINT ( 'NONE',  ( 0.000000000000000000, 0.000000000000000000, 0.000000000000000000 ) ) ;
#255 = FACE_OUTER_BOUND ( 'NONE', #67, .T. ) ;
#256 = CARTESIAN_POINT ( 'NONE',  ( 0.000000000000000000, 0.5000000000000000000, -10.00000000000000000 ) ) ;
#257 = ADVANCED_FACE ( 'NONE', ( #127 ), #44, .T. ) ;
#258 = CYLINDRICAL_SURFACE ( 'NONE', #210, 10.00000000000000000 ) ;
#259 = STYLED_ITEM ( 'NONE', ( #353 ), #6 ) ;
#260 = AXIS2_PLACEMENT_3D ( 'NONE', #279, #28, #369 ) ;
#261 = CIRCLE ( 'NONE', #320, 0.5000000000000004441 ) ;
#262 = VERTEX_POINT ( 'NONE', #241 ) ;
#263 = VERTEX_POINT ( 'NONE', #343 ) ;
#264 = ORIENTED_EDGE ( 'NONE', *, *, #347, .T. ) ;
#265 = VERTEX_POINT ( 'NONE', #256 ) ;
#266 = VERTEX_POINT ( 'NONE', #113 ) ;
#267 = ADVANCED_FACE ( 'NONE', ( #284 ), #258, .T. ) ;
#268 =( NAMED_UNIT ( * ) SI_UNIT ( $, .STERADIAN. ) SOLID_ANGLE_UNIT ( ) );
#269 = DIRECTION ( 'NONE',  ( -0.000000000000000000, -1.000000000000000000, -0.000000000000000000 ) ) ;
#270 = CIRCLE ( 'NONE', #348, 10.00000000000000533 ) ;
#271 = VECTOR ( 'NONE', #185, 1000.000000000000000 ) ;
#272 = FILL_AREA_STYLE_COLOUR ( '', #283 ) ;
#273 = FILL_AREA_STYLE ('',( #156 ) ) ;
#274 =( NAMED_UNIT ( * ) PLANE_ANGLE_UNIT ( ) SI_UNIT ( $, .RADIAN. ) );
#275 = CARTESIAN_POINT ( 'NONE',  ( 1.224646799147353256E-15, 0.000000000000000000, 10.00000000000000000 ) ) ;
#276 =( NAMED_UNIT ( * ) SI_UNIT ( $, .STERADIAN. ) SOLID_ANGLE_UNIT ( ) );
#277 = PRESENTATION_LAYER_ASSIGNMENT (  '', '', ( #70 ) ) ;
#278 = FACE_OUTER_BOUND ( 'NONE', #208, .T. ) ;
#279 = CARTESIAN_POINT ( 'NONE',  ( 1.163414459189985485E-15, 0.5000000000000000000, 9.500000000000000000 ) ) ;
#280 = DIRECTION ( 'NONE',  ( -1.000000000000000000, 0.000000000000000000, 0.000000000000000000 ) ) ;
#281 = COLOUR_RGB ( '',0.7921568627450980005, 0.8196078431372548767, 0.9333333333333333481 ) ;
#282 = CARTESIAN_POINT ( 'NONE',  ( 10.00000000000000000, 124.9999999999999858, 1.224646799147353454E-15 ) ) ;
#283 = COLOUR_RGB ( '',1.000000000000000000, 0.000000000000000000, 0.000000000000000000 ) ;
#284 = FACE_OUTER_BOUND ( 'NONE', #178, .T. ) ;
#285 = EDGE_CURVE ( 'NONE', #93, #202, #176, .T. ) ;
#286 = ORIENTED_EDGE ( 'NONE', *, *, #33, .F. ) ;
#287 = COLOUR_RGB ( '',1.000000000000000000, 0.000000000000000000, 0.000000000000000000 ) ;
#288 = FACE_OUTER_BOUND ( 'NONE', #200, .T. ) ;
#289 = ORIENTED_EDGE ( 'NONE', *, *, #164, .T. ) ;
#290 = ORIENTED_EDGE ( 'NONE', *, *, #246, .F. ) ;
#291 = VERTEX_POINT ( 'NONE', #282 ) ;
#292 = ADVANCED_BREP_SHAPE_REPRESENTATION ( '59622', ( #91, #203, #170 ), #17 ) ;
#293 = PRESENTATION_STYLE_ASSIGNMENT (( #352 ) ) ;
#294 = STYLED_ITEM ( 'NONE', ( #138 ), #131 ) ;
#295 = ORIENTED_EDGE ( 'NONE', *, *, #68, .T. ) ;
#296 = ORIENTED_EDGE ( 'NONE', *, *, #76, .T. ) ;
#297 = DIRECTION ( 'NONE',  ( -1.000000000000000000, 0.000000000000000000, 0.000000000000000000 ) ) ;
#298 = CARTESIAN_POINT ( 'NONE',  ( 0.000000000000000000, 0.000000000000000000, 0.000000000000000000 ) ) ;
#299 = DIRECTION ( 'NONE',  ( -0.000000000000000000, -1.000000000000000000, -0.000000000000000000 ) ) ;
#300 = FILL_AREA_STYLE ('',( #128 ) ) ;
#301 = DIRECTION ( 'NONE',  ( 0.000000000000000000, 0.000000000000000000, -1.000000000000000000 ) ) ;
#302 = DIRECTION ( 'NONE',  ( -1.252807796048505441E-16, 1.000000000000000000, -0.000000000000000000 ) ) ;
#303 = DIRECTION ( 'NONE',  ( -0.000000000000000000, -1.000000000000000000, -0.000000000000000000 ) ) ;
#304 = CYLINDRICAL_SURFACE ( 'NONE', #114, 10.00000000000000000 ) ;
#305 = DIRECTION ( 'NONE',  ( 0.000000000000000000, -0.000000000000000000, 1.000000000000000000 ) ) ;
#306 = MECHANICAL_DESIGN_GEOMETRIC_PRESENTATION_REPRESENTATION (  '', ( #163 ), #204 ) ;
#307 = PRESENTATION_LAYER_ASSIGNMENT (  '', '', ( #5 ) ) ;
#308 = CARTESIAN_POINT ( 'NONE',  ( 0.000000000000000000, 0.5000000000000000000, -9.500000000000000000 ) ) ;
#309 = ADVANCED_FACE ( 'NONE', ( #255 ), #29, .F. ) ;
#310 = FILL_AREA_STYLE ('',( #168 ) ) ;
#311 = DIRECTION ( 'NONE',  ( -0.000000000000000000, -1.000000000000000000, -0.000000000000000000 ) ) ;
#312 = CLOSED_SHELL ( 'NONE', ( #225, #20, #4, #309 ) ) ;
#313 = DIRECTION ( 'NONE',  ( 1.000000000000000000, 0.000000000000000000, 0.000000000000000000 ) ) ;
#314 = AXIS2_PLACEMENT_3D ( 'NONE', #368, #361, #19 ) ;
#315 = AXIS2_PLACEMENT_3D ( 'NONE', #140, #226, #144 ) ;
#316 = VERTEX_POINT ( 'NONE', #167 ) ;
#317 = DIRECTION ( 'NONE',  ( -0.000000000000000000, -1.000000000000000000, -0.000000000000000000 ) ) ;
#318 = ORIENTED_EDGE ( 'NONE', *, *, #347, .F. ) ;
#319 = VECTOR ( 'NONE', #165, 1000.000000000000000 ) ;
#320 = AXIS2_PLACEMENT_3D ( 'NONE', #308, #143, #228 ) ;
#321 =( NAMED_UNIT ( * ) SI_UNIT ( $, .STERADIAN. ) SOLID_ANGLE_UNIT ( ) );
#322 = SURFACE_STYLE_FILL_AREA ( #206 ) ;
#323 = SURFACE_STYLE_USAGE ( .BOTH. , #152 ) ;
#324 = COLOUR_RGB ( '',1.000000000000000000, 0.000000000000000000, 0.000000000000000000 ) ;
#325 = CIRCLE ( 'NONE', #333, 10.00000000000000533 ) ;
#326 = EDGE_LOOP ( 'NONE', ( #179, #9, #117, #290 ) ) ;
#327 = CARTESIAN_POINT ( 'NONE',  ( -9.999999999999991118, 50.00000000000000000, 0.000000000000000000 ) ) ;
#328 = CARTESIAN_POINT ( 'NONE',  ( 0.000000000000000000, 50.00000000000000000, -10.00000000000000000 ) ) ;
#329 = SURFACE_SIDE_STYLE ('',( #21 ) ) ;
#330 = SURFACE_STYLE_FILL_AREA ( #273 ) ;
#331 = STYLED_ITEM ( 'NONE', ( #189 ), #91 ) ;
#332 = SURFACE_STYLE_USAGE ( .BOTH. , #103 ) ;
#333 = AXIS2_PLACEMENT_3D ( 'NONE', #222, #42, #297 ) ;
#334 = CARTESIAN_POINT ( 'NONE',  ( 0.000000000000000000, 0.5000000000000000000, 0.000000000000000000 ) ) ;
#335 = SURFACE_STYLE_FILL_AREA ( #300 ) ;
#336 = CARTESIAN_POINT ( 'NONE',  ( 0.000000000000000000, 0.000000000000000000, -10.00000000000000000 ) ) ;
#337 = FILL_AREA_STYLE ('',( #366 ) ) ;
#338 = LINE ( 'NONE', #275, #319 ) ;
#339 = PRODUCT_DEFINITION_CONTEXT ( 'detailed design', #123, 'design' ) ;
#340 = CARTESIAN_POINT ( 'NONE',  ( 0.000000000000000000, 0.000000000000000000, 0.000000000000000000 ) ) ;
#341 = AXIS2_PLACEMENT_3D ( 'NONE', #340, #269, #102 ) ;
#342 =( NAMED_UNIT ( * ) SI_UNIT ( $, .STERADIAN. ) SOLID_ANGLE_UNIT ( ) );
#343 = CARTESIAN_POINT ( 'NONE',  ( 0.000000000000000000, 0.000000000000000000, -9.500000000000000000 ) ) ;
#344 = PRODUCT_CONTEXT ( 'NONE', #95, 'mechanical' ) ;
#345 = DIRECTION ( 'NONE',  ( 0.000000000000000000, 0.000000000000000000, 1.000000000000000000 ) ) ;
#346 = ORIENTED_EDGE ( 'NONE', *, *, #139, .F. ) ;
#347 = EDGE_CURVE ( 'NONE', #265, #263, #261, .T. ) ;
#348 = AXIS2_PLACEMENT_3D ( 'NONE', #45, #192, #48 ) ;
#349 = MECHANICAL_DESIGN_GEOMETRIC_PRESENTATION_REPRESENTATION (  '', ( #70 ), #365 ) ;
#350 = SHAPE_DEFINITION_REPRESENTATION ( #151, #292 ) ;
#351 = CYLINDRICAL_SURFACE ( 'NONE', #57, 10.00000000000000000 ) ;
#352 = SURFACE_STYLE_USAGE ( .BOTH. , #232 ) ;
#353 = PRESENTATION_STYLE_ASSIGNMENT (( #323 ) ) ;
#354 =( NAMED_UNIT ( * ) PLANE_ANGLE_UNIT ( ) SI_UNIT ( $, .RADIAN. ) );
#355 = MECHANICAL_DESIGN_GEOMETRIC_PRESENTATION_REPRESENTATION (  '', ( #294 ), #175 ) ;
#356 = MECHANICAL_DESIGN_GEOMETRIC_PRESENTATION_REPRESENTATION (  '', ( #5 ), #205 ) ;
#357 = SURFACE_STYLE_FILL_AREA ( #337 ) ;
#358 =( NAMED_UNIT ( * ) PLANE_ANGLE_UNIT ( ) SI_UNIT ( $, .RADIAN. ) );
#359 =( NAMED_UNIT ( * ) PLANE_ANGLE_UNIT ( ) SI_UNIT ( $, .RADIAN. ) );
#360 = UNCERTAINTY_MEASURE_WITH_UNIT (LENGTH_MEASURE( 1.000000000000000082E-05 ), #169, 'distance_accuracy_value', 'NONE');
#361 = DIRECTION ( 'NONE',  ( -1.252807796048505441E-16, 1.000000000000000000, -0.000000000000000000 ) ) ;
#362 =( LENGTH_UNIT ( ) NAMED_UNIT ( * ) SI_UNIT ( .MILLI., .METRE. ) );
#363 = MECHANICAL_DESIGN_GEOMETRIC_PRESENTATION_REPRESENTATION (  '', ( #331 ), #87 ) ;
#364 = CARTESIAN_POINT ( 'NONE',  ( 0.000000000000000000, 50.00000000000000000, 0.000000000000000000 ) ) ;
#365 =( GEOMETRIC_REPRESENTATION_CONTEXT ( 3 ) GLOBAL_UNCERTAINTY_ASSIGNED_CONTEXT ( ( #92 ) ) GLOBAL_UNIT_ASSIGNED_CONTEXT ( ( #146, #211, #268 ) ) REPRESENTATION_CONTEXT ( 'NONE', 'WORKASPACE' ) );
#366 = FILL_AREA_STYLE_COLOUR ( '', #281 ) ;
#367 = FILL_AREA_STYLE_COLOUR ( '', #287 ) ;
#368 = CARTESIAN_POINT ( 'NONE',  ( 4.987329993433318819E-15, 50.00000000000000000, 0.000000000000000000 ) ) ;
#369 = DIRECTION ( 'NONE',  ( -1.224646799147353454E-16, 0.000000000000000000, -1.000000000000000000 ) ) ;
#370 = UNCERTAINTY_MEASURE_WITH_UNIT (LENGTH_MEASURE( 1.000000000000000082E-05 ), #243, 'distance_accuracy_value', 'NONE');
ENDSEC;
END-ISO-10303-21;
