ISO-10303-21;
HEADER;
FILE_DESCRIPTION (( 'STEP AP214' ),
    '1' );
FILE_NAME ('Micro_GEM-109-3X.STEP',
    '2021-09-01T19:28:04',
    ( '' ),
    ( '' ),
    'SwSTEP 2.0',
    'SolidWorks 2020',
    '' );
FILE_SCHEMA (( 'AUTOMOTIVE_DESIGN' ));
ENDSEC;

DATA;
#1 = FACE_OUTER_BOUND ( 'NONE', #136, .T. ) ;
#2 = ADVANCED_FACE ( 'NONE', ( #57 ), #226, .T. ) ;
#3 = AXIS2_PLACEMENT_3D ( 'NONE', #61, #65, #69 ) ;
#4 = DIRECTION ( 'NONE',  ( -0.0000000000000000000, -0.0000000000000000000, -1.000000000000000000 ) ) ;
#5 = CYLINDRICAL_SURFACE ( 'NONE', #165, 0.06250000000000002776 ) ;
#6 = LINE ( 'NONE', #191, #62 ) ;
#7 = DIRECTION ( 'NONE',  ( -1.000000000000000000, 0.0000000000000000000, 1.224646799147353700E-16 ) ) ;
#8 = DIRECTION ( 'NONE',  ( 0.0000000000000000000, 0.0000000000000000000, -1.000000000000000000 ) ) ;
#9 = ADVANCED_FACE ( 'NONE', ( #190 ), #130, .T. ) ;
#10 = AXIS2_PLACEMENT_3D ( 'NONE', #54, #196, #103 ) ;
#11 = LINE ( 'NONE', #238, #269 ) ;
#12 = EDGE_LOOP ( 'NONE', ( #128, #218, #281, #263 ) ) ;
#13 = DIRECTION ( 'NONE',  ( -1.224646799147353700E-16, -0.0000000000000000000, -1.000000000000000000 ) ) ;
#14 = EDGE_LOOP ( 'NONE', ( #126, #140, #27, #55 ) ) ;
#15 = PRODUCT_CONTEXT ( 'NONE', #42, 'mechanical' ) ;
#16 = FILL_AREA_STYLE ('',( #206 ) ) ;
#17 = EDGE_CURVE ( 'NONE', #171, #115, #265, .T. ) ;
#18 = EDGE_LOOP ( 'NONE', ( #59, #241, #132, #255 ) ) ;
#19 = LENGTH_MEASURE_WITH_UNIT ( LENGTH_MEASURE( 0.02539999999999999897 ), #141 );
#20 =( GEOMETRIC_REPRESENTATION_CONTEXT ( 3 ) GLOBAL_UNCERTAINTY_ASSIGNED_CONTEXT ( ( #203 ) ) GLOBAL_UNIT_ASSIGNED_CONTEXT ( ( #245, #225, #270 ) ) REPRESENTATION_CONTEXT ( 'NONE', 'WORKASPACE' ) );
#21 = CARTESIAN_POINT ( 'NONE',  ( -0.05464529999999999388, 0.0000000000000000000, 6.692119173344688177E-18 ) ) ;
#22 = DIRECTION ( 'NONE',  ( -1.224646799147353700E-16, -0.0000000000000000000, -1.000000000000000000 ) ) ;
#23 = ORIENTED_EDGE ( 'NONE', *, *, #159, .F. ) ;
#24 = CARTESIAN_POINT ( 'NONE',  ( 0.0000000000000000000, 0.0000000000000000000, 1.500000000000000222 ) ) ;
#25 = AXIS2_PLACEMENT_3D ( 'NONE', #166, #93, #114 ) ;
#26 = DIRECTION ( 'NONE',  ( 0.0000000000000000000, 0.0000000000000000000, -1.000000000000000000 ) ) ;
#27 = ORIENTED_EDGE ( 'NONE', *, *, #76, .F. ) ;
#28 = CARTESIAN_POINT ( 'NONE',  ( -0.04750000000000064587, 0.0000000000000000000, 1.500000000000000222 ) ) ;
#29 = LINE ( 'NONE', #236, #79 ) ;
#30 = DIMENSIONAL_EXPONENTS ( 1.000000000000000000, 0.0000000000000000000, 0.0000000000000000000, 0.0000000000000000000, 0.0000000000000000000, 0.0000000000000000000, 0.0000000000000000000 ) ;
#31 = AXIS2_PLACEMENT_3D ( 'NONE', #77, #26, #213 ) ;
#32 = SURFACE_SIDE_STYLE ('',( #290 ) ) ;
#33 = FACE_OUTER_BOUND ( 'NONE', #224, .T. ) ;
#34 =( LENGTH_UNIT ( ) NAMED_UNIT ( * ) SI_UNIT ( $, .METRE. ) );
#35 = UNCERTAINTY_MEASURE_WITH_UNIT (LENGTH_MEASURE( 1.000000000000000082E-05 ), #223, 'distance_accuracy_value', 'NONE');
#36 = LINE ( 'NONE', #204, #194 ) ;
#37 = AXIS2_PLACEMENT_3D ( 'NONE', #168, #252, #193 ) ;
#38 = EDGE_LOOP ( 'NONE', ( #119, #106, #205, #211 ) ) ;
#39 = AXIS2_PLACEMENT_3D ( 'NONE', #105, #156, #173 ) ;
#40 = APPLICATION_PROTOCOL_DEFINITION ( 'draft international standard', 'automotive_design', 1998, #262 ) ;
#41 = SHAPE_DEFINITION_REPRESENTATION ( #294, #71 ) ;
#42 = APPLICATION_CONTEXT ( 'automotive_design' ) ;
#43 = ORIENTED_EDGE ( 'NONE', *, *, #293, .F. ) ;
#44 = ORIENTED_EDGE ( 'NONE', *, *, #288, .T. ) ;
#45 = CIRCLE ( 'NONE', #25, 0.06250000000000002776 ) ;
#46 = ADVANCED_FACE ( 'NONE', ( #200 ), #230, .T. ) ;
#47 = ADVANCED_FACE ( 'NONE', ( #49 ), #5, .T. ) ;
#48 = CIRCLE ( 'NONE', #145, 0.06250000000000002776 ) ;
#49 = FACE_OUTER_BOUND ( 'NONE', #12, .T. ) ;
#50 = FACE_OUTER_BOUND ( 'NONE', #289, .T. ) ;
#51 = COLOUR_RGB ( '',0.7921568627450980005, 0.8196078431372548767, 0.9333333333333333481 ) ;
#52 = ADVANCED_FACE ( 'NONE', ( #104 ), #124, .T. ) ;
#53 = ORIENTED_EDGE ( 'NONE', *, *, #181, .F. ) ;
#54 = CARTESIAN_POINT ( 'NONE',  ( 4.592425496802576684E-17, 0.0000000000000000000, 0.3750000000000000555 ) ) ;
#55 = ORIENTED_EDGE ( 'NONE', *, *, #97, .F. ) ;
#56 = DIRECTION ( 'NONE',  ( -1.000000000000000000, 0.0000000000000000000, 0.0000000000000000000 ) ) ;
#57 = FACE_OUTER_BOUND ( 'NONE', #18, .T. ) ;
#58 = STYLED_ITEM ( 'NONE', ( #178 ), #299 ) ;
#59 = ORIENTED_EDGE ( 'NONE', *, *, #208, .F. ) ;
#60 = DIRECTION ( 'NONE',  ( -1.224646799147353700E-16, -0.0000000000000000000, -1.000000000000000000 ) ) ;
#61 = CARTESIAN_POINT ( 'NONE',  ( 0.0000000000000000000, 0.0000000000000000000, 1.500000000000000222 ) ) ;
#62 = VECTOR ( 'NONE', #260, 39.37007874015748854 ) ;
#63 = SURFACE_STYLE_FILL_AREA ( #16 ) ;
#64 = VERTEX_POINT ( 'NONE', #280 ) ;
#65 = DIRECTION ( 'NONE',  ( 0.0000000000000000000, 0.0000000000000000000, 1.000000000000000000 ) ) ;
#66 = ORIENTED_EDGE ( 'NONE', *, *, #17, .F. ) ;
#67 = ADVANCED_FACE ( 'NONE', ( #182 ), #246, .T. ) ;
#68 = VECTOR ( 'NONE', #186, 39.37007874015748143 ) ;
#69 = DIRECTION ( 'NONE',  ( 1.000000000000000000, 0.0000000000000000000, -0.0000000000000000000 ) ) ;
#70 = CARTESIAN_POINT ( 'NONE',  ( 0.06250000000000002776, 7.654042494670959086E-18, 1.500000000000000222 ) ) ;
#71 = ADVANCED_BREP_SHAPE_REPRESENTATION ( 'Micro_GEM-109-3X', ( #299, #125 ), #20 ) ;
#72 = CARTESIAN_POINT ( 'NONE',  ( 0.06250000000000002776, 7.654042494670959086E-18, 1.485000000000000764 ) ) ;
#73 = CARTESIAN_POINT ( 'NONE',  ( 4.592425496802576684E-17, 0.0000000000000000000, 0.3750000000000000555 ) ) ;
#74 = DIRECTION ( 'NONE',  ( -1.224646799147353700E-16, -0.0000000000000000000, -1.000000000000000000 ) ) ;
#75 = CARTESIAN_POINT ( 'NONE',  ( 0.0000000000000000000, 0.0000000000000000000, 0.0000000000000000000 ) ) ;
#76 = EDGE_CURVE ( 'NONE', #266, #229, #183, .T. ) ;
#77 = CARTESIAN_POINT ( 'NONE',  ( 0.0000000000000000000, 0.0000000000000000000, 1.500000000000000222 ) ) ;
#78 = DIRECTION ( 'NONE',  ( 1.000000000000000000, 0.0000000000000000000, 0.0000000000000000000 ) ) ;
#79 = VECTOR ( 'NONE', #133, 39.37007874015748854 ) ;
#80 = AXIS2_PLACEMENT_3D ( 'NONE', #219, #13, #256 ) ;
#81 = PRODUCT_RELATED_PRODUCT_CATEGORY ( 'part', '', ( #95 ) ) ;
#82 = ORIENTED_EDGE ( 'NONE', *, *, #76, .T. ) ;
#83 = DIRECTION ( 'NONE',  ( 0.0000000000000000000, 0.0000000000000000000, 1.000000000000000000 ) ) ;
#84 = ORIENTED_EDGE ( 'NONE', *, *, #288, .F. ) ;
#85 = DIRECTION ( 'NONE',  ( 1.000000000000000000, 0.0000000000000000000, -0.0000000000000000000 ) ) ;
#86 = CARTESIAN_POINT ( 'NONE',  ( 0.0000000000000000000, 0.0000000000000000000, 0.0000000000000000000 ) ) ;
#87 = DIRECTION ( 'NONE',  ( 1.000000000000000000, 0.0000000000000000000, 0.0000000000000000000 ) ) ;
#88 = PRODUCT_DEFINITION_CONTEXT ( 'detailed design', #262, 'design' ) ;
#89 = PRESENTATION_STYLE_ASSIGNMENT (( #91 ) ) ;
#90 = EDGE_CURVE ( 'NONE', #155, #197, #45, .T. ) ;
#91 = SURFACE_STYLE_USAGE ( .BOTH. , #240 ) ;
#92 = ORIENTED_EDGE ( 'NONE', *, *, #188, .T. ) ;
#93 = DIRECTION ( 'NONE',  ( -1.224646799147353700E-16, -0.0000000000000000000, -1.000000000000000000 ) ) ;
#94 = EDGE_CURVE ( 'NONE', #115, #197, #36, .T. ) ;
#95 = PRODUCT ( 'Micro_GEM-109-3X', 'Micro_GEM-109-3X', '', ( #15 ) ) ;
#96 = PRESENTATION_LAYER_ASSIGNMENT (  '', '', ( #58 ) ) ;
#97 = EDGE_CURVE ( 'NONE', #115, #266, #154, .T. ) ;
#98 = CYLINDRICAL_SURFACE ( 'NONE', #37, 0.05464529999999999388 ) ;
#99 = CLOSED_SHELL ( 'NONE', ( #9, #52, #272, #47, #295, #67, #2, #46, #149, #247 ) ) ;
#100 = DIMENSIONAL_EXPONENTS ( 1.000000000000000000, 0.0000000000000000000, 0.0000000000000000000, 0.0000000000000000000, 0.0000000000000000000, 0.0000000000000000000, 0.0000000000000000000 ) ;
#101 = EDGE_CURVE ( 'NONE', #171, #155, #278, .T. ) ;
#102 = ORIENTED_EDGE ( 'NONE', *, *, #90, .T. ) ;
#103 = DIRECTION ( 'NONE',  ( -1.000000000000000000, 0.0000000000000000000, 0.0000000000000000000 ) ) ;
#104 = FACE_OUTER_BOUND ( 'NONE', #38, .T. ) ;
#105 = CARTESIAN_POINT ( 'NONE',  ( 0.0000000000000000000, 0.0000000000000000000, 1.500000000000000222 ) ) ;
#106 = ORIENTED_EDGE ( 'NONE', *, *, #94, .T. ) ;
#107 = PLANE ( 'NONE',  #215 ) ;
#108 = AXIS2_PLACEMENT_3D ( 'NONE', #234, #8, #201 ) ;
#109 = CARTESIAN_POINT ( 'NONE',  ( -0.05464529999999999388, 0.0000000000000000000, 1.338423834668937635E-17 ) ) ;
#110 = DIRECTION ( 'NONE',  ( -1.224646799147353700E-16, -0.0000000000000000000, -1.000000000000000000 ) ) ;
#111 = CARTESIAN_POINT ( 'NONE',  ( 0.06250000000000008327, 7.654042494670966789E-18, 0.4195462173085511837 ) ) ;
#112 = VERTEX_POINT ( 'NONE', #167 ) ;
#113 = CIRCLE ( 'NONE', #275, 0.04750000000000064587 ) ;
#114 = DIRECTION ( 'NONE',  ( 1.000000000000000000, 0.0000000000000000000, 0.0000000000000000000 ) ) ;
#115 = VERTEX_POINT ( 'NONE', #170 ) ;
#116 =( NAMED_UNIT ( * ) PLANE_ANGLE_UNIT ( ) SI_UNIT ( $, .RADIAN. ) );
#117 = EDGE_CURVE ( 'NONE', #202, #112, #113, .T. ) ;
#118 =( GEOMETRIC_REPRESENTATION_CONTEXT ( 3 ) GLOBAL_UNCERTAINTY_ASSIGNED_CONTEXT ( ( #35 ) ) GLOBAL_UNIT_ASSIGNED_CONTEXT ( ( #223, #116, #220 ) ) REPRESENTATION_CONTEXT ( 'NONE', 'WORKASPACE' ) );
#119 = ORIENTED_EDGE ( 'NONE', *, *, #254, .F. ) ;
#120 = DIRECTION ( 'NONE',  ( -1.000000000000000000, 0.0000000000000000000, 1.224646799147353700E-16 ) ) ;
#121 = CIRCLE ( 'NONE', #221, 0.06250000000000002776 ) ;
#122 = EDGE_CURVE ( 'NONE', #144, #155, #276, .T. ) ;
#123 = DIMENSIONAL_EXPONENTS ( 1.000000000000000000, 0.0000000000000000000, 0.0000000000000000000, 0.0000000000000000000, 0.0000000000000000000, 0.0000000000000000000, 0.0000000000000000000 ) ;
#124 = CONICAL_SURFACE ( 'NONE', #139, 0.05464529999999999388, 0.1745329251994338637 ) ;
#125 = AXIS2_PLACEMENT_3D ( 'NONE', #217, #273, #162 ) ;
#126 = ORIENTED_EDGE ( 'NONE', *, *, #254, .T. ) ;
#127 = DIRECTION ( 'NONE',  ( 1.000000000000000000, 0.0000000000000000000, 0.0000000000000000000 ) ) ;
#128 = ORIENTED_EDGE ( 'NONE', *, *, #147, .T. ) ;
#129 = CARTESIAN_POINT ( 'NONE',  ( 0.05464529999999999388, 6.692119173344685866E-18, -6.692119173344688177E-18 ) ) ;
#130 = CYLINDRICAL_SURFACE ( 'NONE', #142, 0.05464529999999999388 ) ;
#131 = FACE_OUTER_BOUND ( 'NONE', #151, .T. ) ;
#132 = ORIENTED_EDGE ( 'NONE', *, *, #181, .T. ) ;
#133 = DIRECTION ( 'NONE',  ( -0.7071067811865462405, 0.0000000000000000000, -0.7071067811865486830 ) ) ;
#134 = AXIS2_PLACEMENT_3D ( 'NONE', #228, #22, #120 ) ;
#135 = PRESENTATION_LAYER_ASSIGNMENT (  '', '', ( #189 ) ) ;
#136 = EDGE_LOOP ( 'NONE', ( #23, #216, #184, #43 ) ) ;
#137 = CARTESIAN_POINT ( 'NONE',  ( 5.137959321212973182E-17, 0.0000000000000000000, 0.4195462173085511837 ) ) ;
#138 = UNCERTAINTY_MEASURE_WITH_UNIT (LENGTH_MEASURE( 1.000000000000000082E-05 ), #152, 'distance_accuracy_value', 'NONE');
#139 = AXIS2_PLACEMENT_3D ( 'NONE', #235, #283, #87 ) ;
#140 = ORIENTED_EDGE ( 'NONE', *, *, #159, .T. ) ;
#141 =( LENGTH_UNIT ( ) NAMED_UNIT ( * ) SI_UNIT ( $, .METRE. ) );
#142 = AXIS2_PLACEMENT_3D ( 'NONE', #75, #110, #7 ) ;
#143 = MECHANICAL_DESIGN_GEOMETRIC_PRESENTATION_REPRESENTATION (  '', ( #189 ), #118 ) ;
#144 = VERTEX_POINT ( 'NONE', #72 ) ;
#145 = AXIS2_PLACEMENT_3D ( 'NONE', #137, #60, #78 ) ;
#146 = CARTESIAN_POINT ( 'NONE',  ( 0.0000000000000000000, 0.0000000000000000000, 1.485000000000000764 ) ) ;
#147 = EDGE_CURVE ( 'NONE', #64, #144, #121, .T. ) ;
#148 = DIRECTION ( 'NONE',  ( 1.000000000000000000, 0.0000000000000000000, 0.0000000000000000000 ) ) ;
#149 = ADVANCED_FACE ( 'NONE', ( #1 ), #98, .T. ) ;
#150 = VECTOR ( 'NONE', #277, 39.37007874015748143 ) ;
#151 = EDGE_LOOP ( 'NONE', ( #84, #233, #161, #53 ) ) ;
#152 =( CONVERSION_BASED_UNIT ( 'INCH', #172 ) LENGTH_UNIT ( ) NAMED_UNIT ( #100 ) );
#153 = CYLINDRICAL_SURFACE ( 'NONE', #244, 0.06250000000000002776 ) ;
#154 = LINE ( 'NONE', #21, #232 ) ;
#155 = VERTEX_POINT ( 'NONE', #111 ) ;
#156 = DIRECTION ( 'NONE',  ( 0.0000000000000000000, 0.0000000000000000000, -1.000000000000000000 ) ) ;
#157 = ORIENTED_EDGE ( 'NONE', *, *, #90, .F. ) ;
#158 = DIRECTION ( 'NONE',  ( 0.0000000000000000000, 0.0000000000000000000, 1.000000000000000000 ) ) ;
#159 = EDGE_CURVE ( 'NONE', #171, #229, #291, .T. ) ;
#160 = APPLICATION_PROTOCOL_DEFINITION ( 'draft international standard', 'automotive_design', 1998, #42 ) ;
#161 = ORIENTED_EDGE ( 'NONE', *, *, #147, .F. ) ;
#162 = DIRECTION ( 'NONE',  ( 1.000000000000000000, 0.0000000000000000000, 0.0000000000000000000 ) ) ;
#163 = CONICAL_SURFACE ( 'NONE', #39, 0.04750000000000064587, 0.7853981633974466137 ) ;
#164 = ORIENTED_EDGE ( 'NONE', *, *, #199, .T. ) ;
#165 = AXIS2_PLACEMENT_3D ( 'NONE', #286, #231, #259 ) ;
#166 = CARTESIAN_POINT ( 'NONE',  ( 5.137959321212973182E-17, 0.0000000000000000000, 0.4195462173085511837 ) ) ;
#167 = CARTESIAN_POINT ( 'NONE',  ( 0.04750000000000064587, 6.735557395310483192E-18, 1.500000000000000222 ) ) ;
#168 = CARTESIAN_POINT ( 'NONE',  ( 0.0000000000000000000, 0.0000000000000000000, 0.0000000000000000000 ) ) ;
#169 = DIRECTION ( 'NONE',  ( -1.000000000000000000, 0.0000000000000000000, 0.0000000000000000000 ) ) ;
#170 = CARTESIAN_POINT ( 'NONE',  ( -0.05464529999999995225, 7.173080834007822861E-18, 0.3750000000000000555 ) ) ;
#171 = VERTEX_POINT ( 'NONE', #284 ) ;
#172 = LENGTH_MEASURE_WITH_UNIT ( LENGTH_MEASURE( 0.02539999999999999897 ), #239 );
#173 = DIRECTION ( 'NONE',  ( -1.000000000000000000, 0.0000000000000000000, 0.0000000000000000000 ) ) ;
#174 = CARTESIAN_POINT ( 'NONE',  ( 4.592425496802576684E-17, 0.0000000000000000000, 0.3750000000000000555 ) ) ;
#175 = CARTESIAN_POINT ( 'NONE',  ( 0.0000000000000000000, 0.0000000000000000000, 1.500000000000000222 ) ) ;
#176 = ORIENTED_EDGE ( 'NONE', *, *, #122, .F. ) ;
#177 = SURFACE_STYLE_USAGE ( .BOTH. , #32 ) ;
#178 = PRESENTATION_STYLE_ASSIGNMENT (( #177 ) ) ;
#179 = MECHANICAL_DESIGN_GEOMETRIC_PRESENTATION_REPRESENTATION (  '', ( #58 ), #237 ) ;
#180 =( NAMED_UNIT ( * ) PLANE_ANGLE_UNIT ( ) SI_UNIT ( $, .RADIAN. ) );
#181 = EDGE_CURVE ( 'NONE', #202, #64, #29, .T. ) ;
#182 = FACE_OUTER_BOUND ( 'NONE', #185, .T. ) ;
#183 = CIRCLE ( 'NONE', #134, 0.05464529999999999388 ) ;
#184 = ORIENTED_EDGE ( 'NONE', *, *, #97, .T. ) ;
#185 = EDGE_LOOP ( 'NONE', ( #222, #44 ) ) ;
#186 = DIRECTION ( 'NONE',  ( 0.1736481776669313581, 0.0000000000000000000, 0.9848077530122077983 ) ) ;
#187 = DIRECTION ( 'NONE',  ( 0.0000000000000000000, 0.0000000000000000000, 1.000000000000000000 ) ) ;
#188 = EDGE_CURVE ( 'NONE', #144, #64, #285, .T. ) ;
#189 = STYLED_ITEM ( 'NONE', ( #89 ), #71 ) ;
#190 = FACE_OUTER_BOUND ( 'NONE', #14, .T. ) ;
#191 = CARTESIAN_POINT ( 'NONE',  ( 0.04750000000000064587, 5.817072295950006528E-18, 1.500000000000000222 ) ) ;
#192 = ORIENTED_EDGE ( 'NONE', *, *, #101, .T. ) ;
#193 = DIRECTION ( 'NONE',  ( -1.000000000000000000, 0.0000000000000000000, 1.224646799147353700E-16 ) ) ;
#194 = VECTOR ( 'NONE', #209, 39.37007874015747433 ) ;
#195 = DIRECTION ( 'NONE',  ( -1.224646799147353700E-16, -0.0000000000000000000, -1.000000000000000000 ) ) ;
#196 = DIRECTION ( 'NONE',  ( -1.224646799147353700E-16, -0.0000000000000000000, -1.000000000000000000 ) ) ;
#197 = VERTEX_POINT ( 'NONE', #212 ) ;
#198 = FILL_AREA_STYLE_COLOUR ( '', #51 ) ;
#199 = EDGE_CURVE ( 'NONE', #64, #197, #11, .T. ) ;
#200 = FACE_OUTER_BOUND ( 'NONE', #274, .T. ) ;
#201 = DIRECTION ( 'NONE',  ( 1.000000000000000000, 0.0000000000000000000, 0.0000000000000000000 ) ) ;
#202 = VERTEX_POINT ( 'NONE', #28 ) ;
#203 = UNCERTAINTY_MEASURE_WITH_UNIT (LENGTH_MEASURE( 1.000000000000000082E-05 ), #245, 'distance_accuracy_value', 'NONE');
#204 = CARTESIAN_POINT ( 'NONE',  ( -0.05464529999999995225, 6.692119173344685866E-18, 0.3750000000000000555 ) ) ;
#205 = ORIENTED_EDGE ( 'NONE', *, *, #242, .T. ) ;
#206 = FILL_AREA_STYLE_COLOUR ( '', #267 ) ;
#207 = ORIENTED_EDGE ( 'NONE', *, *, #94, .F. ) ;
#208 = EDGE_CURVE ( 'NONE', #112, #144, #6, .T. ) ;
#209 = DIRECTION ( 'NONE',  ( -0.1736481776669311639, 2.126576849575783008E-17, 0.9848077530122080203 ) ) ;
#210 = DIRECTION ( 'NONE',  ( 1.000000000000000000, 0.0000000000000000000, 0.0000000000000000000 ) ) ;
#211 = ORIENTED_EDGE ( 'NONE', *, *, #101, .F. ) ;
#212 = CARTESIAN_POINT ( 'NONE',  ( -0.06249999999999997224, 0.0000000000000000000, 0.4195462173085511837 ) ) ;
#213 = DIRECTION ( 'NONE',  ( -1.000000000000000000, 0.0000000000000000000, 0.0000000000000000000 ) ) ;
#214 = CARTESIAN_POINT ( 'NONE',  ( 0.05464529999999999388, 6.692119173344685866E-18, 0.0000000000000000000 ) ) ;
#215 = AXIS2_PLACEMENT_3D ( 'NONE', #86, #158, #85 ) ;
#216 = ORIENTED_EDGE ( 'NONE', *, *, #17, .T. ) ;
#217 = CARTESIAN_POINT ( 'NONE',  ( 0.0000000000000000000, 0.0000000000000000000, 0.0000000000000000000 ) ) ;
#218 = ORIENTED_EDGE ( 'NONE', *, *, #122, .T. ) ;
#219 = CARTESIAN_POINT ( 'NONE',  ( 8.195482325149207809E-34, 0.0000000000000000000, 6.692119173344688177E-18 ) ) ;
#220 =( NAMED_UNIT ( * ) SI_UNIT ( $, .STERADIAN. ) SOLID_ANGLE_UNIT ( ) );
#221 = AXIS2_PLACEMENT_3D ( 'NONE', #146, #251, #210 ) ;
#222 = ORIENTED_EDGE ( 'NONE', *, *, #117, .T. ) ;
#223 =( CONVERSION_BASED_UNIT ( 'INCH', #292 ) LENGTH_UNIT ( ) NAMED_UNIT ( #123 ) );
#224 = EDGE_LOOP ( 'NONE', ( #82, #248 ) ) ;
#225 =( NAMED_UNIT ( * ) PLANE_ANGLE_UNIT ( ) SI_UNIT ( $, .RADIAN. ) );
#226 = CONICAL_SURFACE ( 'NONE', #31, 0.04750000000000064587, 0.7853981633974466137 ) ;
#227 = CIRCLE ( 'NONE', #80, 0.05464529999999999388 ) ;
#228 = CARTESIAN_POINT ( 'NONE',  ( 8.195482325149207809E-34, 0.0000000000000000000, 6.692119173344688177E-18 ) ) ;
#229 = VERTEX_POINT ( 'NONE', #214 ) ;
#230 = CONICAL_SURFACE ( 'NONE', #249, 0.05464529999999999388, 0.1745329251994338637 ) ;
#231 = DIRECTION ( 'NONE',  ( -0.0000000000000000000, -0.0000000000000000000, -1.000000000000000000 ) ) ;
#232 = VECTOR ( 'NONE', #74, 39.37007874015748143 ) ;
#233 = ORIENTED_EDGE ( 'NONE', *, *, #208, .T. ) ;
#234 = CARTESIAN_POINT ( 'NONE',  ( 0.0000000000000000000, 0.0000000000000000000, 1.485000000000000764 ) ) ;
#235 = CARTESIAN_POINT ( 'NONE',  ( 4.592425496802576684E-17, 0.0000000000000000000, 0.3750000000000000555 ) ) ;
#236 = CARTESIAN_POINT ( 'NONE',  ( -0.04750000000000064587, 0.0000000000000000000, 1.500000000000000222 ) ) ;
#237 =( GEOMETRIC_REPRESENTATION_CONTEXT ( 3 ) GLOBAL_UNCERTAINTY_ASSIGNED_CONTEXT ( ( #138 ) ) GLOBAL_UNIT_ASSIGNED_CONTEXT ( ( #152, #180, #243 ) ) REPRESENTATION_CONTEXT ( 'NONE', 'WORKASPACE' ) );
#238 = CARTESIAN_POINT ( 'NONE',  ( -0.06250000000000002776, 0.0000000000000000000, 1.500000000000000222 ) ) ;
#239 =( LENGTH_UNIT ( ) NAMED_UNIT ( * ) SI_UNIT ( $, .METRE. ) );
#240 = SURFACE_SIDE_STYLE ('',( #63 ) ) ;
#241 = ORIENTED_EDGE ( 'NONE', *, *, #117, .F. ) ;
#242 = EDGE_CURVE ( 'NONE', #197, #155, #48, .T. ) ;
#243 =( NAMED_UNIT ( * ) SI_UNIT ( $, .STERADIAN. ) SOLID_ANGLE_UNIT ( ) );
#244 = AXIS2_PLACEMENT_3D ( 'NONE', #175, #261, #56 ) ;
#245 =( CONVERSION_BASED_UNIT ( 'INCH', #19 ) LENGTH_UNIT ( ) NAMED_UNIT ( #30 ) );
#246 = PLANE ( 'NONE',  #3 ) ;
#247 = ADVANCED_FACE ( 'NONE', ( #33 ), #107, .F. ) ;
#248 = ORIENTED_EDGE ( 'NONE', *, *, #293, .T. ) ;
#249 = AXIS2_PLACEMENT_3D ( 'NONE', #73, #253, #148 ) ;
#250 = CARTESIAN_POINT ( 'NONE',  ( 0.05464530000000004245, 0.0000000000000000000, 0.3750000000000000555 ) ) ;
#251 = DIRECTION ( 'NONE',  ( 0.0000000000000000000, 0.0000000000000000000, -1.000000000000000000 ) ) ;
#252 = DIRECTION ( 'NONE',  ( -1.224646799147353700E-16, -0.0000000000000000000, -1.000000000000000000 ) ) ;
#253 = DIRECTION ( 'NONE',  ( 1.224646799147353700E-16, 0.0000000000000000000, 1.000000000000000000 ) ) ;
#254 = EDGE_CURVE ( 'NONE', #115, #171, #298, .T. ) ;
#255 = ORIENTED_EDGE ( 'NONE', *, *, #188, .F. ) ;
#256 = DIRECTION ( 'NONE',  ( -1.000000000000000000, 0.0000000000000000000, 1.224646799147353700E-16 ) ) ;
#257 = PRODUCT_DEFINITION ( 'UNKNOWN', '', #296, #88 ) ;
#258 = AXIS2_PLACEMENT_3D ( 'NONE', #174, #195, #169 ) ;
#259 = DIRECTION ( 'NONE',  ( -1.000000000000000000, 0.0000000000000000000, 0.0000000000000000000 ) ) ;
#260 = DIRECTION ( 'NONE',  ( 0.7071067811865462405, 8.659560562354916834E-17, -0.7071067811865486830 ) ) ;
#261 = DIRECTION ( 'NONE',  ( -0.0000000000000000000, -0.0000000000000000000, -1.000000000000000000 ) ) ;
#262 = APPLICATION_CONTEXT ( 'automotive_design' ) ;
#263 = ORIENTED_EDGE ( 'NONE', *, *, #199, .F. ) ;
#264 = CARTESIAN_POINT ( 'NONE',  ( 0.0000000000000000000, 0.0000000000000000000, 1.500000000000000222 ) ) ;
#265 = CIRCLE ( 'NONE', #258, 0.05464529999999999388 ) ;
#266 = VERTEX_POINT ( 'NONE', #109 ) ;
#267 = COLOUR_RGB ( '',0.7921568627450980005, 0.8196078431372548767, 0.9333333333333333481 ) ;
#268 = DIRECTION ( 'NONE',  ( 1.000000000000000000, 0.0000000000000000000, 0.0000000000000000000 ) ) ;
#269 = VECTOR ( 'NONE', #4, 39.37007874015748143 ) ;
#270 =( NAMED_UNIT ( * ) SI_UNIT ( $, .STERADIAN. ) SOLID_ANGLE_UNIT ( ) );
#271 = CIRCLE ( 'NONE', #279, 0.04750000000000064587 ) ;
#272 = ADVANCED_FACE ( 'NONE', ( #131 ), #163, .T. ) ;
#273 = DIRECTION ( 'NONE',  ( 0.0000000000000000000, 0.0000000000000000000, 1.000000000000000000 ) ) ;
#274 = EDGE_LOOP ( 'NONE', ( #207, #66, #192, #102 ) ) ;
#275 = AXIS2_PLACEMENT_3D ( 'NONE', #24, #187, #127 ) ;
#276 = LINE ( 'NONE', #70, #150 ) ;
#277 = DIRECTION ( 'NONE',  ( -0.0000000000000000000, -0.0000000000000000000, -1.000000000000000000 ) ) ;
#278 = LINE ( 'NONE', #250, #68 ) ;
#279 = AXIS2_PLACEMENT_3D ( 'NONE', #264, #83, #268 ) ;
#280 = CARTESIAN_POINT ( 'NONE',  ( -0.06250000000000002776, 0.0000000000000000000, 1.485000000000000764 ) ) ;
#281 = ORIENTED_EDGE ( 'NONE', *, *, #242, .F. ) ;
#282 = FILL_AREA_STYLE ('',( #198 ) ) ;
#283 = DIRECTION ( 'NONE',  ( 1.224646799147353700E-16, 0.0000000000000000000, 1.000000000000000000 ) ) ;
#284 = CARTESIAN_POINT ( 'NONE',  ( 0.05464530000000004245, 0.0000000000000000000, 0.3750000000000000555 ) ) ;
#285 = CIRCLE ( 'NONE', #108, 0.06250000000000002776 ) ;
#286 = CARTESIAN_POINT ( 'NONE',  ( 0.0000000000000000000, 0.0000000000000000000, 1.500000000000000222 ) ) ;
#287 = DIRECTION ( 'NONE',  ( -1.224646799147353700E-16, -0.0000000000000000000, -1.000000000000000000 ) ) ;
#288 = EDGE_CURVE ( 'NONE', #112, #202, #271, .T. ) ;
#289 = EDGE_LOOP ( 'NONE', ( #176, #92, #164, #157 ) ) ;
#290 = SURFACE_STYLE_FILL_AREA ( #282 ) ;
#291 = LINE ( 'NONE', #129, #297 ) ;
#292 = LENGTH_MEASURE_WITH_UNIT ( LENGTH_MEASURE( 0.02539999999999999897 ), #34 );
#293 = EDGE_CURVE ( 'NONE', #229, #266, #227, .T. ) ;
#294 = PRODUCT_DEFINITION_SHAPE ( 'NONE', 'NONE',  #257 ) ;
#295 = ADVANCED_FACE ( 'NONE', ( #50 ), #153, .T. ) ;
#296 = PRODUCT_DEFINITION_FORMATION_WITH_SPECIFIED_SOURCE ( 'ANY', '', #95, .NOT_KNOWN. ) ;
#297 = VECTOR ( 'NONE', #287, 39.37007874015748143 ) ;
#298 = CIRCLE ( 'NONE', #10, 0.05464529999999999388 ) ;
#299 = MANIFOLD_SOLID_BREP ( 'Cut-Revolve1', #99 ) ;
ENDSEC;
END-ISO-10303-21;
