ISO-10303-21;
HEADER;
FILE_DESCRIPTION (( 'STEP AP214' ),
    '1' );
FILE_NAME ('84311.STEP',
    '2023-06-23T12:24:39',
    ( '' ),
    ( '' ),
    'SwSTEP 2.0',
    'SolidWorks 2023',
    '' );
FILE_SCHEMA (( 'AUTOMOTIVE_DESIGN' ));
ENDSEC;

DATA;
#1 = FILL_AREA_STYLE ('',( #215 ) ) ;
#2 = SURFACE_SIDE_STYLE ('',( #127 ) ) ;
#3 = AXIS2_PLACEMENT_3D ( 'NONE', #260, #280, #39 ) ;
#4 = DIRECTION ( 'NONE',  ( 5.156407575357275916E-17, -1.000000000000000000, 0.000000000000000000 ) ) ;
#5 = DIRECTION ( 'NONE',  ( -5.156407575357275916E-17, 1.000000000000000000, -0.000000000000000000 ) ) ;
#6 = ADVANCED_FACE ( 'NONE', ( #151 ), #95, .F. ) ;
#7 = FACE_OUTER_BOUND ( 'NONE', #64, .T. ) ;
#8 = CARTESIAN_POINT ( 'NONE',  ( 0.2500000000000000555, 4.000000000000000000, 3.061616997868384251E-17 ) ) ;
#9 = EDGE_CURVE ( 'NONE', #192, #236, #303, .T. ) ;
#10 = LENGTH_MEASURE_WITH_UNIT ( LENGTH_MEASURE( 0.02539999999999999897 ), #178 );
#11 = PRESENTATION_STYLE_ASSIGNMENT (( #275 ) ) ;
#12 = AXIS2_PLACEMENT_3D ( 'NONE', #17, #109, #211 ) ;
#13 = CYLINDRICAL_SURFACE ( 'NONE', #78, 0.2500000000000000555 ) ;
#14 = MECHANICAL_DESIGN_GEOMETRIC_PRESENTATION_REPRESENTATION (  '', ( #289 ), #273 ) ;
#15 = SURFACE_STYLE_USAGE ( .BOTH. , #262 ) ;
#16 = PRODUCT ( '84311', '84311', '', ( #124 ) ) ;
#17 = CARTESIAN_POINT ( 'NONE',  ( 0.000000000000000000, 0.000000000000000000, 0.000000000000000000 ) ) ;
#18 = FACE_OUTER_BOUND ( 'NONE', #145, .T. ) ;
#19 = ORIENTED_EDGE ( 'NONE', *, *, #100, .F. ) ;
#20 = AXIS2_PLACEMENT_3D ( 'NONE', #253, #186, #278 ) ;
#21 = FACE_OUTER_BOUND ( 'NONE', #216, .T. ) ;
#22 = ORIENTED_EDGE ( 'NONE', *, *, #204, .T. ) ;
#23 = DIRECTION ( 'NONE',  ( 0.000000000000000000, 0.000000000000000000, -1.000000000000000000 ) ) ;
#24 = EDGE_LOOP ( 'NONE', ( #19, #288, #45, #214 ) ) ;
#25 =( GEOMETRIC_REPRESENTATION_CONTEXT ( 3 ) GLOBAL_UNCERTAINTY_ASSIGNED_CONTEXT ( ( #69 ) ) GLOBAL_UNIT_ASSIGNED_CONTEXT ( ( #130, #35, #179 ) ) REPRESENTATION_CONTEXT ( 'NONE', 'WORKASPACE' ) );
#26 =( NAMED_UNIT ( * ) PLANE_ANGLE_UNIT ( ) SI_UNIT ( $, .RADIAN. ) );
#27 = ADVANCED_FACE ( 'NONE', ( #152 ), #125, .T. ) ;
#28 = DIRECTION ( 'NONE',  ( 0.000000000000000000, 0.000000000000000000, -1.000000000000000000 ) ) ;
#29 = UNCERTAINTY_MEASURE_WITH_UNIT (LENGTH_MEASURE( 1.000000000000000082E-05 ), #44, 'distance_accuracy_value', 'NONE');
#30 = DIRECTION ( 'NONE',  ( 0.000000000000000000, 0.000000000000000000, 1.000000000000000000 ) ) ;
#31 = VECTOR ( 'NONE', #60, 39.37007874015748143 ) ;
#32 = AXIS2_PLACEMENT_3D ( 'NONE', #63, #88, #141 ) ;
#33 = FILL_AREA_STYLE ('',( #77 ) ) ;
#34 = VECTOR ( 'NONE', #173, 39.37007874015748143 ) ;
#35 =( NAMED_UNIT ( * ) PLANE_ANGLE_UNIT ( ) SI_UNIT ( $, .RADIAN. ) );
#36 = SURFACE_SIDE_STYLE ('',( #76 ) ) ;
#37 = DIRECTION ( 'NONE',  ( 0.000000000000000000, 0.000000000000000000, -1.000000000000000000 ) ) ;
#38 = COLOUR_RGB ( '',1.000000000000000000, 0.000000000000000000, 0.000000000000000000 ) ;
#39 = DIRECTION ( 'NONE',  ( 0.000000000000000000, 0.000000000000000000, -1.000000000000000000 ) ) ;
#40 = DIRECTION ( 'NONE',  ( 0.000000000000000000, 1.000000000000000000, 0.000000000000000000 ) ) ;
#41 = PRODUCT_RELATED_PRODUCT_CATEGORY ( 'part', '', ( #16 ) ) ;
#42 = VERTEX_POINT ( 'NONE', #243 ) ;
#43 = AXIS2_PLACEMENT_3D ( 'NONE', #198, #144, #117 ) ;
#44 =( CONVERSION_BASED_UNIT ( 'INCH', #177 ) LENGTH_UNIT ( ) NAMED_UNIT ( #104 ) );
#45 = ORIENTED_EDGE ( 'NONE', *, *, #110, .T. ) ;
#46 = DIRECTION ( 'NONE',  ( -0.000000000000000000, -1.000000000000000000, -0.000000000000000000 ) ) ;
#47 =( NAMED_UNIT ( * ) PLANE_ANGLE_UNIT ( ) SI_UNIT ( $, .RADIAN. ) );
#48 = DIRECTION ( 'NONE',  ( 1.000000000000000000, 0.000000000000000000, 0.000000000000000000 ) ) ;
#49 = PRESENTATION_STYLE_ASSIGNMENT (( #270 ) ) ;
#50 = VECTOR ( 'NONE', #5, 39.37007874015748143 ) ;
#51 = CARTESIAN_POINT ( 'NONE',  ( 3.061616997868383018E-17, 0.000000000000000000, 0.2500000000000000000 ) ) ;
#52 = PRODUCT_DEFINITION_CONTEXT ( 'detailed design', #75, 'design' ) ;
#53 = EDGE_LOOP ( 'NONE', ( #258, #85 ) ) ;
#54 = STYLED_ITEM ( 'NONE', ( #266 ), #259 ) ;
#55 =( LENGTH_UNIT ( ) NAMED_UNIT ( * ) SI_UNIT ( $, .METRE. ) );
#56 = COLOUR_RGB ( '',0.7921568627450980005, 0.8196078431372548767, 0.9333333333333333481 ) ;
#57 = PRODUCT_DEFINITION_FORMATION_WITH_SPECIFIED_SOURCE ( 'ANY', '', #16, .NOT_KNOWN. ) ;
#58 =( CONVERSION_BASED_UNIT ( 'INCH', #10 ) LENGTH_UNIT ( ) NAMED_UNIT ( #230 ) );
#59 = ORIENTED_EDGE ( 'NONE', *, *, #150, .F. ) ;
#60 = DIRECTION ( 'NONE',  ( -0.000000000000000000, -1.000000000000000000, -0.000000000000000000 ) ) ;
#61 = MECHANICAL_DESIGN_GEOMETRIC_PRESENTATION_REPRESENTATION (  '', ( #98 ), #231 ) ;
#62 = PLANE ( 'NONE',  #195 ) ;
#63 = CARTESIAN_POINT ( 'NONE',  ( 0.000000000000000000, 1.625000000000000000, 0.000000000000000000 ) ) ;
#64 = EDGE_LOOP ( 'NONE', ( #83, #308, #263, #80 ) ) ;
#65 = CIRCLE ( 'NONE', #12, 0.2500000000000000000 ) ;
#66 = CARTESIAN_POINT ( 'NONE',  ( 0.000000000000000000, 0.000000000000000000, 0.000000000000000000 ) ) ;
#67 = CARTESIAN_POINT ( 'NONE',  ( 3.032960542342103792E-32, 1.625000000000000000, 0.000000000000000000 ) ) ;
#68 = VERTEX_POINT ( 'NONE', #8 ) ;
#69 = UNCERTAINTY_MEASURE_WITH_UNIT (LENGTH_MEASURE( 1.000000000000000082E-05 ), #130, 'distance_accuracy_value', 'NONE');
#70 = CLOSED_SHELL ( 'NONE', ( #299, #134, #172, #6 ) ) ;
#71 = PRESENTATION_LAYER_ASSIGNMENT (  '', '', ( #174 ) ) ;
#72 = SURFACE_STYLE_USAGE ( .BOTH. , #297 ) ;
#73 = AXIS2_PLACEMENT_3D ( 'NONE', #157, #155, #182 ) ;
#74 =( LENGTH_UNIT ( ) NAMED_UNIT ( * ) SI_UNIT ( $, .METRE. ) );
#75 = APPLICATION_CONTEXT ( 'automotive_design' ) ;
#76 = SURFACE_STYLE_FILL_AREA ( #227 ) ;
#77 = FILL_AREA_STYLE_COLOUR ( '', #56 ) ;
#78 = AXIS2_PLACEMENT_3D ( 'NONE', #209, #305, #158 ) ;
#79 = CARTESIAN_POINT ( 'NONE',  ( 3.061616997868383018E-17, 1.625000000000000000, 0.2500000000000000000 ) ) ;
#80 = ORIENTED_EDGE ( 'NONE', *, *, #110, .F. ) ;
#81 = DIMENSIONAL_EXPONENTS ( 1.000000000000000000, 0.000000000000000000, 0.000000000000000000, 0.000000000000000000, 0.000000000000000000, 0.000000000000000000, 0.000000000000000000 ) ;
#82 = CARTESIAN_POINT ( 'NONE',  ( -0.2500000000000002776, 4.000000000000000000, 0.000000000000000000 ) ) ;
#83 = ORIENTED_EDGE ( 'NONE', *, *, #97, .T. ) ;
#84 = DIRECTION ( 'NONE',  ( -1.000000000000000000, 0.000000000000000000, 0.000000000000000000 ) ) ;
#85 = ORIENTED_EDGE ( 'NONE', *, *, #9, .F. ) ;
#86 = AXIS2_PLACEMENT_3D ( 'NONE', #67, #147, #196 ) ;
#87 = EDGE_CURVE ( 'NONE', #68, #164, #300, .T. ) ;
#88 = DIRECTION ( 'NONE',  ( -0.000000000000000000, -1.000000000000000000, -0.000000000000000000 ) ) ;
#89 = ORIENTED_EDGE ( 'NONE', *, *, #87, .T. ) ;
#90 =( NAMED_UNIT ( * ) PLANE_ANGLE_UNIT ( ) SI_UNIT ( $, .RADIAN. ) );
#91 = VERTEX_POINT ( 'NONE', #51 ) ;
#92 = LENGTH_MEASURE_WITH_UNIT ( LENGTH_MEASURE( 0.02539999999999999897 ), #194 );
#93 = CIRCLE ( 'NONE', #32, 0.2500000000000000000 ) ;
#94 = CARTESIAN_POINT ( 'NONE',  ( -1.224646799147352714E-16, 4.000000000000000000, 0.000000000000000000 ) ) ;
#95 = PLANE ( 'NONE',  #296 ) ;
#96 = FILL_AREA_STYLE ('',( #199 ) ) ;
#97 = EDGE_CURVE ( 'NONE', #236, #192, #154, .T. ) ;
#98 = STYLED_ITEM ( 'NONE', ( #11 ), #136 ) ;
#99 = DIRECTION ( 'NONE',  ( -1.000000000000000000, 0.000000000000000000, 0.000000000000000000 ) ) ;
#100 = EDGE_CURVE ( 'NONE', #192, #68, #298, .T. ) ;
#101 = COLOUR_RGB ( '',1.000000000000000000, 0.000000000000000000, 0.000000000000000000 ) ;
#102 = FACE_OUTER_BOUND ( 'NONE', #53, .T. ) ;
#103 = FILL_AREA_STYLE_COLOUR ( '', #160 ) ;
#104 = DIMENSIONAL_EXPONENTS ( 1.000000000000000000, 0.000000000000000000, 0.000000000000000000, 0.000000000000000000, 0.000000000000000000, 0.000000000000000000, 0.000000000000000000 ) ;
#105 = CIRCLE ( 'NONE', #269, 0.2500000000000001110 ) ;
#106 = LINE ( 'NONE', #189, #143 ) ;
#107 = FILL_AREA_STYLE ('',( #135 ) ) ;
#108 = ORIENTED_EDGE ( 'NONE', *, *, #159, .F. ) ;
#109 = DIRECTION ( 'NONE',  ( -0.000000000000000000, -1.000000000000000000, -0.000000000000000000 ) ) ;
#110 = EDGE_CURVE ( 'NONE', #236, #164, #241, .T. ) ;
#111 =( NAMED_UNIT ( * ) SI_UNIT ( $, .STERADIAN. ) SOLID_ANGLE_UNIT ( ) );
#112 = AXIS2_PLACEMENT_3D ( 'NONE', #290, #118, #28 ) ;
#113 = AXIS2_PLACEMENT_3D ( 'NONE', #119, #30, #48 ) ;
#114 = CYLINDRICAL_SURFACE ( 'NONE', #301, 0.2500000000000000000 ) ;
#115 =( NAMED_UNIT ( * ) SI_UNIT ( $, .STERADIAN. ) SOLID_ANGLE_UNIT ( ) );
#116 = ORIENTED_EDGE ( 'NONE', *, *, #197, .T. ) ;
#117 = DIRECTION ( 'NONE',  ( -1.000000000000000000, 0.000000000000000000, 0.000000000000000000 ) ) ;
#118 = DIRECTION ( 'NONE',  ( -0.000000000000000000, -1.000000000000000000, -0.000000000000000000 ) ) ;
#119 = CARTESIAN_POINT ( 'NONE',  ( 0.000000000000000000, 0.000000000000000000, 0.000000000000000000 ) ) ;
#120 = CARTESIAN_POINT ( 'NONE',  ( -0.2500000000000002220, 4.000000000000000000, 0.000000000000000000 ) ) ;
#121 =( NAMED_UNIT ( * ) PLANE_ANGLE_UNIT ( ) SI_UNIT ( $, .RADIAN. ) );
#122 = PLANE ( 'NONE',  #20 ) ;
#123 = ADVANCED_FACE ( 'NONE', ( #176 ), #122, .T. ) ;
#124 = PRODUCT_CONTEXT ( 'NONE', #202, 'mechanical' ) ;
#125 = CYLINDRICAL_SURFACE ( 'NONE', #112, 0.2500000000000000000 ) ;
#126 = MECHANICAL_DESIGN_GEOMETRIC_PRESENTATION_REPRESENTATION (  '', ( #54 ), #168 ) ;
#127 = SURFACE_STYLE_FILL_AREA ( #293 ) ;
#128 = PRODUCT_DEFINITION_SHAPE ( 'NONE', 'NONE',  #294 ) ;
#129 = SURFACE_STYLE_FILL_AREA ( #33 ) ;
#130 =( CONVERSION_BASED_UNIT ( 'INCH', #246 ) LENGTH_UNIT ( ) NAMED_UNIT ( #81 ) );
#131 = MECHANICAL_DESIGN_GEOMETRIC_PRESENTATION_REPRESENTATION (  '', ( #226 ), #25 ) ;
#132 = PRESENTATION_LAYER_ASSIGNMENT (  '', '', ( #54 ) ) ;
#133 = MANIFOLD_SOLID_BREP ( 'Revolve - Tool Body (Straight Shanked)', #70 ) ;
#134 = ADVANCED_FACE ( 'NONE', ( #102 ), #224, .F. ) ;
#135 = FILL_AREA_STYLE_COLOUR ( '', #38 ) ;
#136 = MANIFOLD_SOLID_BREP ( 'Revolve - Cutting Edge', #250 ) ;
#137 = CIRCLE ( 'NONE', #3, 0.2500000000000000000 ) ;
#138 = CARTESIAN_POINT ( 'NONE',  ( 0.000000000000000000, 0.000000000000000000, 0.000000000000000000 ) ) ;
#139 = EDGE_CURVE ( 'NONE', #164, #68, #105, .T. ) ;
#140 = ORIENTED_EDGE ( 'NONE', *, *, #153, .F. ) ;
#141 = DIRECTION ( 'NONE',  ( 0.000000000000000000, 0.000000000000000000, -1.000000000000000000 ) ) ;
#142 = ORIENTED_EDGE ( 'NONE', *, *, #204, .F. ) ;
#143 = VECTOR ( 'NONE', #190, 39.37007874015748143 ) ;
#144 = DIRECTION ( 'NONE',  ( -5.156407575357275299E-17, 1.000000000000000000, -0.000000000000000000 ) ) ;
#145 = EDGE_LOOP ( 'NONE', ( #238, #59 ) ) ;
#146 =( CONVERSION_BASED_UNIT ( 'INCH', #295 ) LENGTH_UNIT ( ) NAMED_UNIT ( #279 ) );
#147 = DIRECTION ( 'NONE',  ( -5.156407575357275299E-17, 1.000000000000000000, -0.000000000000000000 ) ) ;
#148 = UNCERTAINTY_MEASURE_WITH_UNIT (LENGTH_MEASURE( 1.000000000000000082E-05 ), #248, 'distance_accuracy_value', 'NONE');
#149 = APPLICATION_PROTOCOL_DEFINITION ( 'draft international standard', 'automotive_design', 1998, #202 ) ;
#150 = EDGE_CURVE ( 'NONE', #187, #309, #93, .T. ) ;
#151 = FACE_OUTER_BOUND ( 'NONE', #255, .T. ) ;
#152 = FACE_OUTER_BOUND ( 'NONE', #261, .T. ) ;
#153 = EDGE_CURVE ( 'NONE', #187, #91, #165, .T. ) ;
#154 = CIRCLE ( 'NONE', #86, 0.2500000000000000000 ) ;
#155 = DIRECTION ( 'NONE',  ( -5.156407575357275916E-17, 1.000000000000000000, 0.000000000000000000 ) ) ;
#156 = LENGTH_MEASURE_WITH_UNIT ( LENGTH_MEASURE( 0.02539999999999999897 ), #74 );
#157 = CARTESIAN_POINT ( 'NONE',  ( 3.323567385400236968E-34, 1.625000000000000000, 0.000000000000000000 ) ) ;
#158 = DIRECTION ( 'NONE',  ( -1.000000000000000000, 0.000000000000000000, 0.000000000000000000 ) ) ;
#159 = EDGE_CURVE ( 'NONE', #309, #42, #106, .T. ) ;
#160 = COLOUR_RGB ( '',0.7921568627450980005, 0.8196078431372548767, 0.9333333333333333481 ) ;
#161 = SURFACE_STYLE_FILL_AREA ( #107 ) ;
#162 = ORIENTED_EDGE ( 'NONE', *, *, #153, .T. ) ;
#163 = CARTESIAN_POINT ( 'NONE',  ( 0.2500000000000000555, 1.625000000000000000, 3.061616997868384251E-17 ) ) ;
#164 = VERTEX_POINT ( 'NONE', #82 ) ;
#165 = LINE ( 'NONE', #254, #31 ) ;
#166 = EDGE_CURVE ( 'NONE', #91, #42, #65, .T. ) ;
#167 = ORIENTED_EDGE ( 'NONE', *, *, #166, .F. ) ;
#168 =( GEOMETRIC_REPRESENTATION_CONTEXT ( 3 ) GLOBAL_UNCERTAINTY_ASSIGNED_CONTEXT ( ( #29 ) ) GLOBAL_UNIT_ASSIGNED_CONTEXT ( ( #44, #121, #240 ) ) REPRESENTATION_CONTEXT ( 'NONE', 'WORKASPACE' ) );
#169 = CYLINDRICAL_SURFACE ( 'NONE', #43, 0.2500000000000000555 ) ;
#170 = CARTESIAN_POINT ( 'NONE',  ( 3.032960542342103792E-32, 1.625000000000000000, 0.000000000000000000 ) ) ;
#171 = DIRECTION ( 'NONE',  ( -5.156407575357275299E-17, 1.000000000000000000, -0.000000000000000000 ) ) ;
#172 = ADVANCED_FACE ( 'NONE', ( #229 ), #13, .T. ) ;
#173 = DIRECTION ( 'NONE',  ( -5.156407575357275916E-17, 1.000000000000000000, -0.000000000000000000 ) ) ;
#174 = STYLED_ITEM ( 'NONE', ( #49 ), #27 ) ;
#175 =( LENGTH_UNIT ( ) NAMED_UNIT ( * ) SI_UNIT ( $, .METRE. ) );
#176 = FACE_OUTER_BOUND ( 'NONE', #281, .T. ) ;
#177 = LENGTH_MEASURE_WITH_UNIT ( LENGTH_MEASURE( 0.02539999999999999897 ), #175 );
#178 =( LENGTH_UNIT ( ) NAMED_UNIT ( * ) SI_UNIT ( $, .METRE. ) );
#179 =( NAMED_UNIT ( * ) SI_UNIT ( $, .STERADIAN. ) SOLID_ANGLE_UNIT ( ) );
#180 = AXIS2_PLACEMENT_3D ( 'NONE', #170, #239, #218 ) ;
#181 = AXIS2_PLACEMENT_3D ( 'NONE', #138, #282, #37 ) ;
#182 = DIRECTION ( 'NONE',  ( -1.000000000000000000, -5.156407575357275916E-17, 0.000000000000000000 ) ) ;
#183 = SURFACE_STYLE_USAGE ( .BOTH. , #36 ) ;
#184 = DIMENSIONAL_EXPONENTS ( 1.000000000000000000, 0.000000000000000000, 0.000000000000000000, 0.000000000000000000, 0.000000000000000000, 0.000000000000000000, 0.000000000000000000 ) ;
#185 = PRESENTATION_LAYER_ASSIGNMENT (  '', '', ( #226 ) ) ;
#186 = DIRECTION ( 'NONE',  ( 0.000000000000000000, -1.000000000000000000, -0.000000000000000000 ) ) ;
#187 = VERTEX_POINT ( 'NONE', #79 ) ;
#188 = CIRCLE ( 'NONE', #181, 0.2500000000000000000 ) ;
#189 = CARTESIAN_POINT ( 'NONE',  ( 0.000000000000000000, 0.000000000000000000, -0.2500000000000000000 ) ) ;
#190 = DIRECTION ( 'NONE',  ( -0.000000000000000000, -1.000000000000000000, -0.000000000000000000 ) ) ;
#191 = SURFACE_STYLE_FILL_AREA ( #1 ) ;
#192 = VERTEX_POINT ( 'NONE', #163 ) ;
#193 = UNCERTAINTY_MEASURE_WITH_UNIT (LENGTH_MEASURE( 1.000000000000000082E-05 ), #58, 'distance_accuracy_value', 'NONE');
#194 =( LENGTH_UNIT ( ) NAMED_UNIT ( * ) SI_UNIT ( $, .METRE. ) );
#195 = AXIS2_PLACEMENT_3D ( 'NONE', #232, #40, #235 ) ;
#196 = DIRECTION ( 'NONE',  ( -1.000000000000000000, 0.000000000000000000, 0.000000000000000000 ) ) ;
#197 = EDGE_CURVE ( 'NONE', #309, #187, #137, .T. ) ;
#198 = CARTESIAN_POINT ( 'NONE',  ( -1.224646799147352714E-16, 4.000000000000000000, 0.000000000000000000 ) ) ;
#199 = FILL_AREA_STYLE_COLOUR ( '', #244 ) ;
#200 = SURFACE_STYLE_FILL_AREA ( #96 ) ;
#201 = PRESENTATION_STYLE_ASSIGNMENT (( #183 ) ) ;
#202 = APPLICATION_CONTEXT ( 'automotive_design' ) ;
#203 = DIMENSIONAL_EXPONENTS ( 1.000000000000000000, 0.000000000000000000, 0.000000000000000000, 0.000000000000000000, 0.000000000000000000, 0.000000000000000000, 0.000000000000000000 ) ;
#204 = EDGE_CURVE ( 'NONE', #42, #91, #188, .T. ) ;
#205 =( NAMED_UNIT ( * ) SI_UNIT ( $, .STERADIAN. ) SOLID_ANGLE_UNIT ( ) );
#206 = STYLED_ITEM ( 'NONE', ( #210 ), #247 ) ;
#207 = PRESENTATION_LAYER_ASSIGNMENT (  '', '', ( #289 ) ) ;
#208 = DIMENSIONAL_EXPONENTS ( 1.000000000000000000, 0.000000000000000000, 0.000000000000000000, 0.000000000000000000, 0.000000000000000000, 0.000000000000000000, 0.000000000000000000 ) ;
#209 = CARTESIAN_POINT ( 'NONE',  ( -1.224646799147352714E-16, 4.000000000000000000, 0.000000000000000000 ) ) ;
#210 = PRESENTATION_STYLE_ASSIGNMENT (( #15 ) ) ;
#211 = DIRECTION ( 'NONE',  ( 0.000000000000000000, 0.000000000000000000, -1.000000000000000000 ) ) ;
#212 = ORIENTED_EDGE ( 'NONE', *, *, #139, .T. ) ;
#213 = PRESENTATION_LAYER_ASSIGNMENT (  '', '', ( #206 ) ) ;
#214 = ORIENTED_EDGE ( 'NONE', *, *, #87, .F. ) ;
#215 = FILL_AREA_STYLE_COLOUR ( '', #274 ) ;
#216 = EDGE_LOOP ( 'NONE', ( #116, #162, #142, #108 ) ) ;
#217 = AXIS2_PLACEMENT_3D ( 'NONE', #94, #171, #99 ) ;
#218 = DIRECTION ( 'NONE',  ( -1.000000000000000000, 0.000000000000000000, 0.000000000000000000 ) ) ;
#219 = APPLICATION_PROTOCOL_DEFINITION ( 'draft international standard', 'automotive_design', 1998, #75 ) ;
#220 = UNCERTAINTY_MEASURE_WITH_UNIT (LENGTH_MEASURE( 1.000000000000000082E-05 ), #146, 'distance_accuracy_value', 'NONE');
#221 = SHAPE_DEFINITION_REPRESENTATION ( #128, #252 ) ;
#222 =( NAMED_UNIT ( * ) SI_UNIT ( $, .STERADIAN. ) SOLID_ANGLE_UNIT ( ) );
#223 = UNCERTAINTY_MEASURE_WITH_UNIT (LENGTH_MEASURE( 1.000000000000000082E-05 ), #285, 'distance_accuracy_value', 'NONE');
#224 = PLANE ( 'NONE',  #73 ) ;
#225 = SURFACE_SIDE_STYLE ('',( #129 ) ) ;
#226 = STYLED_ITEM ( 'NONE', ( #201 ), #133 ) ;
#227 = FILL_AREA_STYLE ('',( #103 ) ) ;
#228 = CARTESIAN_POINT ( 'NONE',  ( -1.224646799147352714E-16, 4.000000000000000000, 0.000000000000000000 ) ) ;
#229 = FACE_OUTER_BOUND ( 'NONE', #24, .T. ) ;
#230 = DIMENSIONAL_EXPONENTS ( 1.000000000000000000, 0.000000000000000000, 0.000000000000000000, 0.000000000000000000, 0.000000000000000000, 0.000000000000000000, 0.000000000000000000 ) ;
#231 =( GEOMETRIC_REPRESENTATION_CONTEXT ( 3 ) GLOBAL_UNCERTAINTY_ASSIGNED_CONTEXT ( ( #148 ) ) GLOBAL_UNIT_ASSIGNED_CONTEXT ( ( #248, #302, #249 ) ) REPRESENTATION_CONTEXT ( 'NONE', 'WORKASPACE' ) );
#232 = CARTESIAN_POINT ( 'NONE',  ( 0.000000000000000000, 1.625000000000000000, 0.000000000000000000 ) ) ;
#233 = DIRECTION ( 'NONE',  ( -5.156407575357275299E-17, 1.000000000000000000, -0.000000000000000000 ) ) ;
#234 = ORIENTED_EDGE ( 'NONE', *, *, #150, .T. ) ;
#235 = DIRECTION ( 'NONE',  ( 0.000000000000000000, -0.000000000000000000, 1.000000000000000000 ) ) ;
#236 = VERTEX_POINT ( 'NONE', #286 ) ;
#237 = UNCERTAINTY_MEASURE_WITH_UNIT (LENGTH_MEASURE( 1.000000000000000082E-05 ), #242, 'distance_accuracy_value', 'NONE');
#238 = ORIENTED_EDGE ( 'NONE', *, *, #197, .F. ) ;
#239 = DIRECTION ( 'NONE',  ( -5.156407575357275299E-17, 1.000000000000000000, -0.000000000000000000 ) ) ;
#240 =( NAMED_UNIT ( * ) SI_UNIT ( $, .STERADIAN. ) SOLID_ANGLE_UNIT ( ) );
#241 = LINE ( 'NONE', #120, #50 ) ;
#242 =( CONVERSION_BASED_UNIT ( 'INCH', #92 ) LENGTH_UNIT ( ) NAMED_UNIT ( #184 ) );
#243 = CARTESIAN_POINT ( 'NONE',  ( 0.000000000000000000, 0.000000000000000000, -0.2500000000000000000 ) ) ;
#244 = COLOUR_RGB ( '',1.000000000000000000, 0.000000000000000000, 0.000000000000000000 ) ;
#245 =( GEOMETRIC_REPRESENTATION_CONTEXT ( 3 ) GLOBAL_UNCERTAINTY_ASSIGNED_CONTEXT ( ( #220 ) ) GLOBAL_UNIT_ASSIGNED_CONTEXT ( ( #146, #26, #115 ) ) REPRESENTATION_CONTEXT ( 'NONE', 'WORKASPACE' ) );
#246 = LENGTH_MEASURE_WITH_UNIT ( LENGTH_MEASURE( 0.02539999999999999897 ), #55 );
#247 = ADVANCED_FACE ( 'NONE', ( #18 ), #62, .T. ) ;
#248 =( CONVERSION_BASED_UNIT ( 'INCH', #156 ) LENGTH_UNIT ( ) NAMED_UNIT ( #208 ) );
#249 =( NAMED_UNIT ( * ) SI_UNIT ( $, .STERADIAN. ) SOLID_ANGLE_UNIT ( ) );
#250 = CLOSED_SHELL ( 'NONE', ( #259, #247, #27, #123 ) ) ;
#251 = MECHANICAL_DESIGN_GEOMETRIC_PRESENTATION_REPRESENTATION (  '', ( #174 ), #284 ) ;
#252 = ADVANCED_BREP_SHAPE_REPRESENTATION ( '84311', ( #136, #133, #113 ), #245 ) ;
#253 = CARTESIAN_POINT ( 'NONE',  ( 0.000000000000000000, 0.000000000000000000, 0.000000000000000000 ) ) ;
#254 = CARTESIAN_POINT ( 'NONE',  ( 3.061616997868383018E-17, 0.000000000000000000, 0.2500000000000000000 ) ) ;
#255 = EDGE_LOOP ( 'NONE', ( #212, #89 ) ) ;
#256 = MECHANICAL_DESIGN_GEOMETRIC_PRESENTATION_REPRESENTATION (  '', ( #206 ), #304 ) ;
#257 =( LENGTH_UNIT ( ) NAMED_UNIT ( * ) SI_UNIT ( $, .METRE. ) );
#258 = ORIENTED_EDGE ( 'NONE', *, *, #97, .F. ) ;
#259 = ADVANCED_FACE ( 'NONE', ( #21 ), #114, .T. ) ;
#260 = CARTESIAN_POINT ( 'NONE',  ( 0.000000000000000000, 1.625000000000000000, 0.000000000000000000 ) ) ;
#261 = EDGE_LOOP ( 'NONE', ( #140, #234, #283, #167 ) ) ;
#262 = SURFACE_SIDE_STYLE ('',( #161 ) ) ;
#263 = ORIENTED_EDGE ( 'NONE', *, *, #139, .F. ) ;
#264 = SURFACE_STYLE_USAGE ( .BOTH. , #287 ) ;
#265 = CARTESIAN_POINT ( 'NONE',  ( 0.2500000000000000000, 4.000000000000000000, 0.000000000000000000 ) ) ;
#266 = PRESENTATION_STYLE_ASSIGNMENT (( #264 ) ) ;
#267 = DIRECTION ( 'NONE',  ( 1.000000000000000000, 5.156407575357275916E-17, 0.000000000000000000 ) ) ;
#268 =( LENGTH_UNIT ( ) NAMED_UNIT ( * ) SI_UNIT ( $, .METRE. ) );
#269 = AXIS2_PLACEMENT_3D ( 'NONE', #228, #233, #84 ) ;
#270 = SURFACE_STYLE_USAGE ( .BOTH. , #2 ) ;
#271 = PRESENTATION_STYLE_ASSIGNMENT (( #72 ) ) ;
#272 = FILL_AREA_STYLE_COLOUR ( '', #101 ) ;
#273 =( GEOMETRIC_REPRESENTATION_CONTEXT ( 3 ) GLOBAL_UNCERTAINTY_ASSIGNED_CONTEXT ( ( #193 ) ) GLOBAL_UNIT_ASSIGNED_CONTEXT ( ( #58, #276, #205 ) ) REPRESENTATION_CONTEXT ( 'NONE', 'WORKASPACE' ) );
#274 = COLOUR_RGB ( '',1.000000000000000000, 0.000000000000000000, 0.000000000000000000 ) ;
#275 = SURFACE_STYLE_USAGE ( .BOTH. , #225 ) ;
#276 =( NAMED_UNIT ( * ) PLANE_ANGLE_UNIT ( ) SI_UNIT ( $, .RADIAN. ) );
#277 = PRESENTATION_LAYER_ASSIGNMENT (  '', '', ( #98 ) ) ;
#278 = DIRECTION ( 'NONE',  ( 0.000000000000000000, 0.000000000000000000, -1.000000000000000000 ) ) ;
#279 = DIMENSIONAL_EXPONENTS ( 1.000000000000000000, 0.000000000000000000, 0.000000000000000000, 0.000000000000000000, 0.000000000000000000, 0.000000000000000000, 0.000000000000000000 ) ;
#280 = DIRECTION ( 'NONE',  ( -0.000000000000000000, -1.000000000000000000, -0.000000000000000000 ) ) ;
#281 = EDGE_LOOP ( 'NONE', ( #22, #306 ) ) ;
#282 = DIRECTION ( 'NONE',  ( -0.000000000000000000, -1.000000000000000000, -0.000000000000000000 ) ) ;
#283 = ORIENTED_EDGE ( 'NONE', *, *, #159, .T. ) ;
#284 =( GEOMETRIC_REPRESENTATION_CONTEXT ( 3 ) GLOBAL_UNCERTAINTY_ASSIGNED_CONTEXT ( ( #237 ) ) GLOBAL_UNIT_ASSIGNED_CONTEXT ( ( #242, #47, #222 ) ) REPRESENTATION_CONTEXT ( 'NONE', 'WORKASPACE' ) );
#285 =( CONVERSION_BASED_UNIT ( 'INCH', #307 ) LENGTH_UNIT ( ) NAMED_UNIT ( #203 ) );
#286 = CARTESIAN_POINT ( 'NONE',  ( -0.2500000000000000000, 1.625000000000000000, 0.000000000000000000 ) ) ;
#287 = SURFACE_SIDE_STYLE ('',( #191 ) ) ;
#288 = ORIENTED_EDGE ( 'NONE', *, *, #9, .T. ) ;
#289 = STYLED_ITEM ( 'NONE', ( #271 ), #123 ) ;
#290 = CARTESIAN_POINT ( 'NONE',  ( 0.000000000000000000, 0.000000000000000000, 0.000000000000000000 ) ) ;
#291 = CARTESIAN_POINT ( 'NONE',  ( 0.2499999999999999167, 4.000000000000000000, 3.061616997868383634E-17 ) ) ;
#292 = CARTESIAN_POINT ( 'NONE',  ( 0.000000000000000000, 1.625000000000000000, -0.2500000000000000000 ) ) ;
#293 = FILL_AREA_STYLE ('',( #272 ) ) ;
#294 = PRODUCT_DEFINITION ( 'UNKNOWN', '', #57, #52 ) ;
#295 = LENGTH_MEASURE_WITH_UNIT ( LENGTH_MEASURE( 0.02539999999999999897 ), #268 );
#296 = AXIS2_PLACEMENT_3D ( 'NONE', #265, #4, #267 ) ;
#297 = SURFACE_SIDE_STYLE ('',( #200 ) ) ;
#298 = LINE ( 'NONE', #291, #34 ) ;
#299 = ADVANCED_FACE ( 'NONE', ( #7 ), #169, .T. ) ;
#300 = CIRCLE ( 'NONE', #217, 0.2500000000000001110 ) ;
#301 = AXIS2_PLACEMENT_3D ( 'NONE', #66, #46, #23 ) ;
#302 =( NAMED_UNIT ( * ) PLANE_ANGLE_UNIT ( ) SI_UNIT ( $, .RADIAN. ) );
#303 = CIRCLE ( 'NONE', #180, 0.2500000000000000000 ) ;
#304 =( GEOMETRIC_REPRESENTATION_CONTEXT ( 3 ) GLOBAL_UNCERTAINTY_ASSIGNED_CONTEXT ( ( #223 ) ) GLOBAL_UNIT_ASSIGNED_CONTEXT ( ( #285, #90, #111 ) ) REPRESENTATION_CONTEXT ( 'NONE', 'WORKASPACE' ) );
#305 = DIRECTION ( 'NONE',  ( -5.156407575357275299E-17, 1.000000000000000000, -0.000000000000000000 ) ) ;
#306 = ORIENTED_EDGE ( 'NONE', *, *, #166, .T. ) ;
#307 = LENGTH_MEASURE_WITH_UNIT ( LENGTH_MEASURE( 0.02539999999999999897 ), #257 );
#308 = ORIENTED_EDGE ( 'NONE', *, *, #100, .T. ) ;
#309 = VERTEX_POINT ( 'NONE', #292 ) ;
ENDSEC;
END-ISO-10303-21;
