ISO-10303-21;
HEADER;
FILE_DESCRIPTION (( 'STEP AP214' ),
    '1' );
FILE_NAME ('Micro_SD-187.STEP',
    '2021-09-02T13:23:15',
    ( '' ),
    ( '' ),
    'SwSTEP 2.0',
    'SolidWorks 2020',
    '' );
FILE_SCHEMA (( 'AUTOMOTIVE_DESIGN' ));
ENDSEC;

DATA;
#1 = CARTESIAN_POINT ( 'NONE',  ( 0.09369999999999999163, 1.147494050801070064E-17, 0.05630064000288205472 ) ) ;
#2 = AXIS2_PLACEMENT_3D ( 'NONE', #110, #112, #211 ) ;
#3 = SHAPE_DEFINITION_REPRESENTATION ( #229, #121 ) ;
#4 = ORIENTED_EDGE ( 'NONE', *, *, #221, .T. ) ;
#5 = VERTEX_POINT ( 'NONE', #232 ) ;
#6 = ORIENTED_EDGE ( 'NONE', *, *, #162, .F. ) ;
#7 = DIMENSIONAL_EXPONENTS ( 1.000000000000000000, 0.0000000000000000000, 0.0000000000000000000, 0.0000000000000000000, 0.0000000000000000000, 0.0000000000000000000, 0.0000000000000000000 ) ;
#8 = ORIENTED_EDGE ( 'NONE', *, *, #125, .T. ) ;
#9 = ORIENTED_EDGE ( 'NONE', *, *, #75, .T. ) ;
#10 = CARTESIAN_POINT ( 'NONE',  ( 0.0000000000000000000, 0.0000000000000000000, 0.5999999999999999778 ) ) ;
#11 =( NAMED_UNIT ( * ) SI_UNIT ( $, .STERADIAN. ) SOLID_ANGLE_UNIT ( ) );
#12 = AXIS2_PLACEMENT_3D ( 'NONE', #212, #286, #308 ) ;
#13 = AXIS2_PLACEMENT_3D ( 'NONE', #166, #193, #293 ) ;
#14 = EDGE_CURVE ( 'NONE', #228, #81, #131, .T. ) ;
#15 = CARTESIAN_POINT ( 'NONE',  ( 0.0000000000000000000, 0.0000000000000000000, 0.5999999999999999778 ) ) ;
#16 =( GEOMETRIC_REPRESENTATION_CONTEXT ( 3 ) GLOBAL_UNCERTAINTY_ASSIGNED_CONTEXT ( ( #199 ) ) GLOBAL_UNIT_ASSIGNED_CONTEXT ( ( #285, #62, #67 ) ) REPRESENTATION_CONTEXT ( 'NONE', 'WORKASPACE' ) );
#17 = FACE_OUTER_BOUND ( 'NONE', #123, .T. ) ;
#18 = CARTESIAN_POINT ( 'NONE',  ( 0.0000000000000000000, 0.0000000000000000000, 2.000000000000000000 ) ) ;
#19 = CONICAL_SURFACE ( 'NONE', #240, 0.09370000000000006102, 0.7853981633974447263 ) ;
#20 = CARTESIAN_POINT ( 'NONE',  ( 0.09375000000000001388, 1.148106374200643863E-17, 1.984999999999999654 ) ) ;
#21 = CARTESIAN_POINT ( 'NONE',  ( 0.0000000000000000000, 0.0000000000000000000, 0.6000499999999999723 ) ) ;
#22 = DIRECTION ( 'NONE',  ( -0.7071067811865450192, 8.659560562354902043E-17, 0.7071067811865500152 ) ) ;
#23 = DIRECTION ( 'NONE',  ( 0.0000000000000000000, 0.0000000000000000000, 1.000000000000000000 ) ) ;
#24 = EDGE_CURVE ( 'NONE', #277, #255, #87, .T. ) ;
#25 = DIRECTION ( 'NONE',  ( -0.8571673007021137769, 1.049727191138620298E-16, 0.5150380749100518241 ) ) ;
#26 = CARTESIAN_POINT ( 'NONE',  ( 0.0000000000000000000, 0.0000000000000000000, 0.0000000000000000000 ) ) ;
#27 = AXIS2_PLACEMENT_3D ( 'NONE', #274, #320, #295 ) ;
#28 = ORIENTED_EDGE ( 'NONE', *, *, #63, .T. ) ;
#29 = ORIENTED_EDGE ( 'NONE', *, *, #171, .T. ) ;
#30 = ADVANCED_FACE ( 'NONE', ( #239 ), #250, .T. ) ;
#31 = ORIENTED_EDGE ( 'NONE', *, *, #177, .T. ) ;
#32 = CLOSED_SHELL ( 'NONE', ( #316, #181, #263, #30, #288, #313, #306, #70, #50, #281, #68 ) ) ;
#33 = EDGE_LOOP ( 'NONE', ( #31, #186, #278, #227 ) ) ;
#34 = DIRECTION ( 'NONE',  ( 0.0000000000000000000, 0.0000000000000000000, -1.000000000000000000 ) ) ;
#35 = SURFACE_SIDE_STYLE ('',( #259 ) ) ;
#36 = CIRCLE ( 'NONE', #2, 0.09370000000000006102 ) ;
#37 = CIRCLE ( 'NONE', #319, 0.09375000000000001388 ) ;
#38 = EDGE_CURVE ( 'NONE', #126, #223, #39, .T. ) ;
#39 = LINE ( 'NONE', #314, #201 ) ;
#40 = PLANE ( 'NONE',  #233 ) ;
#41 = VERTEX_POINT ( 'NONE', #234 ) ;
#42 = FILL_AREA_STYLE ('',( #92 ) ) ;
#43 = CARTESIAN_POINT ( 'NONE',  ( 0.0000000000000000000, 0.0000000000000000000, 2.000000000000000000 ) ) ;
#44 =( CONVERSION_BASED_UNIT ( 'INCH', #141 ) LENGTH_UNIT ( ) NAMED_UNIT ( #272 ) );
#45 = DIRECTION ( 'NONE',  ( 0.0000000000000000000, 0.0000000000000000000, 1.000000000000000000 ) ) ;
#46 = LENGTH_MEASURE_WITH_UNIT ( LENGTH_MEASURE( 0.02539999999999999897 ), #297 );
#47 = AXIS2_PLACEMENT_3D ( 'NONE', #265, #191, #262 ) ;
#48 = LINE ( 'NONE', #148, #209 ) ;
#49 = ORIENTED_EDGE ( 'NONE', *, *, #111, .T. ) ;
#50 = ADVANCED_FACE ( 'NONE', ( #17 ), #19, .T. ) ;
#51 = CONICAL_SURFACE ( 'NONE', #97, 0.07874999999999980627, 0.7853981633974466137 ) ;
#52 = VECTOR ( 'NONE', #25, 39.37007874015748854 ) ;
#53 = ORIENTED_EDGE ( 'NONE', *, *, #24, .F. ) ;
#54 = ORIENTED_EDGE ( 'NONE', *, *, #38, .F. ) ;
#55 = EDGE_CURVE ( 'NONE', #208, #160, #142, .T. ) ;
#56 = STYLED_ITEM ( 'NONE', ( #290 ), #121 ) ;
#57 = ORIENTED_EDGE ( 'NONE', *, *, #171, .F. ) ;
#58 = AXIS2_PLACEMENT_3D ( 'NONE', #260, #214, #138 ) ;
#59 = CARTESIAN_POINT ( 'NONE',  ( 0.0000000000000000000, 0.0000000000000000000, 1.984999999999999654 ) ) ;
#60 = FACE_OUTER_BOUND ( 'NONE', #33, .T. ) ;
#61 = CARTESIAN_POINT ( 'NONE',  ( 0.07874999999999980627, 9.644093543285380530E-18, 2.000000000000000000 ) ) ;
#62 =( NAMED_UNIT ( * ) PLANE_ANGLE_UNIT ( ) SI_UNIT ( $, .RADIAN. ) );
#63 = EDGE_CURVE ( 'NONE', #160, #208, #36, .T. ) ;
#64 = ORIENTED_EDGE ( 'NONE', *, *, #125, .F. ) ;
#65 = DIRECTION ( 'NONE',  ( 1.000000000000000000, 0.0000000000000000000, 0.0000000000000000000 ) ) ;
#66 = EDGE_LOOP ( 'NONE', ( #57, #225, #8 ) ) ;
#67 =( NAMED_UNIT ( * ) SI_UNIT ( $, .STERADIAN. ) SOLID_ANGLE_UNIT ( ) );
#68 = ADVANCED_FACE ( 'NONE', ( #86 ), #304, .T. ) ;
#69 = ORIENTED_EDGE ( 'NONE', *, *, #24, .T. ) ;
#70 = ADVANCED_FACE ( 'NONE', ( #90 ), #51, .T. ) ;
#71 = CARTESIAN_POINT ( 'NONE',  ( -0.09375000000000001388, 0.0000000000000000000, 1.984999999999999654 ) ) ;
#72 = CIRCLE ( 'NONE', #196, 0.07874999999999980627 ) ;
#73 = LINE ( 'NONE', #169, #133 ) ;
#74 = CARTESIAN_POINT ( 'NONE',  ( 0.0000000000000000000, 0.0000000000000000000, 0.6000499999999999723 ) ) ;
#75 = EDGE_CURVE ( 'NONE', #208, #163, #291, .T. ) ;
#76 = CARTESIAN_POINT ( 'NONE',  ( -0.09369999999999999163, 0.0000000000000000000, 0.05630064000288205472 ) ) ;
#77 = DIRECTION ( 'NONE',  ( 1.000000000000000000, 0.0000000000000000000, 0.0000000000000000000 ) ) ;
#78 = DIRECTION ( 'NONE',  ( -0.0000000000000000000, -0.0000000000000000000, -1.000000000000000000 ) ) ;
#79 = PRODUCT_DEFINITION_CONTEXT ( 'detailed design', #261, 'design' ) ;
#80 = ORIENTED_EDGE ( 'NONE', *, *, #282, .T. ) ;
#81 = VERTEX_POINT ( 'NONE', #20 ) ;
#82 = VECTOR ( 'NONE', #140, 39.37007874015748143 ) ;
#83 = COLOUR_RGB ( '',0.7921568627450980005, 0.8196078431372548767, 0.9333333333333333481 ) ;
#84 = ORIENTED_EDGE ( 'NONE', *, *, #244, .F. ) ;
#85 = ORIENTED_EDGE ( 'NONE', *, *, #217, .T. ) ;
#86 = FACE_OUTER_BOUND ( 'NONE', #175, .T. ) ;
#87 = CIRCLE ( 'NONE', #58, 0.09369999999999999163 ) ;
#88 = AXIS2_PLACEMENT_3D ( 'NONE', #158, #258, #198 ) ;
#89 = DIRECTION ( 'NONE',  ( 0.0000000000000000000, 0.0000000000000000000, -1.000000000000000000 ) ) ;
#90 = FACE_OUTER_BOUND ( 'NONE', #252, .T. ) ;
#91 = DIRECTION ( 'NONE',  ( -1.000000000000000000, 0.0000000000000000000, 0.0000000000000000000 ) ) ;
#92 = FILL_AREA_STYLE_COLOUR ( '', #139 ) ;
#93 = EDGE_CURVE ( 'NONE', #81, #223, #167, .T. ) ;
#94 = DIRECTION ( 'NONE',  ( -0.0000000000000000000, -0.0000000000000000000, -1.000000000000000000 ) ) ;
#95 = CARTESIAN_POINT ( 'NONE',  ( 0.0000000000000000000, 0.0000000000000000000, 0.0000000000000000000 ) ) ;
#96 = CARTESIAN_POINT ( 'NONE',  ( -0.09370000000000006102, 1.147494050801070681E-17, 0.5999999999999999778 ) ) ;
#97 = AXIS2_PLACEMENT_3D ( 'NONE', #43, #89, #91 ) ;
#98 = AXIS2_PLACEMENT_3D ( 'NONE', #184, #157, #284 ) ;
#99 = SURFACE_STYLE_FILL_AREA ( #144 ) ;
#100 = SURFACE_SIDE_STYLE ('',( #99 ) ) ;
#101 = CARTESIAN_POINT ( 'NONE',  ( -0.07874999999999980627, 0.0000000000000000000, 2.000000000000000000 ) ) ;
#102 = DIRECTION ( 'NONE',  ( -0.0000000000000000000, -0.0000000000000000000, -1.000000000000000000 ) ) ;
#103 = ORIENTED_EDGE ( 'NONE', *, *, #116, .T. ) ;
#104 = ORIENTED_EDGE ( 'NONE', *, *, #93, .T. ) ;
#105 = ORIENTED_EDGE ( 'NONE', *, *, #146, .F. ) ;
#106 = ORIENTED_EDGE ( 'NONE', *, *, #14, .T. ) ;
#107 = AXIS2_PLACEMENT_3D ( 'NONE', #190, #129, #267 ) ;
#108 = STYLED_ITEM ( 'NONE', ( #197 ), #275 ) ;
#109 = ORIENTED_EDGE ( 'NONE', *, *, #75, .F. ) ;
#110 = CARTESIAN_POINT ( 'NONE',  ( 0.0000000000000000000, 0.0000000000000000000, 0.5999999999999999778 ) ) ;
#111 = EDGE_CURVE ( 'NONE', #160, #255, #283, .T. ) ;
#112 = DIRECTION ( 'NONE',  ( -0.0000000000000000000, -0.0000000000000000000, -1.000000000000000000 ) ) ;
#113 =( LENGTH_UNIT ( ) NAMED_UNIT ( * ) SI_UNIT ( $, .METRE. ) );
#114 = CARTESIAN_POINT ( 'NONE',  ( -0.09370000000000003326, 0.0000000000000000000, 0.0000000000000000000 ) ) ;
#115 = DIRECTION ( 'NONE',  ( 1.000000000000000000, 0.0000000000000000000, 0.0000000000000000000 ) ) ;
#116 = EDGE_CURVE ( 'NONE', #126, #228, #117, .T. ) ;
#117 = CIRCLE ( 'NONE', #98, 0.07874999999999980627 ) ;
#118 = DIRECTION ( 'NONE',  ( 1.000000000000000000, 0.0000000000000000000, 0.0000000000000000000 ) ) ;
#119 =( NAMED_UNIT ( * ) SI_UNIT ( $, .STERADIAN. ) SOLID_ANGLE_UNIT ( ) );
#120 = DIMENSIONAL_EXPONENTS ( 1.000000000000000000, 0.0000000000000000000, 0.0000000000000000000, 0.0000000000000000000, 0.0000000000000000000, 0.0000000000000000000, 0.0000000000000000000 ) ;
#121 = ADVANCED_BREP_SHAPE_REPRESENTATION ( 'Micro_SD-187', ( #275, #311 ), #16 ) ;
#122 = VECTOR ( 'NONE', #22, 39.37007874015748143 ) ;
#123 = EDGE_LOOP ( 'NONE', ( #226, #289, #9, #205 ) ) ;
#124 = MECHANICAL_DESIGN_GEOMETRIC_PRESENTATION_REPRESENTATION (  '', ( #56 ), #271 ) ;
#125 = EDGE_CURVE ( 'NONE', #255, #277, #151, .T. ) ;
#126 = VERTEX_POINT ( 'NONE', #101 ) ;
#127 = ORIENTED_EDGE ( 'NONE', *, *, #111, .F. ) ;
#128 = ORIENTED_EDGE ( 'NONE', *, *, #230, .F. ) ;
#129 = DIRECTION ( 'NONE',  ( 0.0000000000000000000, 0.0000000000000000000, -1.000000000000000000 ) ) ;
#130 = SURFACE_STYLE_USAGE ( .BOTH. , #35 ) ;
#131 = LINE ( 'NONE', #61, #215 ) ;
#132 = AXIS2_PLACEMENT_3D ( 'NONE', #59, #34, #183 ) ;
#133 = VECTOR ( 'NONE', #270, 39.37007874015748143 ) ;
#134 = CYLINDRICAL_SURFACE ( 'NONE', #47, 0.09375000000000001388 ) ;
#135 = ORIENTED_EDGE ( 'NONE', *, *, #116, .F. ) ;
#136 =( LENGTH_UNIT ( ) NAMED_UNIT ( * ) SI_UNIT ( $, .METRE. ) );
#137 = PRODUCT_RELATED_PRODUCT_CATEGORY ( 'part', '', ( #154 ) ) ;
#138 = DIRECTION ( 'NONE',  ( -1.000000000000000000, 0.0000000000000000000, 0.0000000000000000000 ) ) ;
#139 = COLOUR_RGB ( '',0.7921568627450980005, 0.8196078431372548767, 0.9333333333333333481 ) ;
#140 = DIRECTION ( 'NONE',  ( 0.7071067811865450192, 0.0000000000000000000, 0.7071067811865500152 ) ) ;
#141 = LENGTH_MEASURE_WITH_UNIT ( LENGTH_MEASURE( 0.02539999999999999897 ), #113 );
#142 = CIRCLE ( 'NONE', #155, 0.09370000000000006102 ) ;
#143 = CARTESIAN_POINT ( 'NONE',  ( 0.07874999999999980627, 1.056257864264590573E-17, 2.000000000000000000 ) ) ;
#144 = FILL_AREA_STYLE ('',( #317 ) ) ;
#145 = PRODUCT_DEFINITION_FORMATION_WITH_SPECIFIED_SOURCE ( 'ANY', '', #154, .NOT_KNOWN. ) ;
#146 = EDGE_CURVE ( 'NONE', #228, #126, #72, .T. ) ;
#147 = LINE ( 'NONE', #95, #231 ) ;
#148 = CARTESIAN_POINT ( 'NONE',  ( 0.09375000000000001388, 1.148106374200643863E-17, 2.000000000000000000 ) ) ;
#149 = CARTESIAN_POINT ( 'NONE',  ( 0.09370000000000003326, 1.147494050801070372E-17, 0.0000000000000000000 ) ) ;
#150 = EDGE_LOOP ( 'NONE', ( #254, #153, #49, #53 ) ) ;
#151 = CIRCLE ( 'NONE', #88, 0.09369999999999999163 ) ;
#152 = APPLICATION_PROTOCOL_DEFINITION ( 'draft international standard', 'automotive_design', 1998, #261 ) ;
#153 = ORIENTED_EDGE ( 'NONE', *, *, #55, .T. ) ;
#154 = PRODUCT ( 'Micro_SD-187', 'Micro_SD-187', '', ( #204 ) ) ;
#155 = AXIS2_PLACEMENT_3D ( 'NONE', #15, #94, #307 ) ;
#156 = ORIENTED_EDGE ( 'NONE', *, *, #93, .F. ) ;
#157 = DIRECTION ( 'NONE',  ( 0.0000000000000000000, 0.0000000000000000000, 1.000000000000000000 ) ) ;
#158 = CARTESIAN_POINT ( 'NONE',  ( 0.0000000000000000000, 0.0000000000000000000, 0.05630064000288205472 ) ) ;
#159 = CYLINDRICAL_SURFACE ( 'NONE', #192, 0.09375000000000001388 ) ;
#160 = VERTEX_POINT ( 'NONE', #200 ) ;
#161 = CARTESIAN_POINT ( 'NONE',  ( 0.0000000000000000000, 0.0000000000000000000, 2.000000000000000000 ) ) ;
#162 = EDGE_CURVE ( 'NONE', #163, #5, #251, .T. ) ;
#163 = VERTEX_POINT ( 'NONE', #219 ) ;
#164 = CARTESIAN_POINT ( 'NONE',  ( 0.0000000000000000000, 0.0000000000000000000, 39.37007874015748143 ) ) ;
#165 = CARTESIAN_POINT ( 'NONE',  ( 0.09370000000000006102, 0.0000000000000000000, 0.5999999999999999778 ) ) ;
#166 = CARTESIAN_POINT ( 'NONE',  ( 0.0000000000000000000, 0.0000000000000000000, 1.984999999999999654 ) ) ;
#167 = CIRCLE ( 'NONE', #132, 0.09375000000000001388 ) ;
#168 = PRESENTATION_LAYER_ASSIGNMENT (  '', '', ( #108 ) ) ;
#169 = CARTESIAN_POINT ( 'NONE',  ( -0.09375000000000001388, 0.0000000000000000000, 2.000000000000000000 ) ) ;
#170 = SURFACE_STYLE_USAGE ( .BOTH. , #100 ) ;
#171 = EDGE_CURVE ( 'NONE', #41, #277, #147, .T. ) ;
#172 = CARTESIAN_POINT ( 'NONE',  ( 0.09370000000000006102, 0.0000000000000000000, 0.5999999999999999778 ) ) ;
#173 = AXIS2_PLACEMENT_3D ( 'NONE', #164, #185, #65 ) ;
#174 = DIRECTION ( 'NONE',  ( -1.000000000000000000, 0.0000000000000000000, 0.0000000000000000000 ) ) ;
#175 = EDGE_LOOP ( 'NONE', ( #84, #29, #69 ) ) ;
#176 = ORIENTED_EDGE ( 'NONE', *, *, #14, .F. ) ;
#177 = EDGE_CURVE ( 'NONE', #223, #81, #279, .T. ) ;
#178 = VECTOR ( 'NONE', #302, 39.37007874015748143 ) ;
#179 = CONICAL_SURFACE ( 'NONE', #296, 0.09370000000000006102, 0.7853981633974447263 ) ;
#180 = EDGE_LOOP ( 'NONE', ( #103, #253 ) ) ;
#181 = ADVANCED_FACE ( 'NONE', ( #245 ), #216, .T. ) ;
#182 = ORIENTED_EDGE ( 'NONE', *, *, #177, .F. ) ;
#183 = DIRECTION ( 'NONE',  ( 1.000000000000000000, 0.0000000000000000000, 0.0000000000000000000 ) ) ;
#184 = CARTESIAN_POINT ( 'NONE',  ( 0.0000000000000000000, 0.0000000000000000000, 2.000000000000000000 ) ) ;
#185 = DIRECTION ( 'NONE',  ( 0.0000000000000000000, 0.0000000000000000000, 1.000000000000000000 ) ) ;
#186 = ORIENTED_EDGE ( 'NONE', *, *, #230, .T. ) ;
#187 = DIRECTION ( 'NONE',  ( -0.0000000000000000000, -0.0000000000000000000, -1.000000000000000000 ) ) ;
#188 = DIRECTION ( 'NONE',  ( 0.7071067811865463515, 8.659560562354916834E-17, -0.7071067811865486830 ) ) ;
#189 = FACE_OUTER_BOUND ( 'NONE', #66, .T. ) ;
#190 = CARTESIAN_POINT ( 'NONE',  ( 0.0000000000000000000, 0.0000000000000000000, 2.000000000000000000 ) ) ;
#191 = DIRECTION ( 'NONE',  ( -0.0000000000000000000, -0.0000000000000000000, -1.000000000000000000 ) ) ;
#192 = AXIS2_PLACEMENT_3D ( 'NONE', #161, #187, #287 ) ;
#193 = DIRECTION ( 'NONE',  ( 0.0000000000000000000, 0.0000000000000000000, -1.000000000000000000 ) ) ;
#194 = LINE ( 'NONE', #243, #52 ) ;
#195 = UNCERTAINTY_MEASURE_WITH_UNIT (LENGTH_MEASURE( 1.000000000000000082E-05 ), #273, 'distance_accuracy_value', 'NONE');
#196 = AXIS2_PLACEMENT_3D ( 'NONE', #322, #45, #118 ) ;
#197 = PRESENTATION_STYLE_ASSIGNMENT (( #170 ) ) ;
#198 = DIRECTION ( 'NONE',  ( -1.000000000000000000, 0.0000000000000000000, 0.0000000000000000000 ) ) ;
#199 = UNCERTAINTY_MEASURE_WITH_UNIT (LENGTH_MEASURE( 1.000000000000000082E-05 ), #285, 'distance_accuracy_value', 'NONE');
#200 = CARTESIAN_POINT ( 'NONE',  ( -0.09370000000000006102, 1.147800212500857426E-17, 0.5999999999999999778 ) ) ;
#201 = VECTOR ( 'NONE', #237, 39.37007874015748143 ) ;
#202 = FACE_OUTER_BOUND ( 'NONE', #150, .T. ) ;
#203 = UNCERTAINTY_MEASURE_WITH_UNIT (LENGTH_MEASURE( 1.000000000000000082E-05 ), #44, 'distance_accuracy_value', 'NONE');
#204 = PRODUCT_CONTEXT ( 'NONE', #224, 'mechanical' ) ;
#205 = ORIENTED_EDGE ( 'NONE', *, *, #162, .T. ) ;
#206 = MECHANICAL_DESIGN_GEOMETRIC_PRESENTATION_REPRESENTATION (  '', ( #108 ), #236 ) ;
#207 = EDGE_LOOP ( 'NONE', ( #28, #80, #64, #127 ) ) ;
#208 = VERTEX_POINT ( 'NONE', #172 ) ;
#209 = VECTOR ( 'NONE', #247, 39.37007874015748143 ) ;
#210 = DIRECTION ( 'NONE',  ( 0.0000000000000000000, 0.0000000000000000000, 1.000000000000000000 ) ) ;
#211 = DIRECTION ( 'NONE',  ( -1.000000000000000000, 0.0000000000000000000, 0.0000000000000000000 ) ) ;
#212 = CARTESIAN_POINT ( 'NONE',  ( 0.0000000000000000000, 0.0000000000000000000, 39.37007874015748143 ) ) ;
#213 = APPLICATION_PROTOCOL_DEFINITION ( 'draft international standard', 'automotive_design', 1998, #224 ) ;
#214 = DIRECTION ( 'NONE',  ( -0.0000000000000000000, -0.0000000000000000000, -1.000000000000000000 ) ) ;
#215 = VECTOR ( 'NONE', #188, 39.37007874015748143 ) ;
#216 = CYLINDRICAL_SURFACE ( 'NONE', #27, 0.09370000000000003326 ) ;
#217 = EDGE_CURVE ( 'NONE', #5, #163, #37, .T. ) ;
#218 = CYLINDRICAL_SURFACE ( 'NONE', #321, 0.09370000000000003326 ) ;
#219 = CARTESIAN_POINT ( 'NONE',  ( 0.09375000000000001388, 1.148106374200643863E-17, 0.6000499999999999723 ) ) ;
#220 = DIRECTION ( 'NONE',  ( 0.8571673007021137769, 0.0000000000000000000, 0.5150380749100518241 ) ) ;
#221 = EDGE_CURVE ( 'NONE', #223, #5, #73, .T. ) ;
#222 = PRODUCT_DEFINITION ( 'UNKNOWN', '', #145, #79 ) ;
#223 = VERTEX_POINT ( 'NONE', #71 ) ;
#224 = APPLICATION_CONTEXT ( 'automotive_design' ) ;
#225 = ORIENTED_EDGE ( 'NONE', *, *, #244, .T. ) ;
#226 = ORIENTED_EDGE ( 'NONE', *, *, #257, .F. ) ;
#227 = ORIENTED_EDGE ( 'NONE', *, *, #221, .F. ) ;
#228 = VERTEX_POINT ( 'NONE', #143 ) ;
#229 = PRODUCT_DEFINITION_SHAPE ( 'NONE', 'NONE',  #222 ) ;
#230 = EDGE_CURVE ( 'NONE', #81, #163, #48, .T. ) ;
#231 = VECTOR ( 'NONE', #220, 39.37007874015748854 ) ;
#232 = CARTESIAN_POINT ( 'NONE',  ( -0.09375000000000001388, 0.0000000000000000000, 0.6000499999999999723 ) ) ;
#233 = AXIS2_PLACEMENT_3D ( 'NONE', #18, #235, #292 ) ;
#234 = CARTESIAN_POINT ( 'NONE',  ( 0.0000000000000000000, 0.0000000000000000000, 0.0000000000000000000 ) ) ;
#235 = DIRECTION ( 'NONE',  ( 0.0000000000000000000, 0.0000000000000000000, 1.000000000000000000 ) ) ;
#236 =( GEOMETRIC_REPRESENTATION_CONTEXT ( 3 ) GLOBAL_UNCERTAINTY_ASSIGNED_CONTEXT ( ( #195 ) ) GLOBAL_UNIT_ASSIGNED_CONTEXT ( ( #273, #318, #119 ) ) REPRESENTATION_CONTEXT ( 'NONE', 'WORKASPACE' ) );
#237 = DIRECTION ( 'NONE',  ( -0.7071067811865463515, 0.0000000000000000000, -0.7071067811865486830 ) ) ;
#238 = FACE_OUTER_BOUND ( 'NONE', #180, .T. ) ;
#239 = FACE_OUTER_BOUND ( 'NONE', #300, .T. ) ;
#240 = AXIS2_PLACEMENT_3D ( 'NONE', #10, #210, #312 ) ;
#241 =( NAMED_UNIT ( * ) PLANE_ANGLE_UNIT ( ) SI_UNIT ( $, .RADIAN. ) );
#242 = DIRECTION ( 'NONE',  ( 1.000000000000000000, 0.0000000000000000000, 0.0000000000000000000 ) ) ;
#243 = CARTESIAN_POINT ( 'NONE',  ( 0.0000000000000000000, 0.0000000000000000000, 0.0000000000000000000 ) ) ;
#244 = EDGE_CURVE ( 'NONE', #41, #255, #194, .T. ) ;
#245 = FACE_OUTER_BOUND ( 'NONE', #207, .T. ) ;
#246 = CARTESIAN_POINT ( 'NONE',  ( 0.0000000000000000000, 0.0000000000000000000, 0.5999999999999999778 ) ) ;
#247 = DIRECTION ( 'NONE',  ( -0.0000000000000000000, -0.0000000000000000000, -1.000000000000000000 ) ) ;
#248 = CARTESIAN_POINT ( 'NONE',  ( 0.0000000000000000000, 0.0000000000000000000, 0.0000000000000000000 ) ) ;
#249 = EDGE_LOOP ( 'NONE', ( #256, #280, #85, #109 ) ) ;
#250 = CONICAL_SURFACE ( 'NONE', #107, 0.07874999999999980627, 0.7853981633974466137 ) ;
#251 = CIRCLE ( 'NONE', #305, 0.09375000000000001388 ) ;
#252 = EDGE_LOOP ( 'NONE', ( #176, #135, #264, #156 ) ) ;
#253 = ORIENTED_EDGE ( 'NONE', *, *, #146, .T. ) ;
#254 = ORIENTED_EDGE ( 'NONE', *, *, #282, .F. ) ;
#255 = VERTEX_POINT ( 'NONE', #76 ) ;
#256 = ORIENTED_EDGE ( 'NONE', *, *, #63, .F. ) ;
#257 = EDGE_CURVE ( 'NONE', #160, #5, #268, .T. ) ;
#258 = DIRECTION ( 'NONE',  ( -0.0000000000000000000, -0.0000000000000000000, -1.000000000000000000 ) ) ;
#259 = SURFACE_STYLE_FILL_AREA ( #42 ) ;
#260 = CARTESIAN_POINT ( 'NONE',  ( 0.0000000000000000000, 0.0000000000000000000, 0.05630064000288205472 ) ) ;
#261 = APPLICATION_CONTEXT ( 'automotive_design' ) ;
#262 = DIRECTION ( 'NONE',  ( -1.000000000000000000, 0.0000000000000000000, 0.0000000000000000000 ) ) ;
#263 = ADVANCED_FACE ( 'NONE', ( #315 ), #179, .T. ) ;
#264 = ORIENTED_EDGE ( 'NONE', *, *, #38, .T. ) ;
#265 = CARTESIAN_POINT ( 'NONE',  ( 0.0000000000000000000, 0.0000000000000000000, 2.000000000000000000 ) ) ;
#266 = CONICAL_SURFACE ( 'NONE', #173, 65.52281426576882950, 1.029744258676657198 ) ;
#267 = DIRECTION ( 'NONE',  ( -1.000000000000000000, 0.0000000000000000000, 0.0000000000000000000 ) ) ;
#268 = LINE ( 'NONE', #96, #122 ) ;
#269 = DIRECTION ( 'NONE',  ( 1.000000000000000000, 0.0000000000000000000, 0.0000000000000000000 ) ) ;
#270 = DIRECTION ( 'NONE',  ( -0.0000000000000000000, -0.0000000000000000000, -1.000000000000000000 ) ) ;
#271 =( GEOMETRIC_REPRESENTATION_CONTEXT ( 3 ) GLOBAL_UNCERTAINTY_ASSIGNED_CONTEXT ( ( #203 ) ) GLOBAL_UNIT_ASSIGNED_CONTEXT ( ( #44, #241, #11 ) ) REPRESENTATION_CONTEXT ( 'NONE', 'WORKASPACE' ) );
#272 = DIMENSIONAL_EXPONENTS ( 1.000000000000000000, 0.0000000000000000000, 0.0000000000000000000, 0.0000000000000000000, 0.0000000000000000000, 0.0000000000000000000, 0.0000000000000000000 ) ;
#273 =( CONVERSION_BASED_UNIT ( 'INCH', #46 ) LENGTH_UNIT ( ) NAMED_UNIT ( #120 ) );
#274 = CARTESIAN_POINT ( 'NONE',  ( 0.0000000000000000000, 0.0000000000000000000, 0.0000000000000000000 ) ) ;
#275 = MANIFOLD_SOLID_BREP ( 'Cut-Revolve2', #32 ) ;
#276 = LINE ( 'NONE', #149, #310 ) ;
#277 = VERTEX_POINT ( 'NONE', #1 ) ;
#278 = ORIENTED_EDGE ( 'NONE', *, *, #217, .F. ) ;
#279 = CIRCLE ( 'NONE', #13, 0.09375000000000001388 ) ;
#280 = ORIENTED_EDGE ( 'NONE', *, *, #257, .T. ) ;
#281 = ADVANCED_FACE ( 'NONE', ( #202 ), #218, .T. ) ;
#282 = EDGE_CURVE ( 'NONE', #208, #277, #276, .T. ) ;
#283 = LINE ( 'NONE', #114, #178 ) ;
#284 = DIRECTION ( 'NONE',  ( 1.000000000000000000, 0.0000000000000000000, 0.0000000000000000000 ) ) ;
#285 =( CONVERSION_BASED_UNIT ( 'INCH', #309 ) LENGTH_UNIT ( ) NAMED_UNIT ( #7 ) );
#286 = DIRECTION ( 'NONE',  ( 0.0000000000000000000, 0.0000000000000000000, 1.000000000000000000 ) ) ;
#287 = DIRECTION ( 'NONE',  ( -1.000000000000000000, 0.0000000000000000000, 0.0000000000000000000 ) ) ;
#288 = ADVANCED_FACE ( 'NONE', ( #60 ), #134, .T. ) ;
#289 = ORIENTED_EDGE ( 'NONE', *, *, #55, .F. ) ;
#290 = PRESENTATION_STYLE_ASSIGNMENT (( #130 ) ) ;
#291 = LINE ( 'NONE', #165, #82 ) ;
#292 = DIRECTION ( 'NONE',  ( 1.000000000000000000, 0.0000000000000000000, -0.0000000000000000000 ) ) ;
#293 = DIRECTION ( 'NONE',  ( 1.000000000000000000, 0.0000000000000000000, 0.0000000000000000000 ) ) ;
#294 = DIRECTION ( 'NONE',  ( 0.0000000000000000000, 0.0000000000000000000, 1.000000000000000000 ) ) ;
#295 = DIRECTION ( 'NONE',  ( -1.000000000000000000, 0.0000000000000000000, 0.0000000000000000000 ) ) ;
#296 = AXIS2_PLACEMENT_3D ( 'NONE', #246, #23, #242 ) ;
#297 =( LENGTH_UNIT ( ) NAMED_UNIT ( * ) SI_UNIT ( $, .METRE. ) );
#298 = DIRECTION ( 'NONE',  ( -0.0000000000000000000, -0.0000000000000000000, -1.000000000000000000 ) ) ;
#299 = DIRECTION ( 'NONE',  ( -0.0000000000000000000, -0.0000000000000000000, -1.000000000000000000 ) ) ;
#300 = EDGE_LOOP ( 'NONE', ( #105, #106, #182, #54 ) ) ;
#301 = EDGE_LOOP ( 'NONE', ( #128, #104, #4, #6 ) ) ;
#302 = DIRECTION ( 'NONE',  ( -0.0000000000000000000, -0.0000000000000000000, -1.000000000000000000 ) ) ;
#303 = FACE_OUTER_BOUND ( 'NONE', #301, .T. ) ;
#304 = CONICAL_SURFACE ( 'NONE', #12, 65.52281426576882950, 1.029744258676657198 ) ;
#305 = AXIS2_PLACEMENT_3D ( 'NONE', #21, #299, #77 ) ;
#306 = ADVANCED_FACE ( 'NONE', ( #238 ), #40, .T. ) ;
#307 = DIRECTION ( 'NONE',  ( -1.000000000000000000, 0.0000000000000000000, 0.0000000000000000000 ) ) ;
#308 = DIRECTION ( 'NONE',  ( 1.000000000000000000, 0.0000000000000000000, 0.0000000000000000000 ) ) ;
#309 = LENGTH_MEASURE_WITH_UNIT ( LENGTH_MEASURE( 0.02539999999999999897 ), #136 );
#310 = VECTOR ( 'NONE', #102, 39.37007874015748143 ) ;
#311 = AXIS2_PLACEMENT_3D ( 'NONE', #26, #294, #269 ) ;
#312 = DIRECTION ( 'NONE',  ( 1.000000000000000000, 0.0000000000000000000, 0.0000000000000000000 ) ) ;
#313 = ADVANCED_FACE ( 'NONE', ( #303 ), #159, .T. ) ;
#314 = CARTESIAN_POINT ( 'NONE',  ( -0.07874999999999980627, 0.0000000000000000000, 2.000000000000000000 ) ) ;
#315 = FACE_OUTER_BOUND ( 'NONE', #249, .T. ) ;
#316 = ADVANCED_FACE ( 'NONE', ( #189 ), #266, .T. ) ;
#317 = FILL_AREA_STYLE_COLOUR ( '', #83 ) ;
#318 =( NAMED_UNIT ( * ) PLANE_ANGLE_UNIT ( ) SI_UNIT ( $, .RADIAN. ) );
#319 = AXIS2_PLACEMENT_3D ( 'NONE', #74, #298, #115 ) ;
#320 = DIRECTION ( 'NONE',  ( -0.0000000000000000000, -0.0000000000000000000, -1.000000000000000000 ) ) ;
#321 = AXIS2_PLACEMENT_3D ( 'NONE', #248, #78, #174 ) ;
#322 = CARTESIAN_POINT ( 'NONE',  ( 0.0000000000000000000, 0.0000000000000000000, 2.000000000000000000 ) ) ;
#323 = PRESENTATION_LAYER_ASSIGNMENT (  '', '', ( #56 ) ) ;
ENDSEC;
END-ISO-10303-21;
