ISO-10303-21;
HEADER;
FILE_DESCRIPTION (( 'STEP AP214' ),
    '1' );
FILE_NAME ('Micro_GEMM-030-4X.STEP',
    '2021-09-01T21:29:54',
    ( '' ),
    ( '' ),
    'SwSTEP 2.0',
    'SolidWorks 2020',
    '' );
FILE_SCHEMA (( 'AUTOMOTIVE_DESIGN' ));
ENDSEC;

DATA;
#1 = LINE ( 'NONE', #114, #106 ) ;
#2 = ADVANCED_BREP_SHAPE_REPRESENTATION ( 'Micro_GEMM-030-4X', ( #110, #178 ), #141 ) ;
#3 = CARTESIAN_POINT ( 'NONE',  ( 0.0000000000000000000, 0.0000000000000000000, 0.0000000000000000000 ) ) ;
#4 = FACE_OUTER_BOUND ( 'NONE', #101, .T. ) ;
#5 = AXIS2_PLACEMENT_3D ( 'NONE', #275, #91, #94 ) ;
#6 = DIRECTION ( 'NONE',  ( -0.0000000000000000000, -0.0000000000000000000, -1.000000000000000000 ) ) ;
#7 = ORIENTED_EDGE ( 'NONE', *, *, #175, .T. ) ;
#8 = VERTEX_POINT ( 'NONE', #212 ) ;
#9 = CIRCLE ( 'NONE', #42, 0.05905499999999998251 ) ;
#10 = ORIENTED_EDGE ( 'NONE', *, *, #211, .T. ) ;
#11 = DIRECTION ( 'NONE',  ( 1.000000000000000000, 0.0000000000000000000, -0.0000000000000000000 ) ) ;
#12 = ADVANCED_FACE ( 'NONE', ( #4 ), #61, .T. ) ;
#13 = COLOUR_RGB ( '',0.7921568627450980005, 0.8196078431372548767, 0.9333333333333333481 ) ;
#14 = AXIS2_PLACEMENT_3D ( 'NONE', #68, #271, #276 ) ;
#15 = CARTESIAN_POINT ( 'NONE',  ( 0.05899594500000004266, 0.0000000000000000000, 0.3149609999999999910 ) ) ;
#16 = FACE_OUTER_BOUND ( 'NONE', #285, .T. ) ;
#17 = DIRECTION ( 'NONE',  ( 0.7071067811865536790, 8.659560562355008046E-17, -0.7071067811865412445 ) ) ;
#18 = CARTESIAN_POINT ( 'NONE',  ( 0.0000000000000000000, 0.0000000000000000000, 1.496062999999999921 ) ) ;
#19 = AXIS2_PLACEMENT_3D ( 'NONE', #123, #118, #188 ) ;
#20 = CIRCLE ( 'NONE', #236, 0.04405500000000001082 ) ;
#21 = DIRECTION ( 'NONE',  ( 0.0000000000000000000, 0.0000000000000000000, -1.000000000000000000 ) ) ;
#22 =( LENGTH_UNIT ( ) NAMED_UNIT ( * ) SI_UNIT ( $, .METRE. ) );
#23 = DIRECTION ( 'NONE',  ( -1.224646799147352961E-16, -0.0000000000000000000, -1.000000000000000000 ) ) ;
#24 = SHAPE_DEFINITION_REPRESENTATION ( #286, #2 ) ;
#25 = EDGE_LOOP ( 'NONE', ( #76, #261, #82, #32 ) ) ;
#26 =( NAMED_UNIT ( * ) PLANE_ANGLE_UNIT ( ) SI_UNIT ( $, .RADIAN. ) );
#27 = CARTESIAN_POINT ( 'NONE',  ( 0.0000000000000000000, 0.0000000000000000000, 1.496062999999999921 ) ) ;
#28 = APPLICATION_CONTEXT ( 'automotive_design' ) ;
#29 = ORIENTED_EDGE ( 'NONE', *, *, #226, .F. ) ;
#30 = VERTEX_POINT ( 'NONE', #164 ) ;
#31 = ADVANCED_FACE ( 'NONE', ( #240 ), #213, .T. ) ;
#32 = ORIENTED_EDGE ( 'NONE', *, *, #165, .T. ) ;
#33 = ADVANCED_FACE ( 'NONE', ( #78 ), #246, .F. ) ;
#34 = VECTOR ( 'NONE', #17, 39.37007874015748854 ) ;
#35 = DIRECTION ( 'NONE',  ( -1.000000000000000000, 0.0000000000000000000, 1.224646799147352961E-16 ) ) ;
#36 = EDGE_CURVE ( 'NONE', #119, #210, #107, .T. ) ;
#37 = DIRECTION ( 'NONE',  ( 1.000000000000000000, 0.0000000000000000000, 0.0000000000000000000 ) ) ;
#38 = LENGTH_MEASURE_WITH_UNIT ( LENGTH_MEASURE( 0.02539999999999999897 ), #248 );
#39 =( GEOMETRIC_REPRESENTATION_CONTEXT ( 3 ) GLOBAL_UNCERTAINTY_ASSIGNED_CONTEXT ( ( #96 ) ) GLOBAL_UNIT_ASSIGNED_CONTEXT ( ( #264, #84, #127 ) ) REPRESENTATION_CONTEXT ( 'NONE', 'WORKASPACE' ) );
#40 = CARTESIAN_POINT ( 'NONE',  ( 0.05905499999999998251, 7.232151672364692341E-18, 1.481063000000000240 ) ) ;
#41 = CARTESIAN_POINT ( 'NONE',  ( -0.05899594499999999409, 0.0000000000000000000, 1.444983904138465630E-17 ) ) ;
#42 = AXIS2_PLACEMENT_3D ( 'NONE', #173, #266, #293 ) ;
#43 = CARTESIAN_POINT ( 'NONE',  ( 0.0000000000000000000, 0.0000000000000000000, 0.0000000000000000000 ) ) ;
#44 = DIRECTION ( 'NONE',  ( 1.000000000000000000, 0.0000000000000000000, 0.0000000000000000000 ) ) ;
#45 = VECTOR ( 'NONE', #182, 39.37007874015748143 ) ;
#46 = DIRECTION ( 'NONE',  ( 0.0000000000000000000, 0.0000000000000000000, 1.000000000000000000 ) ) ;
#47 = ORIENTED_EDGE ( 'NONE', *, *, #121, .F. ) ;
#48 = CIRCLE ( 'NONE', #152, 0.05899594499999999409 ) ;
#49 = SURFACE_SIDE_STYLE ('',( #214 ) ) ;
#50 = EDGE_LOOP ( 'NONE', ( #279, #170, #166, #140 ) ) ;
#51 = ORIENTED_EDGE ( 'NONE', *, *, #113, .F. ) ;
#52 = AXIS2_PLACEMENT_3D ( 'NONE', #290, #148, #245 ) ;
#53 = VERTEX_POINT ( 'NONE', #225 ) ;
#54 = EDGE_LOOP ( 'NONE', ( #97, #244 ) ) ;
#55 = DIRECTION ( 'NONE',  ( 1.000000000000000000, 0.0000000000000000000, -0.0000000000000000000 ) ) ;
#56 = STYLED_ITEM ( 'NONE', ( #167 ), #2 ) ;
#57 = CONICAL_SURFACE ( 'NONE', #98, 0.05899594499999999409, 0.1745329251994340580 ) ;
#58 = CARTESIAN_POINT ( 'NONE',  ( 3.861261362092112866E-17, 0.0000000000000000000, 0.3152959175478574072 ) ) ;
#59 = DIRECTION ( 'NONE',  ( -1.224646799147352961E-16, -0.0000000000000000000, -1.000000000000000000 ) ) ;
#60 = PRESENTATION_STYLE_ASSIGNMENT (( #83 ) ) ;
#61 = CONICAL_SURFACE ( 'NONE', #19, 0.04405500000000001082, 0.7853981633974570498 ) ;
#62 = DIRECTION ( 'NONE',  ( -1.224646799147352961E-16, -0.0000000000000000000, -1.000000000000000000 ) ) ;
#63 = DIRECTION ( 'NONE',  ( -1.224646799147352961E-16, -0.0000000000000000000, -1.000000000000000000 ) ) ;
#64 = CARTESIAN_POINT ( 'NONE',  ( 3.857159805062494208E-17, 0.0000000000000000000, 0.3149609999999999910 ) ) ;
#65 = DIRECTION ( 'NONE',  ( -1.224646799147352961E-16, -0.0000000000000000000, -1.000000000000000000 ) ) ;
#66 = AXIS2_PLACEMENT_3D ( 'NONE', #270, #228, #93 ) ;
#67 = PRODUCT_DEFINITION ( 'UNKNOWN', '', #87, #150 ) ;
#68 = CARTESIAN_POINT ( 'NONE',  ( 8.847974565113086764E-34, 0.0000000000000000000, 7.224919520692328148E-18 ) ) ;
#69 = ORIENTED_EDGE ( 'NONE', *, *, #220, .T. ) ;
#70 = DIMENSIONAL_EXPONENTS ( 1.000000000000000000, 0.0000000000000000000, 0.0000000000000000000, 0.0000000000000000000, 0.0000000000000000000, 0.0000000000000000000, 0.0000000000000000000 ) ;
#71 = CONICAL_SURFACE ( 'NONE', #205, 0.04405500000000001082, 0.7853981633974570498 ) ;
#72 = CARTESIAN_POINT ( 'NONE',  ( 0.05905499999999998251, 7.232151672364692341E-18, 1.496062999999999921 ) ) ;
#73 = EDGE_LOOP ( 'NONE', ( #29, #255, #122, #241 ) ) ;
#74 = CIRCLE ( 'NONE', #174, 0.05905499999999998251 ) ;
#75 = DIRECTION ( 'NONE',  ( 1.000000000000000000, 0.0000000000000000000, 0.0000000000000000000 ) ) ;
#76 = ORIENTED_EDGE ( 'NONE', *, *, #220, .F. ) ;
#77 = PRODUCT_CONTEXT ( 'NONE', #280, 'mechanical' ) ;
#78 = FACE_OUTER_BOUND ( 'NONE', #54, .T. ) ;
#79 = PRODUCT ( 'Micro_GEMM-030-4X', 'Micro_GEMM-030-4X', '', ( #77 ) ) ;
#80 =( CONVERSION_BASED_UNIT ( 'INCH', #238 ) LENGTH_UNIT ( ) NAMED_UNIT ( #233 ) );
#81 = ORIENTED_EDGE ( 'NONE', *, *, #121, .T. ) ;
#82 = ORIENTED_EDGE ( 'NONE', *, *, #172, .T. ) ;
#83 = SURFACE_STYLE_USAGE ( .BOTH. , #288 ) ;
#84 =( NAMED_UNIT ( * ) PLANE_ANGLE_UNIT ( ) SI_UNIT ( $, .RADIAN. ) );
#85 = CARTESIAN_POINT ( 'NONE',  ( 0.0000000000000000000, 0.0000000000000000000, 0.0000000000000000000 ) ) ;
#86 = CARTESIAN_POINT ( 'NONE',  ( 0.05899594500000004266, 0.0000000000000000000, 0.3149609999999999910 ) ) ;
#87 = PRODUCT_DEFINITION_FORMATION_WITH_SPECIFIED_SOURCE ( 'ANY', '', #79, .NOT_KNOWN. ) ;
#88 =( CONVERSION_BASED_UNIT ( 'INCH', #181 ) LENGTH_UNIT ( ) NAMED_UNIT ( #184 ) );
#89 = DIRECTION ( 'NONE',  ( -1.224646799147352961E-16, -0.0000000000000000000, -1.000000000000000000 ) ) ;
#90 = ADVANCED_FACE ( 'NONE', ( #16 ), #179, .T. ) ;
#91 = DIRECTION ( 'NONE',  ( 0.0000000000000000000, 0.0000000000000000000, 1.000000000000000000 ) ) ;
#92 = ADVANCED_FACE ( 'NONE', ( #111 ), #171, .T. ) ;
#93 = DIRECTION ( 'NONE',  ( 1.000000000000000000, 0.0000000000000000000, 0.0000000000000000000 ) ) ;
#94 = DIRECTION ( 'NONE',  ( 1.000000000000000000, 0.0000000000000000000, 0.0000000000000000000 ) ) ;
#95 = AXIS2_PLACEMENT_3D ( 'NONE', #232, #89, #115 ) ;
#96 = UNCERTAINTY_MEASURE_WITH_UNIT (LENGTH_MEASURE( 1.000000000000000082E-05 ), #264, 'distance_accuracy_value', 'NONE');
#97 = ORIENTED_EDGE ( 'NONE', *, *, #243, .T. ) ;
#98 = AXIS2_PLACEMENT_3D ( 'NONE', #249, #230, #112 ) ;
#99 = EDGE_LOOP ( 'NONE', ( #256, #239, #260, #104 ) ) ;
#100 = FILL_AREA_STYLE ('',( #117 ) ) ;
#101 = EDGE_LOOP ( 'NONE', ( #51, #282, #145, #47 ) ) ;
#102 = VERTEX_POINT ( 'NONE', #199 ) ;
#103 = VECTOR ( 'NONE', #132, 39.37007874015748143 ) ;
#104 = ORIENTED_EDGE ( 'NONE', *, *, #192, .F. ) ;
#105 = LINE ( 'NONE', #227, #34 ) ;
#106 = VECTOR ( 'NONE', #204, 39.37007874015748854 ) ;
#107 = LINE ( 'NONE', #125, #278 ) ;
#108 = CIRCLE ( 'NONE', #219, 0.05899594499999999409 ) ;
#109 = CARTESIAN_POINT ( 'NONE',  ( -0.05899594499999995245, 7.228535596528511785E-18, 0.3149609999999999910 ) ) ;
#110 = MANIFOLD_SOLID_BREP ( 'Cut-Revolve1', #180 ) ;
#111 = FACE_OUTER_BOUND ( 'NONE', #99, .T. ) ;
#112 = DIRECTION ( 'NONE',  ( 1.000000000000000000, 0.0000000000000000000, 0.0000000000000000000 ) ) ;
#113 = EDGE_CURVE ( 'NONE', #8, #277, #105, .T. ) ;
#114 = CARTESIAN_POINT ( 'NONE',  ( -0.04405500000000001082, 0.0000000000000000000, 1.496062999999999921 ) ) ;
#115 = DIRECTION ( 'NONE',  ( -1.000000000000000000, 0.0000000000000000000, 1.224646799147352961E-16 ) ) ;
#116 = ORIENTED_EDGE ( 'NONE', *, *, #197, .F. ) ;
#117 = FILL_AREA_STYLE_COLOUR ( '', #13 ) ;
#118 = DIRECTION ( 'NONE',  ( 0.0000000000000000000, 0.0000000000000000000, -1.000000000000000000 ) ) ;
#119 = VERTEX_POINT ( 'NONE', #109 ) ;
#120 = ORIENTED_EDGE ( 'NONE', *, *, #222, .T. ) ;
#121 = EDGE_CURVE ( 'NONE', #277, #142, #9, .T. ) ;
#122 = ORIENTED_EDGE ( 'NONE', *, *, #175, .F. ) ;
#123 = CARTESIAN_POINT ( 'NONE',  ( 0.0000000000000000000, 0.0000000000000000000, 1.496062999999999921 ) ) ;
#124 = CARTESIAN_POINT ( 'NONE',  ( -0.04405500000000001082, 0.0000000000000000000, 1.496062999999999921 ) ) ;
#125 = CARTESIAN_POINT ( 'NONE',  ( -0.05899594499999999409, 0.0000000000000000000, 7.224919520692328148E-18 ) ) ;
#126 = CIRCLE ( 'NONE', #159, 0.05905499999999998251 ) ;
#127 =( NAMED_UNIT ( * ) SI_UNIT ( $, .STERADIAN. ) SOLID_ANGLE_UNIT ( ) );
#128 = LINE ( 'NONE', #250, #143 ) ;
#129 = PRESENTATION_LAYER_ASSIGNMENT (  '', '', ( #56 ) ) ;
#130 = AXIS2_PLACEMENT_3D ( 'NONE', #195, #176, #55 ) ;
#131 = ADVANCED_FACE ( 'NONE', ( #247 ), #262, .T. ) ;
#132 = DIRECTION ( 'NONE',  ( -0.0000000000000000000, -0.0000000000000000000, -1.000000000000000000 ) ) ;
#133 = DIRECTION ( 'NONE',  ( -1.000000000000000000, 0.0000000000000000000, 0.0000000000000000000 ) ) ;
#134 = DIRECTION ( 'NONE',  ( -1.000000000000000000, 0.0000000000000000000, 1.224646799147352961E-16 ) ) ;
#135 =( GEOMETRIC_REPRESENTATION_CONTEXT ( 3 ) GLOBAL_UNCERTAINTY_ASSIGNED_CONTEXT ( ( #287 ) ) GLOBAL_UNIT_ASSIGNED_CONTEXT ( ( #80, #26, #258 ) ) REPRESENTATION_CONTEXT ( 'NONE', 'WORKASPACE' ) );
#136 = FACE_OUTER_BOUND ( 'NONE', #50, .T. ) ;
#137 = AXIS2_PLACEMENT_3D ( 'NONE', #43, #23, #134 ) ;
#138 =( LENGTH_UNIT ( ) NAMED_UNIT ( * ) SI_UNIT ( $, .METRE. ) );
#139 = VERTEX_POINT ( 'NONE', #124 ) ;
#140 = ORIENTED_EDGE ( 'NONE', *, *, #36, .F. ) ;
#141 =( GEOMETRIC_REPRESENTATION_CONTEXT ( 3 ) GLOBAL_UNCERTAINTY_ASSIGNED_CONTEXT ( ( #297 ) ) GLOBAL_UNIT_ASSIGNED_CONTEXT ( ( #88, #283, #186 ) ) REPRESENTATION_CONTEXT ( 'NONE', 'WORKASPACE' ) );
#142 = VERTEX_POINT ( 'NONE', #223 ) ;
#143 = VECTOR ( 'NONE', #299, 39.37007874015748143 ) ;
#144 = APPLICATION_PROTOCOL_DEFINITION ( 'draft international standard', 'automotive_design', 1998, #28 ) ;
#145 = ORIENTED_EDGE ( 'NONE', *, *, #291, .T. ) ;
#146 = APPLICATION_PROTOCOL_DEFINITION ( 'draft international standard', 'automotive_design', 1998, #280 ) ;
#147 = ORIENTED_EDGE ( 'NONE', *, *, #189, .F. ) ;
#148 = DIRECTION ( 'NONE',  ( -0.0000000000000000000, -0.0000000000000000000, -1.000000000000000000 ) ) ;
#149 = CIRCLE ( 'NONE', #14, 0.05899594499999999409 ) ;
#150 = PRODUCT_DEFINITION_CONTEXT ( 'detailed design', #28, 'design' ) ;
#151 = DIRECTION ( 'NONE',  ( -1.224646799147352961E-16, -0.0000000000000000000, -1.000000000000000000 ) ) ;
#152 = AXIS2_PLACEMENT_3D ( 'NONE', #160, #157, #294 ) ;
#153 = FILL_AREA_STYLE ('',( #154 ) ) ;
#154 = FILL_AREA_STYLE_COLOUR ( '', #187 ) ;
#155 = SURFACE_STYLE_FILL_AREA ( #153 ) ;
#156 = FACE_OUTER_BOUND ( 'NONE', #215, .T. ) ;
#157 = DIRECTION ( 'NONE',  ( -1.224646799147352961E-16, -0.0000000000000000000, -1.000000000000000000 ) ) ;
#158 = DIRECTION ( 'NONE',  ( 0.0000000000000000000, 0.0000000000000000000, 1.000000000000000000 ) ) ;
#159 = AXIS2_PLACEMENT_3D ( 'NONE', #201, #295, #209 ) ;
#160 = CARTESIAN_POINT ( 'NONE',  ( 3.857159805062494208E-17, 0.0000000000000000000, 0.3149609999999999910 ) ) ;
#161 = SURFACE_STYLE_USAGE ( .BOTH. , #49 ) ;
#162 = AXIS2_PLACEMENT_3D ( 'NONE', #85, #267, #11 ) ;
#163 = ORIENTED_EDGE ( 'NONE', *, *, #172, .F. ) ;
#164 = CARTESIAN_POINT ( 'NONE',  ( -0.05905499999999993394, 0.0000000000000000000, 0.3152959175478574072 ) ) ;
#165 = EDGE_CURVE ( 'NONE', #102, #30, #269, .T. ) ;
#166 = ORIENTED_EDGE ( 'NONE', *, *, #243, .F. ) ;
#167 = PRESENTATION_STYLE_ASSIGNMENT (( #161 ) ) ;
#168 = VERTEX_POINT ( 'NONE', #15 ) ;
#169 = STYLED_ITEM ( 'NONE', ( #60 ), #110 ) ;
#170 = ORIENTED_EDGE ( 'NONE', *, *, #296, .T. ) ;
#171 = CYLINDRICAL_SURFACE ( 'NONE', #284, 0.05899594499999999409 ) ;
#172 = EDGE_CURVE ( 'NONE', #168, #102, #221, .T. ) ;
#173 = CARTESIAN_POINT ( 'NONE',  ( 0.0000000000000000000, 0.0000000000000000000, 1.481063000000000240 ) ) ;
#174 = AXIS2_PLACEMENT_3D ( 'NONE', #292, #177, #298 ) ;
#175 = EDGE_CURVE ( 'NONE', #142, #277, #74, .T. ) ;
#176 = DIRECTION ( 'NONE',  ( 0.0000000000000000000, 0.0000000000000000000, 1.000000000000000000 ) ) ;
#177 = DIRECTION ( 'NONE',  ( 0.0000000000000000000, 0.0000000000000000000, -1.000000000000000000 ) ) ;
#178 = AXIS2_PLACEMENT_3D ( 'NONE', #3, #46, #75 ) ;
#179 = PLANE ( 'NONE',  #130 ) ;
#180 = CLOSED_SHELL ( 'NONE', ( #237, #200, #265, #31, #131, #90, #12, #206, #92, #33 ) ) ;
#181 = LENGTH_MEASURE_WITH_UNIT ( LENGTH_MEASURE( 0.02539999999999999897 ), #22 );
#182 = DIRECTION ( 'NONE',  ( -0.0000000000000000000, -0.0000000000000000000, -1.000000000000000000 ) ) ;
#183 = DIRECTION ( 'NONE',  ( -1.000000000000000000, 0.0000000000000000000, 0.0000000000000000000 ) ) ;
#184 = DIMENSIONAL_EXPONENTS ( 1.000000000000000000, 0.0000000000000000000, 0.0000000000000000000, 0.0000000000000000000, 0.0000000000000000000, 0.0000000000000000000, 0.0000000000000000000 ) ;
#185 = FACE_OUTER_BOUND ( 'NONE', #25, .T. ) ;
#186 =( NAMED_UNIT ( * ) SI_UNIT ( $, .STERADIAN. ) SOLID_ANGLE_UNIT ( ) );
#187 = COLOUR_RGB ( '',0.7921568627450980005, 0.8196078431372548767, 0.9333333333333333481 ) ;
#188 = DIRECTION ( 'NONE',  ( -1.000000000000000000, 0.0000000000000000000, 0.0000000000000000000 ) ) ;
#189 = EDGE_CURVE ( 'NONE', #142, #30, #254, .T. ) ;
#190 = DIRECTION ( 'NONE',  ( -1.000000000000000000, 0.0000000000000000000, 0.0000000000000000000 ) ) ;
#191 = ORIENTED_EDGE ( 'NONE', *, *, #268, .F. ) ;
#192 = EDGE_CURVE ( 'NONE', #53, #210, #149, .T. ) ;
#193 = ORIENTED_EDGE ( 'NONE', *, *, #189, .T. ) ;
#194 = AXIS2_PLACEMENT_3D ( 'NONE', #27, #6, #190 ) ;
#195 = CARTESIAN_POINT ( 'NONE',  ( 0.0000000000000000000, 0.0000000000000000000, 1.496062999999999921 ) ) ;
#196 = DIRECTION ( 'NONE',  ( 0.1736481776669315524, 0.0000000000000000000, 0.9848077530122077983 ) ) ;
#197 = EDGE_CURVE ( 'NONE', #119, #168, #108, .T. ) ;
#198 = CARTESIAN_POINT ( 'NONE',  ( 0.0000000000000000000, 0.0000000000000000000, 0.0000000000000000000 ) ) ;
#199 = CARTESIAN_POINT ( 'NONE',  ( 0.05905500000000002414, 7.232151672364696963E-18, 0.3152959175478574072 ) ) ;
#200 = ADVANCED_FACE ( 'NONE', ( #156 ), #274, .T. ) ;
#201 = CARTESIAN_POINT ( 'NONE',  ( 3.861261362092112866E-17, 0.0000000000000000000, 0.3152959175478574072 ) ) ;
#202 = FACE_OUTER_BOUND ( 'NONE', #73, .T. ) ;
#203 = CIRCLE ( 'NONE', #95, 0.05899594499999999409 ) ;
#204 = DIRECTION ( 'NONE',  ( -0.7071067811865536790, 0.0000000000000000000, -0.7071067811865412445 ) ) ;
#205 = AXIS2_PLACEMENT_3D ( 'NONE', #229, #21, #183 ) ;
#206 = ADVANCED_FACE ( 'NONE', ( #185 ), #57, .T. ) ;
#207 = CARTESIAN_POINT ( 'NONE',  ( -0.05905499999999998251, 0.0000000000000000000, 1.496062999999999921 ) ) ;
#208 = VECTOR ( 'NONE', #196, 39.37007874015748143 ) ;
#209 = DIRECTION ( 'NONE',  ( 1.000000000000000000, 0.0000000000000000000, 0.0000000000000000000 ) ) ;
#210 = VERTEX_POINT ( 'NONE', #41 ) ;
#211 = EDGE_CURVE ( 'NONE', #139, #8, #263, .T. ) ;
#212 = CARTESIAN_POINT ( 'NONE',  ( 0.04405500000000001082, 6.313666573004179469E-18, 1.496062999999999921 ) ) ;
#213 = CYLINDRICAL_SURFACE ( 'NONE', #194, 0.05905499999999998251 ) ;
#214 = SURFACE_STYLE_FILL_AREA ( #100 ) ;
#215 = EDGE_LOOP ( 'NONE', ( #116, #69, #242, #163 ) ) ;
#216 = ORIENTED_EDGE ( 'NONE', *, *, #165, .F. ) ;
#217 = PRODUCT_RELATED_PRODUCT_CATEGORY ( 'part', '', ( #79 ) ) ;
#218 = EDGE_LOOP ( 'NONE', ( #281, #81, #193, #216 ) ) ;
#219 = AXIS2_PLACEMENT_3D ( 'NONE', #64, #65, #133 ) ;
#220 = EDGE_CURVE ( 'NONE', #119, #30, #128, .T. ) ;
#221 = LINE ( 'NONE', #86, #208 ) ;
#222 = EDGE_CURVE ( 'NONE', #277, #102, #235, .T. ) ;
#223 = CARTESIAN_POINT ( 'NONE',  ( -0.05905499999999998251, 0.0000000000000000000, 1.481063000000000240 ) ) ;
#224 = AXIS2_PLACEMENT_3D ( 'NONE', #58, #151, #37 ) ;
#225 = CARTESIAN_POINT ( 'NONE',  ( 0.05899594499999999409, 7.224919520692329689E-18, 0.0000000000000000000 ) ) ;
#226 = EDGE_CURVE ( 'NONE', #8, #139, #20, .T. ) ;
#227 = CARTESIAN_POINT ( 'NONE',  ( 0.04405500000000001082, 5.395181473643666598E-18, 1.496062999999999921 ) ) ;
#228 = DIRECTION ( 'NONE',  ( 1.224646799147352961E-16, 0.0000000000000000000, 1.000000000000000000 ) ) ;
#229 = CARTESIAN_POINT ( 'NONE',  ( 0.0000000000000000000, 0.0000000000000000000, 1.496062999999999921 ) ) ;
#230 = DIRECTION ( 'NONE',  ( 1.224646799147352961E-16, 0.0000000000000000000, 1.000000000000000000 ) ) ;
#231 = VECTOR ( 'NONE', #63, 39.37007874015748143 ) ;
#232 = CARTESIAN_POINT ( 'NONE',  ( 8.847974565113086764E-34, 0.0000000000000000000, 7.224919520692328148E-18 ) ) ;
#233 = DIMENSIONAL_EXPONENTS ( 1.000000000000000000, 0.0000000000000000000, 0.0000000000000000000, 0.0000000000000000000, 0.0000000000000000000, 0.0000000000000000000, 0.0000000000000000000 ) ;
#234 = MECHANICAL_DESIGN_GEOMETRIC_PRESENTATION_REPRESENTATION (  '', ( #169 ), #39 ) ;
#235 = LINE ( 'NONE', #72, #103 ) ;
#236 = AXIS2_PLACEMENT_3D ( 'NONE', #18, #158, #44 ) ;
#237 = ADVANCED_FACE ( 'NONE', ( #136 ), #252, .T. ) ;
#238 = LENGTH_MEASURE_WITH_UNIT ( LENGTH_MEASURE( 0.02539999999999999897 ), #138 );
#239 = ORIENTED_EDGE ( 'NONE', *, *, #289, .T. ) ;
#240 = FACE_OUTER_BOUND ( 'NONE', #257, .T. ) ;
#241 = ORIENTED_EDGE ( 'NONE', *, *, #291, .F. ) ;
#242 = ORIENTED_EDGE ( 'NONE', *, *, #268, .T. ) ;
#243 = EDGE_CURVE ( 'NONE', #210, #53, #203, .T. ) ;
#244 = ORIENTED_EDGE ( 'NONE', *, *, #192, .T. ) ;
#245 = DIRECTION ( 'NONE',  ( -1.000000000000000000, 0.0000000000000000000, 0.0000000000000000000 ) ) ;
#246 = PLANE ( 'NONE',  #162 ) ;
#247 = FACE_OUTER_BOUND ( 'NONE', #218, .T. ) ;
#248 =( LENGTH_UNIT ( ) NAMED_UNIT ( * ) SI_UNIT ( $, .METRE. ) );
#249 = CARTESIAN_POINT ( 'NONE',  ( 3.857159805062494208E-17, 0.0000000000000000000, 0.3149609999999999910 ) ) ;
#250 = CARTESIAN_POINT ( 'NONE',  ( -0.05899594499999995245, 7.224919520692329689E-18, 0.3149609999999999910 ) ) ;
#251 = CARTESIAN_POINT ( 'NONE',  ( 0.05899594499999999409, 7.224919520692329689E-18, -7.224919520692328148E-18 ) ) ;
#252 = CYLINDRICAL_SURFACE ( 'NONE', #137, 0.05899594499999999409 ) ;
#253 = ORIENTED_EDGE ( 'NONE', *, *, #226, .T. ) ;
#254 = LINE ( 'NONE', #207, #45 ) ;
#255 = ORIENTED_EDGE ( 'NONE', *, *, #113, .T. ) ;
#256 = ORIENTED_EDGE ( 'NONE', *, *, #296, .F. ) ;
#257 = EDGE_LOOP ( 'NONE', ( #7, #120, #191, #147 ) ) ;
#258 =( NAMED_UNIT ( * ) SI_UNIT ( $, .STERADIAN. ) SOLID_ANGLE_UNIT ( ) );
#259 = PRESENTATION_LAYER_ASSIGNMENT (  '', '', ( #169 ) ) ;
#260 = ORIENTED_EDGE ( 'NONE', *, *, #36, .T. ) ;
#261 = ORIENTED_EDGE ( 'NONE', *, *, #289, .F. ) ;
#262 = CYLINDRICAL_SURFACE ( 'NONE', #52, 0.05905499999999998251 ) ;
#263 = CIRCLE ( 'NONE', #5, 0.04405500000000001082 ) ;
#264 =( CONVERSION_BASED_UNIT ( 'INCH', #38 ) LENGTH_UNIT ( ) NAMED_UNIT ( #70 ) );
#265 = ADVANCED_FACE ( 'NONE', ( #202 ), #71, .T. ) ;
#266 = DIRECTION ( 'NONE',  ( 0.0000000000000000000, 0.0000000000000000000, -1.000000000000000000 ) ) ;
#267 = DIRECTION ( 'NONE',  ( 0.0000000000000000000, 0.0000000000000000000, 1.000000000000000000 ) ) ;
#268 = EDGE_CURVE ( 'NONE', #30, #102, #126, .T. ) ;
#269 = CIRCLE ( 'NONE', #224, 0.05905499999999998251 ) ;
#270 = CARTESIAN_POINT ( 'NONE',  ( 3.857159805062494208E-17, 0.0000000000000000000, 0.3149609999999999910 ) ) ;
#271 = DIRECTION ( 'NONE',  ( -1.224646799147352961E-16, -0.0000000000000000000, -1.000000000000000000 ) ) ;
#272 = LINE ( 'NONE', #251, #231 ) ;
#273 = MECHANICAL_DESIGN_GEOMETRIC_PRESENTATION_REPRESENTATION (  '', ( #56 ), #135 ) ;
#274 = CONICAL_SURFACE ( 'NONE', #66, 0.05899594499999999409, 0.1745329251994340580 ) ;
#275 = CARTESIAN_POINT ( 'NONE',  ( 0.0000000000000000000, 0.0000000000000000000, 1.496062999999999921 ) ) ;
#276 = DIRECTION ( 'NONE',  ( -1.000000000000000000, 0.0000000000000000000, 1.224646799147352961E-16 ) ) ;
#277 = VERTEX_POINT ( 'NONE', #40 ) ;
#278 = VECTOR ( 'NONE', #59, 39.37007874015748143 ) ;
#279 = ORIENTED_EDGE ( 'NONE', *, *, #197, .T. ) ;
#280 = APPLICATION_CONTEXT ( 'automotive_design' ) ;
#281 = ORIENTED_EDGE ( 'NONE', *, *, #222, .F. ) ;
#282 = ORIENTED_EDGE ( 'NONE', *, *, #211, .F. ) ;
#283 =( NAMED_UNIT ( * ) PLANE_ANGLE_UNIT ( ) SI_UNIT ( $, .RADIAN. ) );
#284 = AXIS2_PLACEMENT_3D ( 'NONE', #198, #62, #35 ) ;
#285 = EDGE_LOOP ( 'NONE', ( #10, #253 ) ) ;
#286 = PRODUCT_DEFINITION_SHAPE ( 'NONE', 'NONE',  #67 ) ;
#287 = UNCERTAINTY_MEASURE_WITH_UNIT (LENGTH_MEASURE( 1.000000000000000082E-05 ), #80, 'distance_accuracy_value', 'NONE');
#288 = SURFACE_SIDE_STYLE ('',( #155 ) ) ;
#289 = EDGE_CURVE ( 'NONE', #168, #119, #48, .T. ) ;
#290 = CARTESIAN_POINT ( 'NONE',  ( 0.0000000000000000000, 0.0000000000000000000, 1.496062999999999921 ) ) ;
#291 = EDGE_CURVE ( 'NONE', #139, #142, #1, .T. ) ;
#292 = CARTESIAN_POINT ( 'NONE',  ( 0.0000000000000000000, 0.0000000000000000000, 1.481063000000000240 ) ) ;
#293 = DIRECTION ( 'NONE',  ( 1.000000000000000000, 0.0000000000000000000, 0.0000000000000000000 ) ) ;
#294 = DIRECTION ( 'NONE',  ( -1.000000000000000000, 0.0000000000000000000, 0.0000000000000000000 ) ) ;
#295 = DIRECTION ( 'NONE',  ( -1.224646799147352961E-16, -0.0000000000000000000, -1.000000000000000000 ) ) ;
#296 = EDGE_CURVE ( 'NONE', #168, #53, #272, .T. ) ;
#297 = UNCERTAINTY_MEASURE_WITH_UNIT (LENGTH_MEASURE( 1.000000000000000082E-05 ), #88, 'distance_accuracy_value', 'NONE');
#298 = DIRECTION ( 'NONE',  ( 1.000000000000000000, 0.0000000000000000000, 0.0000000000000000000 ) ) ;
#299 = DIRECTION ( 'NONE',  ( -0.1736481776669313304, 2.126576849575784857E-17, 0.9848077530122077983 ) ) ;
ENDSEC;
END-ISO-10303-21;
