ISO-10303-21;
HEADER;
FILE_DESCRIPTION (( 'STEP AP214' ),
    '1' );
FILE_NAME ('Micro_DMM-040-4120.STEP',
    '2021-09-02T16:17:57',
    ( '' ),
    ( '' ),
    'SwSTEP 2.0',
    'SolidWorks 2020',
    '' );
FILE_SCHEMA (( 'AUTOMOTIVE_DESIGN' ));
ENDSEC;

DATA;
#1 = LINE ( 'NONE', #204, #14 ) ;
#2 = EDGE_CURVE ( 'NONE', #83, #196, #44, .T. ) ;
#3 = AXIS2_PLACEMENT_3D ( 'NONE', #179, #205, #24 ) ;
#4 = MANIFOLD_SOLID_BREP ( 'Cut-Revolve4', #26 ) ;
#5 = AXIS2_PLACEMENT_3D ( 'NONE', #29, #153, #97 ) ;
#6 = EDGE_CURVE ( 'NONE', #201, #238, #243, .T. ) ;
#7 = ORIENTED_EDGE ( 'NONE', *, *, #217, .T. ) ;
#8 = DIRECTION ( 'NONE',  ( 1.000000000000000000, 0.0000000000000000000, 0.0000000000000000000 ) ) ;
#9 = PRODUCT_DEFINITION_SHAPE ( 'NONE', 'NONE',  #207 ) ;
#10 = ORIENTED_EDGE ( 'NONE', *, *, #210, .T. ) ;
#11 =( CONVERSION_BASED_UNIT ( 'INCH', #260 ) LENGTH_UNIT ( ) NAMED_UNIT ( #168 ) );
#12 =( NAMED_UNIT ( * ) SI_UNIT ( $, .STERADIAN. ) SOLID_ANGLE_UNIT ( ) );
#13 = VERTEX_POINT ( 'NONE', #246 ) ;
#14 = VECTOR ( 'NONE', #50, 39.37007874015748143 ) ;
#15 = DIRECTION ( 'NONE',  ( -0.0000000000000000000, -0.0000000000000000000, -1.000000000000000000 ) ) ;
#16 = DIRECTION ( 'NONE',  ( -1.000000000000000000, 0.0000000000000000000, 0.0000000000000000000 ) ) ;
#17 = FACE_OUTER_BOUND ( 'NONE', #111, .T. ) ;
#18 = CIRCLE ( 'NONE', #75, 0.07869000000000006545 ) ;
#19 = EDGE_CURVE ( 'NONE', #67, #249, #147, .T. ) ;
#20 = DIRECTION ( 'NONE',  ( 0.7071067811865502373, 8.659560562354966138E-17, -0.7071067811865446862 ) ) ;
#21 = ORIENTED_EDGE ( 'NONE', *, *, #6, .T. ) ;
#22 = CARTESIAN_POINT ( 'NONE',  ( 0.007499999999999999722, 0.0000000000000000000, 1.707404996040164512E-17 ) ) ;
#23 = FACE_OUTER_BOUND ( 'NONE', #53, .T. ) ;
#24 = DIRECTION ( 'NONE',  ( -1.000000000000000000, 0.0000000000000000000, 0.0000000000000000000 ) ) ;
#25 = APPLICATION_PROTOCOL_DEFINITION ( 'draft international standard', 'automotive_design', 1998, #271 ) ;
#26 = CLOSED_SHELL ( 'NONE', ( #228, #77, #269, #124, #98, #82, #280, #175, #256, #65, #197 ) ) ;
#27 = EDGE_CURVE ( 'NONE', #249, #67, #233, .T. ) ;
#28 = VECTOR ( 'NONE', #327, 39.37007874015748143 ) ;
#29 = CARTESIAN_POINT ( 'NONE',  ( 0.0000000000000000000, 0.0000000000000000000, 1.707404996040164512E-17 ) ) ;
#30 = APPLICATION_PROTOCOL_DEFINITION ( 'draft international standard', 'automotive_design', 1998, #84 ) ;
#31 = AXIS2_PLACEMENT_3D ( 'NONE', #43, #323, #41 ) ;
#32 = DIRECTION ( 'NONE',  ( 0.0000000000000000000, 0.0000000000000000000, 1.000000000000000000 ) ) ;
#33 = PRODUCT_RELATED_PRODUCT_CATEGORY ( 'part', '', ( #230 ) ) ;
#34 = ORIENTED_EDGE ( 'NONE', *, *, #19, .F. ) ;
#35 = ORIENTED_EDGE ( 'NONE', *, *, #27, .T. ) ;
#36 = SURFACE_STYLE_FILL_AREA ( #241 ) ;
#37 = DIRECTION ( 'NONE',  ( -0.0000000000000000000, -0.0000000000000000000, -1.000000000000000000 ) ) ;
#38 = FACE_OUTER_BOUND ( 'NONE', #312, .T. ) ;
#39 = EDGE_LOOP ( 'NONE', ( #58, #133, #288, #64 ) ) ;
#40 = EDGE_LOOP ( 'NONE', ( #262, #21, #186, #316 ) ) ;
#41 = DIRECTION ( 'NONE',  ( -1.000000000000000000, 0.0000000000000000000, 0.0000000000000000000 ) ) ;
#42 = EDGE_CURVE ( 'NONE', #160, #220, #151, .T. ) ;
#43 = CARTESIAN_POINT ( 'NONE',  ( 0.0000000000000000000, 0.0000000000000000000, 1.968503999999999809 ) ) ;
#44 = CIRCLE ( 'NONE', #314, 0.007499999999999999722 ) ;
#45 = AXIS2_PLACEMENT_3D ( 'NONE', #146, #298, #69 ) ;
#46 = EDGE_CURVE ( 'NONE', #220, #160, #130, .T. ) ;
#47 = DIRECTION ( 'NONE',  ( -0.0000000000000000000, -0.0000000000000000000, -1.000000000000000000 ) ) ;
#48 = CARTESIAN_POINT ( 'NONE',  ( -0.07869000000000006545, 0.0000000000000000000, 0.4330709999999999837 ) ) ;
#49 = DIRECTION ( 'NONE',  ( -1.000000000000000000, 0.0000000000000000000, 0.0000000000000000000 ) ) ;
#50 = DIRECTION ( 'NONE',  ( -0.0000000000000000000, -0.0000000000000000000, -1.000000000000000000 ) ) ;
#51 = COLOUR_RGB ( '',0.7921568627450980005, 0.8196078431372548767, 0.9333333333333333481 ) ;
#52 = EDGE_LOOP ( 'NONE', ( #199, #163, #212, #117 ) ) ;
#53 = EDGE_LOOP ( 'NONE', ( #239, #132, #10, #282 ) ) ;
#54 = DIRECTION ( 'NONE',  ( 0.0000000000000000000, 0.0000000000000000000, 1.000000000000000000 ) ) ;
#55 = STYLED_ITEM ( 'NONE', ( #63 ), #4 ) ;
#56 = ORIENTED_EDGE ( 'NONE', *, *, #162, .F. ) ;
#57 = CARTESIAN_POINT ( 'NONE',  ( -0.07874000000000000443, 0.0000000000000000000, 1.953504000000000129 ) ) ;
#58 = ORIENTED_EDGE ( 'NONE', *, *, #328, .F. ) ;
#59 = FACE_OUTER_BOUND ( 'NONE', #294, .T. ) ;
#60 = ORIENTED_EDGE ( 'NONE', *, *, #42, .F. ) ;
#61 = DIRECTION ( 'NONE',  ( 1.000000000000000000, 0.0000000000000000000, -0.0000000000000000000 ) ) ;
#62 = AXIS2_PLACEMENT_3D ( 'NONE', #273, #86, #251 ) ;
#63 = PRESENTATION_STYLE_ASSIGNMENT (( #106 ) ) ;
#64 = ORIENTED_EDGE ( 'NONE', *, *, #210, .F. ) ;
#65 = ADVANCED_FACE ( 'NONE', ( #286 ), #110, .T. ) ;
#66 = DIRECTION ( 'NONE',  ( -1.000000000000000000, 0.0000000000000000000, 0.0000000000000000000 ) ) ;
#67 = VERTEX_POINT ( 'NONE', #57 ) ;
#68 = CARTESIAN_POINT ( 'NONE',  ( 0.06374000000000018540, 7.805898697765251255E-18, 1.968503999999999809 ) ) ;
#69 = DIRECTION ( 'NONE',  ( -1.000000000000000000, 0.0000000000000000000, 0.0000000000000000000 ) ) ;
#70 = UNCERTAINTY_MEASURE_WITH_UNIT (LENGTH_MEASURE( 1.000000000000000082E-05 ), #255, 'distance_accuracy_value', 'NONE');
#71 = CIRCLE ( 'NONE', #221, 0.07874000000000000443 ) ;
#72 = CIRCLE ( 'NONE', #5, 0.007499999999999999722 ) ;
#73 = CARTESIAN_POINT ( 'NONE',  ( -0.06374000000000018540, 0.0000000000000000000, 1.968503999999999809 ) ) ;
#74 = PLANE ( 'NONE',  #62 ) ;
#75 = AXIS2_PLACEMENT_3D ( 'NONE', #276, #47, #252 ) ;
#76 = LENGTH_MEASURE_WITH_UNIT ( LENGTH_MEASURE( 0.02539999999999999897 ), #281 );
#77 = ADVANCED_FACE ( 'NONE', ( #264 ), #100, .T. ) ;
#78 =( NAMED_UNIT ( * ) PLANE_ANGLE_UNIT ( ) SI_UNIT ( $, .RADIAN. ) );
#79 = AXIS2_PLACEMENT_3D ( 'NONE', #103, #15, #112 ) ;
#80 = SURFACE_STYLE_USAGE ( .BOTH. , #177 ) ;
#81 = DIRECTION ( 'NONE',  ( 0.0000000000000000000, 0.0000000000000000000, 1.000000000000000000 ) ) ;
#82 = ADVANCED_FACE ( 'NONE', ( #59 ), #216, .T. ) ;
#83 = VERTEX_POINT ( 'NONE', #136 ) ;
#84 = APPLICATION_CONTEXT ( 'automotive_design' ) ;
#85 = LINE ( 'NONE', #191, #254 ) ;
#86 = DIRECTION ( 'NONE',  ( 0.0000000000000000000, 0.0000000000000000000, 1.000000000000000000 ) ) ;
#87 = CARTESIAN_POINT ( 'NONE',  ( 0.0000000000000000000, 0.0000000000000000000, 0.4330709999999999837 ) ) ;
#88 = UNCERTAINTY_MEASURE_WITH_UNIT (LENGTH_MEASURE( 1.000000000000000082E-05 ), #307, 'distance_accuracy_value', 'NONE');
#89 = DIMENSIONAL_EXPONENTS ( 1.000000000000000000, 0.0000000000000000000, 0.0000000000000000000, 0.0000000000000000000, 0.0000000000000000000, 0.0000000000000000000, 0.0000000000000000000 ) ;
#90 = DIRECTION ( 'NONE',  ( -0.0000000000000000000, 0.0000000000000000000, -1.000000000000000000 ) ) ;
#91 = EDGE_CURVE ( 'NONE', #201, #291, #85, .T. ) ;
#92 = DIMENSIONAL_EXPONENTS ( 1.000000000000000000, 0.0000000000000000000, 0.0000000000000000000, 0.0000000000000000000, 0.0000000000000000000, 0.0000000000000000000, 0.0000000000000000000 ) ;
#93 = DIRECTION ( 'NONE',  ( -0.0000000000000000000, -0.0000000000000000000, -1.000000000000000000 ) ) ;
#94 = AXIS2_PLACEMENT_3D ( 'NONE', #184, #293, #131 ) ;
#95 = MECHANICAL_DESIGN_GEOMETRIC_PRESENTATION_REPRESENTATION (  '', ( #244 ), #234 ) ;
#96 = DIRECTION ( 'NONE',  ( -1.000000000000000000, 0.0000000000000000000, 0.0000000000000000000 ) ) ;
#97 = DIRECTION ( 'NONE',  ( -1.000000000000000000, 0.0000000000000000000, 0.0000000000000000000 ) ) ;
#98 = ADVANCED_FACE ( 'NONE', ( #38 ), #139, .T. ) ;
#99 = CARTESIAN_POINT ( 'NONE',  ( 0.0000000000000000000, 0.0000000000000000000, 0.0000000000000000000 ) ) ;
#100 = CONICAL_SURFACE ( 'NONE', #165, 0.007499999999999999722, 1.047197551196600518 ) ;
#101 = EDGE_CURVE ( 'NONE', #193, #291, #268, .T. ) ;
#102 = CONICAL_SURFACE ( 'NONE', #3, 0.06374000000000018540, 0.7853981633974522758 ) ;
#103 = CARTESIAN_POINT ( 'NONE',  ( 0.0000000000000000000, 0.0000000000000000000, 0.0000000000000000000 ) ) ;
#104 = ORIENTED_EDGE ( 'NONE', *, *, #328, .T. ) ;
#105 = VERTEX_POINT ( 'NONE', #277 ) ;
#106 = SURFACE_STYLE_USAGE ( .BOTH. , #159 ) ;
#107 = ORIENTED_EDGE ( 'NONE', *, *, #308, .T. ) ;
#108 = EDGE_CURVE ( 'NONE', #238, #193, #202, .T. ) ;
#109 =( GEOMETRIC_REPRESENTATION_CONTEXT ( 3 ) GLOBAL_UNCERTAINTY_ASSIGNED_CONTEXT ( ( #88 ) ) GLOBAL_UNIT_ASSIGNED_CONTEXT ( ( #307, #78, #279 ) ) REPRESENTATION_CONTEXT ( 'NONE', 'WORKASPACE' ) );
#110 = CYLINDRICAL_SURFACE ( 'NONE', #79, 0.07869000000000003769 ) ;
#111 = EDGE_LOOP ( 'NONE', ( #235, #104 ) ) ;
#112 = DIRECTION ( 'NONE',  ( -1.000000000000000000, 0.0000000000000000000, 0.0000000000000000000 ) ) ;
#113 = DIRECTION ( 'NONE',  ( 0.0000000000000000000, 0.0000000000000000000, 1.000000000000000000 ) ) ;
#114 = ORIENTED_EDGE ( 'NONE', *, *, #171, .F. ) ;
#115 = AXIS2_PLACEMENT_3D ( 'NONE', #313, #37, #214 ) ;
#116 = CARTESIAN_POINT ( 'NONE',  ( 0.06374000000000018540, 8.724383797125754882E-18, 1.968503999999999809 ) ) ;
#117 = ORIENTED_EDGE ( 'NONE', *, *, #27, .F. ) ;
#118 = FACE_OUTER_BOUND ( 'NONE', #185, .T. ) ;
#119 = FACE_OUTER_BOUND ( 'NONE', #321, .T. ) ;
#120 = MECHANICAL_DESIGN_GEOMETRIC_PRESENTATION_REPRESENTATION (  '', ( #55 ), #250 ) ;
#121 = CARTESIAN_POINT ( 'NONE',  ( 0.0000000000000000000, 0.0000000000000000000, 1.707404996040164512E-17 ) ) ;
#122 = VECTOR ( 'NONE', #300, 39.37007874015748143 ) ;
#123 = LENGTH_MEASURE_WITH_UNIT ( LENGTH_MEASURE( 0.02539999999999999897 ), #309 );
#124 = ADVANCED_FACE ( 'NONE', ( #169 ), #301, .T. ) ;
#125 = SURFACE_STYLE_FILL_AREA ( #303 ) ;
#126 = PRESENTATION_STYLE_ASSIGNMENT (( #80 ) ) ;
#127 = VECTOR ( 'NONE', #324, 39.37007874015748854 ) ;
#128 = CARTESIAN_POINT ( 'NONE',  ( 0.0000000000000000000, 0.0000000000000000000, 1.707404996040164512E-17 ) ) ;
#129 = ORIENTED_EDGE ( 'NONE', *, *, #91, .T. ) ;
#130 = CIRCLE ( 'NONE', #194, 0.06374000000000018540 ) ;
#131 = DIRECTION ( 'NONE',  ( 1.000000000000000000, 0.0000000000000000000, 0.0000000000000000000 ) ) ;
#132 = ORIENTED_EDGE ( 'NONE', *, *, #2, .F. ) ;
#133 = ORIENTED_EDGE ( 'NONE', *, *, #274, .T. ) ;
#134 = ORIENTED_EDGE ( 'NONE', *, *, #308, .F. ) ;
#135 = ORIENTED_EDGE ( 'NONE', *, *, #6, .F. ) ;
#136 = CARTESIAN_POINT ( 'NONE',  ( 0.007499999999999999722, 0.0000000000000000000, 1.707404996040164512E-17 ) ) ;
#137 = CIRCLE ( 'NONE', #320, 0.07874000000000000443 ) ;
#138 = AXIS2_PLACEMENT_3D ( 'NONE', #99, #329, #259 ) ;
#139 = CYLINDRICAL_SURFACE ( 'NONE', #182, 0.07874000000000000443 ) ;
#140 = CARTESIAN_POINT ( 'NONE',  ( -0.07869000000000000994, 9.636745662490523605E-18, 0.04110156566360921582 ) ) ;
#141 = AXIS2_PLACEMENT_3D ( 'NONE', #270, #90, #195 ) ;
#142 = PLANE ( 'NONE',  #141 ) ;
#143 = EDGE_CURVE ( 'NONE', #220, #67, #173, .T. ) ;
#144 = FACE_BOUND ( 'NONE', #284, .T. ) ;
#145 = CARTESIAN_POINT ( 'NONE',  ( 0.07869000000000006545, 9.636745662490529768E-18, 0.4330709999999999837 ) ) ;
#146 = CARTESIAN_POINT ( 'NONE',  ( 0.0000000000000000000, 0.0000000000000000000, 0.0000000000000000000 ) ) ;
#147 = CIRCLE ( 'NONE', #94, 0.07874000000000000443 ) ;
#148 = FILL_AREA_STYLE_COLOUR ( '', #51 ) ;
#149 = LINE ( 'NONE', #178, #261 ) ;
#150 = CARTESIAN_POINT ( 'NONE',  ( 0.0000000000000000000, 0.0000000000000000000, 1.968503999999999809 ) ) ;
#151 = CIRCLE ( 'NONE', #295, 0.06374000000000018540 ) ;
#152 = AXIS2_PLACEMENT_3D ( 'NONE', #150, #257, #206 ) ;
#153 = DIRECTION ( 'NONE',  ( -0.0000000000000000000, -0.0000000000000000000, -1.000000000000000000 ) ) ;
#154 = ADVANCED_BREP_SHAPE_REPRESENTATION ( 'Micro_DMM-040-4120', ( #4, #138 ), #109 ) ;
#155 = SHAPE_DEFINITION_REPRESENTATION ( #9, #154 ) ;
#156 = ORIENTED_EDGE ( 'NONE', *, *, #247, .F. ) ;
#157 = CARTESIAN_POINT ( 'NONE',  ( 0.0000000000000000000, 0.0000000000000000000, 1.707404996040164512E-17 ) ) ;
#158 = EDGE_CURVE ( 'NONE', #291, #193, #188, .T. ) ;
#159 = SURFACE_SIDE_STYLE ('',( #36 ) ) ;
#160 = VERTEX_POINT ( 'NONE', #116 ) ;
#161 = CARTESIAN_POINT ( 'NONE',  ( 0.0000000000000000000, 0.0000000000000000000, 1.968503999999999809 ) ) ;
#162 = EDGE_CURVE ( 'NONE', #249, #13, #203, .T. ) ;
#163 = ORIENTED_EDGE ( 'NONE', *, *, #46, .F. ) ;
#164 = CARTESIAN_POINT ( 'NONE',  ( 0.0000000000000000000, 0.0000000000000000000, 1.968503999999999809 ) ) ;
#165 = AXIS2_PLACEMENT_3D ( 'NONE', #157, #32, #8 ) ;
#166 = DIRECTION ( 'NONE',  ( 1.000000000000000000, 0.0000000000000000000, 0.0000000000000000000 ) ) ;
#167 = EDGE_LOOP ( 'NONE', ( #215, #183, #272, #134 ) ) ;
#168 = DIMENSIONAL_EXPONENTS ( 1.000000000000000000, 0.0000000000000000000, 0.0000000000000000000, 0.0000000000000000000, 0.0000000000000000000, 0.0000000000000000000, 0.0000000000000000000 ) ;
#169 = FACE_OUTER_BOUND ( 'NONE', #167, .T. ) ;
#170 = CARTESIAN_POINT ( 'NONE',  ( -0.07869000000000003769, 0.0000000000000000000, 0.0000000000000000000 ) ) ;
#171 = EDGE_CURVE ( 'NONE', #13, #105, #137, .T. ) ;
#172 = AXIS2_PLACEMENT_3D ( 'NONE', #121, #113, #219 ) ;
#173 = LINE ( 'NONE', #176, #127 ) ;
#174 = CYLINDRICAL_SURFACE ( 'NONE', #45, 0.07869000000000003769 ) ;
#175 = ADVANCED_FACE ( 'NONE', ( #144, #119 ), #142, .T. ) ;
#176 = CARTESIAN_POINT ( 'NONE',  ( -0.06374000000000018540, 0.0000000000000000000, 1.968503999999999809 ) ) ;
#177 = SURFACE_SIDE_STYLE ('',( #125 ) ) ;
#178 = CARTESIAN_POINT ( 'NONE',  ( -0.007499999999999999722, 9.184850993605147975E-19, 1.707404996040164512E-17 ) ) ;
#179 = CARTESIAN_POINT ( 'NONE',  ( 0.0000000000000000000, 0.0000000000000000000, 1.968503999999999809 ) ) ;
#180 = DIRECTION ( 'NONE',  ( -0.8660254037844400399, 1.060575238724908640E-16, 0.4999999999999976685 ) ) ;
#181 = COLOUR_RGB ( '',0.7921568627450980005, 0.8196078431372548767, 0.9333333333333333481 ) ;
#182 = AXIS2_PLACEMENT_3D ( 'NONE', #218, #318, #192 ) ;
#183 = ORIENTED_EDGE ( 'NONE', *, *, #162, .T. ) ;
#184 = CARTESIAN_POINT ( 'NONE',  ( 0.0000000000000000000, 0.0000000000000000000, 1.953504000000000129 ) ) ;
#185 = EDGE_LOOP ( 'NONE', ( #285, #129, #242, #236 ) ) ;
#186 = ORIENTED_EDGE ( 'NONE', *, *, #108, .T. ) ;
#187 =( LENGTH_UNIT ( ) NAMED_UNIT ( * ) SI_UNIT ( $, .METRE. ) );
#188 = CIRCLE ( 'NONE', #258, 0.07869000000000000994 ) ;
#189 = ORIENTED_EDGE ( 'NONE', *, *, #171, .T. ) ;
#190 = CARTESIAN_POINT ( 'NONE',  ( 0.0000000000000000000, 0.0000000000000000000, 1.953504000000000129 ) ) ;
#191 = CARTESIAN_POINT ( 'NONE',  ( 0.07869000000000003769, 9.636745662490528228E-18, 0.0000000000000000000 ) ) ;
#192 = DIRECTION ( 'NONE',  ( -1.000000000000000000, 0.0000000000000000000, 0.0000000000000000000 ) ) ;
#193 = VERTEX_POINT ( 'NONE', #140 ) ;
#194 = AXIS2_PLACEMENT_3D ( 'NONE', #164, #81, #166 ) ;
#195 = DIRECTION ( 'NONE',  ( -1.000000000000000000, 0.0000000000000000000, 0.0000000000000000000 ) ) ;
#196 = VERTEX_POINT ( 'NONE', #222 ) ;
#197 = ADVANCED_FACE ( 'NONE', ( #17 ), #74, .F. ) ;
#198 = DIRECTION ( 'NONE',  ( -0.0000000000000000000, -0.0000000000000000000, -1.000000000000000000 ) ) ;
#199 = ORIENTED_EDGE ( 'NONE', *, *, #213, .F. ) ;
#200 = DIRECTION ( 'NONE',  ( 0.8660254037844400399, 0.0000000000000000000, 0.4999999999999976685 ) ) ;
#201 = VERTEX_POINT ( 'NONE', #145 ) ;
#202 = LINE ( 'NONE', #170, #28 ) ;
#203 = LINE ( 'NONE', #248, #122 ) ;
#204 = CARTESIAN_POINT ( 'NONE',  ( -0.07874000000000000443, 0.0000000000000000000, 1.968503999999999809 ) ) ;
#205 = DIRECTION ( 'NONE',  ( 0.0000000000000000000, 0.0000000000000000000, -1.000000000000000000 ) ) ;
#206 = DIRECTION ( 'NONE',  ( -1.000000000000000000, 0.0000000000000000000, 0.0000000000000000000 ) ) ;
#207 = PRODUCT_DEFINITION ( 'UNKNOWN', '', #310, #226 ) ;
#208 = ORIENTED_EDGE ( 'NONE', *, *, #42, .T. ) ;
#209 = FACE_OUTER_BOUND ( 'NONE', #52, .T. ) ;
#210 = EDGE_CURVE ( 'NONE', #83, #291, #297, .T. ) ;
#211 = DIRECTION ( 'NONE',  ( -1.000000000000000000, 0.0000000000000000000, 0.0000000000000000000 ) ) ;
#212 = ORIENTED_EDGE ( 'NONE', *, *, #143, .T. ) ;
#213 = EDGE_CURVE ( 'NONE', #160, #249, #322, .T. ) ;
#214 = DIRECTION ( 'NONE',  ( -1.000000000000000000, 0.0000000000000000000, 0.0000000000000000000 ) ) ;
#215 = ORIENTED_EDGE ( 'NONE', *, *, #19, .T. ) ;
#216 = PLANE ( 'NONE',  #287 ) ;
#217 = EDGE_CURVE ( 'NONE', #105, #13, #71, .T. ) ;
#218 = CARTESIAN_POINT ( 'NONE',  ( 0.0000000000000000000, 0.0000000000000000000, 1.968503999999999809 ) ) ;
#219 = DIRECTION ( 'NONE',  ( 1.000000000000000000, 0.0000000000000000000, 0.0000000000000000000 ) ) ;
#220 = VERTEX_POINT ( 'NONE', #73 ) ;
#221 = AXIS2_PLACEMENT_3D ( 'NONE', #223, #278, #49 ) ;
#222 = CARTESIAN_POINT ( 'NONE',  ( -0.007499999999999999722, 5.277615380925519009E-18, 1.707404996040164512E-17 ) ) ;
#223 = CARTESIAN_POINT ( 'NONE',  ( 0.0000000000000000000, 0.0000000000000000000, 0.4330709999999999837 ) ) ;
#224 = DIRECTION ( 'NONE',  ( -0.0000000000000000000, -0.0000000000000000000, -1.000000000000000000 ) ) ;
#225 = CARTESIAN_POINT ( 'NONE',  ( 0.0000000000000000000, 0.0000000000000000000, 0.04110156566360921582 ) ) ;
#226 = PRODUCT_DEFINITION_CONTEXT ( 'detailed design', #84, 'design' ) ;
#227 =( NAMED_UNIT ( * ) SI_UNIT ( $, .STERADIAN. ) SOLID_ANGLE_UNIT ( ) );
#228 = ADVANCED_FACE ( 'NONE', ( #118 ), #174, .T. ) ;
#229 = AXIS2_PLACEMENT_3D ( 'NONE', #190, #237, #245 ) ;
#230 = PRODUCT ( 'Micro_DMM-040-4120', 'Micro_DMM-040-4120', '', ( #263 ) ) ;
#231 = ORIENTED_EDGE ( 'NONE', *, *, #213, .T. ) ;
#232 =( NAMED_UNIT ( * ) PLANE_ANGLE_UNIT ( ) SI_UNIT ( $, .RADIAN. ) );
#233 = CIRCLE ( 'NONE', #229, 0.07874000000000000443 ) ;
#234 =( GEOMETRIC_REPRESENTATION_CONTEXT ( 3 ) GLOBAL_UNCERTAINTY_ASSIGNED_CONTEXT ( ( #70 ) ) GLOBAL_UNIT_ASSIGNED_CONTEXT ( ( #255, #232, #227 ) ) REPRESENTATION_CONTEXT ( 'NONE', 'WORKASPACE' ) );
#235 = ORIENTED_EDGE ( 'NONE', *, *, #2, .T. ) ;
#236 = ORIENTED_EDGE ( 'NONE', *, *, #108, .F. ) ;
#237 = DIRECTION ( 'NONE',  ( 0.0000000000000000000, 0.0000000000000000000, -1.000000000000000000 ) ) ;
#238 = VERTEX_POINT ( 'NONE', #48 ) ;
#239 = ORIENTED_EDGE ( 'NONE', *, *, #274, .F. ) ;
#240 = FILL_AREA_STYLE_COLOUR ( '', #181 ) ;
#241 = FILL_AREA_STYLE ('',( #240 ) ) ;
#242 = ORIENTED_EDGE ( 'NONE', *, *, #101, .F. ) ;
#243 = CIRCLE ( 'NONE', #115, 0.07869000000000006545 ) ;
#244 = STYLED_ITEM ( 'NONE', ( #126 ), #154 ) ;
#245 = DIRECTION ( 'NONE',  ( 1.000000000000000000, 0.0000000000000000000, 0.0000000000000000000 ) ) ;
#246 = CARTESIAN_POINT ( 'NONE',  ( 0.07874000000000000443, 9.642868896486258509E-18, 0.4330709999999999837 ) ) ;
#247 = EDGE_CURVE ( 'NONE', #238, #201, #18, .T. ) ;
#248 = CARTESIAN_POINT ( 'NONE',  ( 0.07874000000000000443, 9.642868896486258509E-18, 1.968503999999999809 ) ) ;
#249 = VERTEX_POINT ( 'NONE', #253 ) ;
#250 =( GEOMETRIC_REPRESENTATION_CONTEXT ( 3 ) GLOBAL_UNCERTAINTY_ASSIGNED_CONTEXT ( ( #304 ) ) GLOBAL_UNIT_ASSIGNED_CONTEXT ( ( #11, #283, #12 ) ) REPRESENTATION_CONTEXT ( 'NONE', 'WORKASPACE' ) );
#251 = DIRECTION ( 'NONE',  ( 1.000000000000000000, 0.0000000000000000000, -0.0000000000000000000 ) ) ;
#252 = DIRECTION ( 'NONE',  ( -1.000000000000000000, 0.0000000000000000000, 0.0000000000000000000 ) ) ;
#253 = CARTESIAN_POINT ( 'NONE',  ( 0.07874000000000000443, 9.642868896486258509E-18, 1.953504000000000129 ) ) ;
#254 = VECTOR ( 'NONE', #266, 39.37007874015748143 ) ;
#255 =( CONVERSION_BASED_UNIT ( 'INCH', #123 ) LENGTH_UNIT ( ) NAMED_UNIT ( #89 ) );
#256 = ADVANCED_FACE ( 'NONE', ( #23 ), #315, .T. ) ;
#257 = DIRECTION ( 'NONE',  ( 0.0000000000000000000, 0.0000000000000000000, -1.000000000000000000 ) ) ;
#258 = AXIS2_PLACEMENT_3D ( 'NONE', #296, #93, #96 ) ;
#259 = DIRECTION ( 'NONE',  ( 1.000000000000000000, 0.0000000000000000000, 0.0000000000000000000 ) ) ;
#260 = LENGTH_MEASURE_WITH_UNIT ( LENGTH_MEASURE( 0.02539999999999999897 ), #187 );
#261 = VECTOR ( 'NONE', #180, 39.37007874015748143 ) ;
#262 = ORIENTED_EDGE ( 'NONE', *, *, #91, .F. ) ;
#263 = PRODUCT_CONTEXT ( 'NONE', #271, 'mechanical' ) ;
#264 = FACE_OUTER_BOUND ( 'NONE', #39, .T. ) ;
#265 = EDGE_LOOP ( 'NONE', ( #60, #231, #34, #290 ) ) ;
#266 = DIRECTION ( 'NONE',  ( -0.0000000000000000000, -0.0000000000000000000, -1.000000000000000000 ) ) ;
#267 = PRESENTATION_LAYER_ASSIGNMENT (  '', '', ( #55 ) ) ;
#268 = CIRCLE ( 'NONE', #305, 0.07869000000000000994 ) ;
#269 = ADVANCED_FACE ( 'NONE', ( #319 ), #102, .T. ) ;
#270 = CARTESIAN_POINT ( 'NONE',  ( 0.07869000000000006545, 0.0000000000000000000, 0.4330709999999999837 ) ) ;
#271 = APPLICATION_CONTEXT ( 'automotive_design' ) ;
#272 = ORIENTED_EDGE ( 'NONE', *, *, #217, .F. ) ;
#273 = CARTESIAN_POINT ( 'NONE',  ( 0.0000000000000000000, 0.0000000000000000000, 0.0000000000000000000 ) ) ;
#274 = EDGE_CURVE ( 'NONE', #196, #193, #149, .T. ) ;
#275 = PRESENTATION_LAYER_ASSIGNMENT (  '', '', ( #244 ) ) ;
#276 = CARTESIAN_POINT ( 'NONE',  ( 0.0000000000000000000, 0.0000000000000000000, 0.4330709999999999837 ) ) ;
#277 = CARTESIAN_POINT ( 'NONE',  ( -0.07874000000000000443, 0.0000000000000000000, 0.4330709999999999837 ) ) ;
#278 = DIRECTION ( 'NONE',  ( -0.0000000000000000000, -0.0000000000000000000, -1.000000000000000000 ) ) ;
#279 =( NAMED_UNIT ( * ) SI_UNIT ( $, .STERADIAN. ) SOLID_ANGLE_UNIT ( ) );
#280 = ADVANCED_FACE ( 'NONE', ( #209 ), #326, .T. ) ;
#281 =( LENGTH_UNIT ( ) NAMED_UNIT ( * ) SI_UNIT ( $, .METRE. ) );
#282 = ORIENTED_EDGE ( 'NONE', *, *, #158, .T. ) ;
#283 =( NAMED_UNIT ( * ) PLANE_ANGLE_UNIT ( ) SI_UNIT ( $, .RADIAN. ) );
#284 = EDGE_LOOP ( 'NONE', ( #156, #135 ) ) ;
#285 = ORIENTED_EDGE ( 'NONE', *, *, #247, .T. ) ;
#286 = FACE_OUTER_BOUND ( 'NONE', #40, .T. ) ;
#287 = AXIS2_PLACEMENT_3D ( 'NONE', #161, #317, #61 ) ;
#288 = ORIENTED_EDGE ( 'NONE', *, *, #101, .T. ) ;
#289 = DIRECTION ( 'NONE',  ( 1.000000000000000000, 0.0000000000000000000, 0.0000000000000000000 ) ) ;
#290 = ORIENTED_EDGE ( 'NONE', *, *, #143, .F. ) ;
#291 = VERTEX_POINT ( 'NONE', #306 ) ;
#292 = DIRECTION ( 'NONE',  ( -0.0000000000000000000, -0.0000000000000000000, -1.000000000000000000 ) ) ;
#293 = DIRECTION ( 'NONE',  ( 0.0000000000000000000, 0.0000000000000000000, -1.000000000000000000 ) ) ;
#294 = EDGE_LOOP ( 'NONE', ( #302, #208 ) ) ;
#295 = AXIS2_PLACEMENT_3D ( 'NONE', #311, #54, #289 ) ;
#296 = CARTESIAN_POINT ( 'NONE',  ( 0.0000000000000000000, 0.0000000000000000000, 0.04110156566360921582 ) ) ;
#297 = LINE ( 'NONE', #22, #299 ) ;
#298 = DIRECTION ( 'NONE',  ( -0.0000000000000000000, -0.0000000000000000000, -1.000000000000000000 ) ) ;
#299 = VECTOR ( 'NONE', #200, 39.37007874015748143 ) ;
#300 = DIRECTION ( 'NONE',  ( -0.0000000000000000000, -0.0000000000000000000, -1.000000000000000000 ) ) ;
#301 = CYLINDRICAL_SURFACE ( 'NONE', #31, 0.07874000000000000443 ) ;
#302 = ORIENTED_EDGE ( 'NONE', *, *, #46, .T. ) ;
#303 = FILL_AREA_STYLE ('',( #148 ) ) ;
#304 = UNCERTAINTY_MEASURE_WITH_UNIT (LENGTH_MEASURE( 1.000000000000000082E-05 ), #11, 'distance_accuracy_value', 'NONE');
#305 = AXIS2_PLACEMENT_3D ( 'NONE', #225, #224, #16 ) ;
#306 = CARTESIAN_POINT ( 'NONE',  ( 0.07869000000000000994, 0.0000000000000000000, 0.04110156566360921582 ) ) ;
#307 =( CONVERSION_BASED_UNIT ( 'INCH', #76 ) LENGTH_UNIT ( ) NAMED_UNIT ( #92 ) );
#308 = EDGE_CURVE ( 'NONE', #67, #105, #1, .T. ) ;
#309 =( LENGTH_UNIT ( ) NAMED_UNIT ( * ) SI_UNIT ( $, .METRE. ) );
#310 = PRODUCT_DEFINITION_FORMATION_WITH_SPECIFIED_SOURCE ( 'ANY', '', #230, .NOT_KNOWN. ) ;
#311 = CARTESIAN_POINT ( 'NONE',  ( 0.0000000000000000000, 0.0000000000000000000, 1.968503999999999809 ) ) ;
#312 = EDGE_LOOP ( 'NONE', ( #56, #35, #107, #114 ) ) ;
#313 = CARTESIAN_POINT ( 'NONE',  ( 0.0000000000000000000, 0.0000000000000000000, 0.4330709999999999837 ) ) ;
#314 = AXIS2_PLACEMENT_3D ( 'NONE', #128, #292, #211 ) ;
#315 = CONICAL_SURFACE ( 'NONE', #172, 0.007499999999999999722, 1.047197551196600518 ) ;
#316 = ORIENTED_EDGE ( 'NONE', *, *, #158, .F. ) ;
#317 = DIRECTION ( 'NONE',  ( 0.0000000000000000000, 0.0000000000000000000, 1.000000000000000000 ) ) ;
#318 = DIRECTION ( 'NONE',  ( -0.0000000000000000000, -0.0000000000000000000, -1.000000000000000000 ) ) ;
#319 = FACE_OUTER_BOUND ( 'NONE', #265, .T. ) ;
#320 = AXIS2_PLACEMENT_3D ( 'NONE', #87, #198, #66 ) ;
#321 = EDGE_LOOP ( 'NONE', ( #7, #189 ) ) ;
#322 = LINE ( 'NONE', #68, #325 ) ;
#323 = DIRECTION ( 'NONE',  ( -0.0000000000000000000, -0.0000000000000000000, -1.000000000000000000 ) ) ;
#324 = DIRECTION ( 'NONE',  ( -0.7071067811865502373, 0.0000000000000000000, -0.7071067811865446862 ) ) ;
#325 = VECTOR ( 'NONE', #20, 39.37007874015748854 ) ;
#326 = CONICAL_SURFACE ( 'NONE', #152, 0.06374000000000018540, 0.7853981633974522758 ) ;
#327 = DIRECTION ( 'NONE',  ( -0.0000000000000000000, -0.0000000000000000000, -1.000000000000000000 ) ) ;
#328 = EDGE_CURVE ( 'NONE', #196, #83, #72, .T. ) ;
#329 = DIRECTION ( 'NONE',  ( 0.0000000000000000000, 0.0000000000000000000, 1.000000000000000000 ) ) ;
ENDSEC;
END-ISO-10303-21;
