ISO-10303-21;
HEADER;
FILE_DESCRIPTION (( 'STEP AP214' ),
    '1' );
FILE_NAME ('59766.STEP',
    '2023-07-24T15:56:52',
    ( '' ),
    ( '' ),
    'SwSTEP 2.0',
    'SolidWorks 2023',
    '' );
FILE_SCHEMA (( 'AUTOMOTIVE_DESIGN' ));
ENDSEC;

DATA;
#1 = STYLED_ITEM ( 'NONE', ( #53 ), #52 ) ;
#2 = MECHANICAL_DESIGN_GEOMETRIC_PRESENTATION_REPRESENTATION (  '', ( #119 ), #234 ) ;
#3 = CARTESIAN_POINT ( 'NONE',  ( 6.123233995736762930E-15, 75.00000000000000000, 0.000000000000000000 ) ) ;
#4 = SURFACE_STYLE_FILL_AREA ( #166 ) ;
#5 = DIRECTION ( 'NONE',  ( 0.000000000000000000, 0.000000000000000000, -1.000000000000000000 ) ) ;
#6 = AXIS2_PLACEMENT_3D ( 'NONE', #104, #72, #159 ) ;
#7 = DIRECTION ( 'NONE',  ( -1.000000000000000000, 0.000000000000000000, 0.000000000000000000 ) ) ;
#8 = DIRECTION ( 'NONE',  ( -0.000000000000000000, -1.000000000000000000, -0.000000000000000000 ) ) ;
#9 = CLOSED_SHELL ( 'NONE', ( #52, #85, #165, #265 ) ) ;
#10 = FILL_AREA_STYLE_COLOUR ( '', #76 ) ;
#11 = PRODUCT_DEFINITION_CONTEXT ( 'detailed design', #56, 'design' ) ;
#12 = DIRECTION ( 'NONE',  ( 1.000000000000000000, -1.224646799147352961E-16, 0.000000000000000000 ) ) ;
#13 =( NAMED_UNIT ( * ) SI_UNIT ( $, .STERADIAN. ) SOLID_ANGLE_UNIT ( ) );
#14 =( NAMED_UNIT ( * ) SI_UNIT ( $, .STERADIAN. ) SOLID_ANGLE_UNIT ( ) );
#15 = DIRECTION ( 'NONE',  ( 0.000000000000000000, 0.000000000000000000, 1.000000000000000000 ) ) ;
#16 = SURFACE_STYLE_FILL_AREA ( #259 ) ;
#17 = APPLICATION_PROTOCOL_DEFINITION ( 'draft international standard', 'automotive_design', 1998, #137 ) ;
#18 = AXIS2_PLACEMENT_3D ( 'NONE', #54, #74, #5 ) ;
#19 = DIRECTION ( 'NONE',  ( -1.000000000000000000, 0.000000000000000000, 0.000000000000000000 ) ) ;
#20 = CARTESIAN_POINT ( 'NONE',  ( 0.000000000000000000, 0.000000000000000000, 0.000000000000000000 ) ) ;
#21 = CLOSED_SHELL ( 'NONE', ( #91, #179, #233, #157 ) ) ;
#22 = MECHANICAL_DESIGN_GEOMETRIC_PRESENTATION_REPRESENTATION (  '', ( #141 ), #256 ) ;
#23 = CARTESIAN_POINT ( 'NONE',  ( 0.000000000000000000, 0.000000000000000000, 0.000000000000000000 ) ) ;
#24 = CARTESIAN_POINT ( 'NONE',  ( 6.123233995736762930E-15, 75.00000000000000000, 0.000000000000000000 ) ) ;
#25 = VECTOR ( 'NONE', #180, 1000.000000000000000 ) ;
#26 = EDGE_LOOP ( 'NONE', ( #160, #92 ) ) ;
#27 = EDGE_LOOP ( 'NONE', ( #208, #29 ) ) ;
#28 = DIRECTION ( 'NONE',  ( 1.224646799147352961E-16, 1.000000000000000000, -0.000000000000000000 ) ) ;
#29 = ORIENTED_EDGE ( 'NONE', *, *, #253, .F. ) ;
#30 = EDGE_CURVE ( 'NONE', #249, #73, #267, .T. ) ;
#31 = ORIENTED_EDGE ( 'NONE', *, *, #260, .T. ) ;
#32 = VERTEX_POINT ( 'NONE', #135 ) ;
#33 =( NAMED_UNIT ( * ) SI_UNIT ( $, .STERADIAN. ) SOLID_ANGLE_UNIT ( ) );
#34 = PRODUCT ( '59766', '59766', '', ( #212 ) ) ;
#35 = FACE_OUTER_BOUND ( 'NONE', #27, .T. ) ;
#36 = PLANE ( 'NONE',  #151 ) ;
#37 = FACE_OUTER_BOUND ( 'NONE', #203, .T. ) ;
#38 = CYLINDRICAL_SURFACE ( 'NONE', #214, 4.999999999999997335 ) ;
#39 = CARTESIAN_POINT ( 'NONE',  ( 0.000000000000000000, 0.000000000000000000, 0.000000000000000000 ) ) ;
#40 = DIRECTION ( 'NONE',  ( 1.000000000000000000, 0.000000000000000000, 0.000000000000000000 ) ) ;
#41 = UNCERTAINTY_MEASURE_WITH_UNIT (LENGTH_MEASURE( 1.000000000000000082E-05 ), #103, 'distance_accuracy_value', 'NONE');
#42 = CARTESIAN_POINT ( 'NONE',  ( 6.123233995736766282E-16, 25.00000000000000000, 5.000000000000000000 ) ) ;
#43 = SURFACE_STYLE_USAGE ( .BOTH. , #241 ) ;
#44 = FACE_OUTER_BOUND ( 'NONE', #266, .T. ) ;
#45 =( GEOMETRIC_REPRESENTATION_CONTEXT ( 3 ) GLOBAL_UNCERTAINTY_ASSIGNED_CONTEXT ( ( #194 ) ) GLOBAL_UNIT_ASSIGNED_CONTEXT ( ( #227, #97, #277 ) ) REPRESENTATION_CONTEXT ( 'NONE', 'WORKASPACE' ) );
#46 = EDGE_LOOP ( 'NONE', ( #185, #270, #250, #183 ) ) ;
#47 = ORIENTED_EDGE ( 'NONE', *, *, #117, .T. ) ;
#48 = ORIENTED_EDGE ( 'NONE', *, *, #211, .T. ) ;
#49 = AXIS2_PLACEMENT_3D ( 'NONE', #39, #63, #55 ) ;
#50 = AXIS2_PLACEMENT_3D ( 'NONE', #236, #87, #196 ) ;
#51 = PRESENTATION_STYLE_ASSIGNMENT (( #201 ) ) ;
#52 = ADVANCED_FACE ( 'NONE', ( #116 ), #276, .T. ) ;
#53 = PRESENTATION_STYLE_ASSIGNMENT (( #251 ) ) ;
#54 = CARTESIAN_POINT ( 'NONE',  ( 0.000000000000000000, 25.00000000000000000, 0.000000000000000000 ) ) ;
#55 = DIRECTION ( 'NONE',  ( 0.000000000000000000, 0.000000000000000000, -1.000000000000000000 ) ) ;
#56 = APPLICATION_CONTEXT ( 'automotive_design' ) ;
#57 = PRESENTATION_LAYER_ASSIGNMENT (  '', '', ( #119 ) ) ;
#58 = CARTESIAN_POINT ( 'NONE',  ( 5.000000000000000000, 75.00000000000000000, 6.123233995736764310E-16 ) ) ;
#59 = FILL_AREA_STYLE_COLOUR ( '', #222 ) ;
#60 = UNCERTAINTY_MEASURE_WITH_UNIT (LENGTH_MEASURE( 1.000000000000000082E-05 ), #240, 'distance_accuracy_value', 'NONE');
#61 = SURFACE_SIDE_STYLE ('',( #258 ) ) ;
#62 = AXIS2_PLACEMENT_3D ( 'NONE', #150, #193, #282 ) ;
#63 = DIRECTION ( 'NONE',  ( -0.000000000000000000, -1.000000000000000000, -0.000000000000000000 ) ) ;
#64 = CIRCLE ( 'NONE', #18, 5.000000000000000000 ) ;
#65 = CARTESIAN_POINT ( 'NONE',  ( 0.000000000000000000, 25.00000000000000000, -5.000000000000000000 ) ) ;
#66 = EDGE_CURVE ( 'NONE', #187, #181, #79, .T. ) ;
#67 = EDGE_CURVE ( 'NONE', #73, #90, #173, .T. ) ;
#68 = FILL_AREA_STYLE ('',( #127 ) ) ;
#69 = ADVANCED_BREP_SHAPE_REPRESENTATION ( '59766', ( #288, #192, #198 ), #223 ) ;
#70 = EDGE_LOOP ( 'NONE', ( #272, #200 ) ) ;
#71 = PRESENTATION_LAYER_ASSIGNMENT (  '', '', ( #1 ) ) ;
#72 = DIRECTION ( 'NONE',  ( 0.000000000000000000, -1.000000000000000000, -0.000000000000000000 ) ) ;
#73 = VERTEX_POINT ( 'NONE', #213 ) ;
#74 = DIRECTION ( 'NONE',  ( -0.000000000000000000, -1.000000000000000000, -0.000000000000000000 ) ) ;
#75 = ORIENTED_EDGE ( 'NONE', *, *, #66, .T. ) ;
#76 = COLOUR_RGB ( '',1.000000000000000000, 0.000000000000000000, 0.000000000000000000 ) ;
#77 = EDGE_LOOP ( 'NONE', ( #47, #31 ) ) ;
#78 = DIRECTION ( 'NONE',  ( -1.000000000000000000, 0.000000000000000000, 0.000000000000000000 ) ) ;
#79 = CIRCLE ( 'NONE', #146, 5.000000000000000000 ) ;
#80 = CIRCLE ( 'NONE', #268, 5.000000000000000000 ) ;
#81 = CARTESIAN_POINT ( 'NONE',  ( 5.000000000000003553, 75.00000000000000000, 6.123233995736763324E-16 ) ) ;
#82 = DIRECTION ( 'NONE',  ( -0.000000000000000000, -1.000000000000000000, -0.000000000000000000 ) ) ;
#83 = UNCERTAINTY_MEASURE_WITH_UNIT (LENGTH_MEASURE( 1.000000000000000082E-05 ), #129, 'distance_accuracy_value', 'NONE');
#84 =( NAMED_UNIT ( * ) PLANE_ANGLE_UNIT ( ) SI_UNIT ( $, .RADIAN. ) );
#85 = ADVANCED_FACE ( 'NONE', ( #284 ), #195, .T. ) ;
#86 = DIRECTION ( 'NONE',  ( 1.224646799147352961E-16, 1.000000000000000000, -0.000000000000000000 ) ) ;
#87 = DIRECTION ( 'NONE',  ( 1.224646799147352961E-16, 1.000000000000000000, -0.000000000000000000 ) ) ;
#88 =( GEOMETRIC_REPRESENTATION_CONTEXT ( 3 ) GLOBAL_UNCERTAINTY_ASSIGNED_CONTEXT ( ( #41 ) ) GLOBAL_UNIT_ASSIGNED_CONTEXT ( ( #103, #169, #14 ) ) REPRESENTATION_CONTEXT ( 'NONE', 'WORKASPACE' ) );
#89 = COLOUR_RGB ( '',1.000000000000000000, 0.000000000000000000, 0.000000000000000000 ) ;
#90 = VERTEX_POINT ( 'NONE', #58 ) ;
#91 = ADVANCED_FACE ( 'NONE', ( #257 ), #38, .T. ) ;
#92 = ORIENTED_EDGE ( 'NONE', *, *, #271, .T. ) ;
#93 =( LENGTH_UNIT ( ) NAMED_UNIT ( * ) SI_UNIT ( .MILLI., .METRE. ) );
#94 = CIRCLE ( 'NONE', #202, 4.999999999999993783 ) ;
#95 = SURFACE_SIDE_STYLE ('',( #4 ) ) ;
#96 = DIRECTION ( 'NONE',  ( 1.224646799147352961E-16, 1.000000000000000000, -0.000000000000000000 ) ) ;
#97 =( NAMED_UNIT ( * ) PLANE_ANGLE_UNIT ( ) SI_UNIT ( $, .RADIAN. ) );
#98 = FACE_OUTER_BOUND ( 'NONE', #77, .T. ) ;
#99 = DIRECTION ( 'NONE',  ( -0.000000000000000000, -1.000000000000000000, -0.000000000000000000 ) ) ;
#100 = CARTESIAN_POINT ( 'NONE',  ( -7.703719777548943412E-31, 25.00000000000000000, 0.000000000000000000 ) ) ;
#101 =( NAMED_UNIT ( * ) PLANE_ANGLE_UNIT ( ) SI_UNIT ( $, .RADIAN. ) );
#102 = PRESENTATION_LAYER_ASSIGNMENT (  '', '', ( #247 ) ) ;
#103 =( LENGTH_UNIT ( ) NAMED_UNIT ( * ) SI_UNIT ( .MILLI., .METRE. ) );
#104 = CARTESIAN_POINT ( 'NONE',  ( 0.000000000000000000, 0.000000000000000000, 0.000000000000000000 ) ) ;
#105 = CARTESIAN_POINT ( 'NONE',  ( 3.749399456654642377E-32, 25.00000000000000000, 0.000000000000000000 ) ) ;
#106 = CARTESIAN_POINT ( 'NONE',  ( -4.999999999999987566, 75.00000000000000000, 0.000000000000000000 ) ) ;
#107 = SHAPE_DEFINITION_REPRESENTATION ( #245, #69 ) ;
#108 = MECHANICAL_DESIGN_GEOMETRIC_PRESENTATION_REPRESENTATION (  '', ( #247 ), #262 ) ;
#109 = CARTESIAN_POINT ( 'NONE',  ( 0.000000000000000000, 25.00000000000000000, 0.000000000000000000 ) ) ;
#110 = SURFACE_STYLE_FILL_AREA ( #149 ) ;
#111 = SURFACE_STYLE_USAGE ( .BOTH. , #172 ) ;
#112 = SURFACE_STYLE_FILL_AREA ( #68 ) ;
#113 = MECHANICAL_DESIGN_GEOMETRIC_PRESENTATION_REPRESENTATION (  '', ( #1 ), #45 ) ;
#114 = LINE ( 'NONE', #221, #175 ) ;
#115 =( LENGTH_UNIT ( ) NAMED_UNIT ( * ) SI_UNIT ( .MILLI., .METRE. ) );
#116 = FACE_OUTER_BOUND ( 'NONE', #206, .T. ) ;
#117 = EDGE_CURVE ( 'NONE', #32, #229, #124, .T. ) ;
#118 = DIRECTION ( 'NONE',  ( 1.224646799147352961E-16, 1.000000000000000000, -0.000000000000000000 ) ) ;
#119 = STYLED_ITEM ( 'NONE', ( #285 ), #288 ) ;
#120 = ORIENTED_EDGE ( 'NONE', *, *, #67, .F. ) ;
#121 = CARTESIAN_POINT ( 'NONE',  ( 6.123233995736762930E-15, 75.00000000000000000, 0.000000000000000000 ) ) ;
#122 = DIRECTION ( 'NONE',  ( 0.000000000000000000, 0.000000000000000000, -1.000000000000000000 ) ) ;
#123 = DIRECTION ( 'NONE',  ( 1.224646799147352961E-16, 1.000000000000000000, -0.000000000000000000 ) ) ;
#124 = CIRCLE ( 'NONE', #62, 5.000000000000000000 ) ;
#125 = PLANE ( 'NONE',  #140 ) ;
#126 = SURFACE_SIDE_STYLE ('',( #16 ) ) ;
#127 = FILL_AREA_STYLE_COLOUR ( '', #164 ) ;
#128 =( NAMED_UNIT ( * ) SI_UNIT ( $, .STERADIAN. ) SOLID_ANGLE_UNIT ( ) );
#129 =( LENGTH_UNIT ( ) NAMED_UNIT ( * ) SI_UNIT ( .MILLI., .METRE. ) );
#130 = VECTOR ( 'NONE', #123, 1000.000000000000000 ) ;
#131 = AXIS2_PLACEMENT_3D ( 'NONE', #161, #8, #167 ) ;
#132 = LINE ( 'NONE', #199, #25 ) ;
#133 = STYLED_ITEM ( 'NONE', ( #255 ), #85 ) ;
#134 = CYLINDRICAL_SURFACE ( 'NONE', #243, 4.999999999999997335 ) ;
#135 = CARTESIAN_POINT ( 'NONE',  ( 0.000000000000000000, 0.000000000000000000, -5.000000000000000000 ) ) ;
#136 = VERTEX_POINT ( 'NONE', #106 ) ;
#137 = APPLICATION_CONTEXT ( 'automotive_design' ) ;
#138 = FILL_AREA_STYLE_COLOUR ( '', #254 ) ;
#139 = CARTESIAN_POINT ( 'NONE',  ( -7.703719777548943412E-31, 25.00000000000000000, 0.000000000000000000 ) ) ;
#140 = AXIS2_PLACEMENT_3D ( 'NONE', #105, #86, #264 ) ;
#141 = STYLED_ITEM ( 'NONE', ( #286 ), #192 ) ;
#142 = ORIENTED_EDGE ( 'NONE', *, *, #211, .F. ) ;
#143 = PRODUCT_DEFINITION ( 'UNKNOWN', '', #152, #11 ) ;
#144 = SURFACE_STYLE_USAGE ( .BOTH. , #126 ) ;
#145 =( NAMED_UNIT ( * ) PLANE_ANGLE_UNIT ( ) SI_UNIT ( $, .RADIAN. ) );
#146 = AXIS2_PLACEMENT_3D ( 'NONE', #279, #239, #122 ) ;
#147 = VECTOR ( 'NONE', #82, 1000.000000000000000 ) ;
#148 = FILL_AREA_STYLE ('',( #59 ) ) ;
#149 = FILL_AREA_STYLE ('',( #232 ) ) ;
#150 = CARTESIAN_POINT ( 'NONE',  ( 0.000000000000000000, 0.000000000000000000, 0.000000000000000000 ) ) ;
#151 = AXIS2_PLACEMENT_3D ( 'NONE', #235, #210, #12 ) ;
#152 = PRODUCT_DEFINITION_FORMATION_WITH_SPECIFIED_SOURCE ( 'ANY', '', #34, .NOT_KNOWN. ) ;
#153 = DIRECTION ( 'NONE',  ( -0.000000000000000000, -1.000000000000000000, -0.000000000000000000 ) ) ;
#154 = DIRECTION ( 'NONE',  ( 1.224646799147352961E-16, 1.000000000000000000, -0.000000000000000000 ) ) ;
#155 = AXIS2_PLACEMENT_3D ( 'NONE', #100, #118, #7 ) ;
#156 = ORIENTED_EDGE ( 'NONE', *, *, #260, .F. ) ;
#157 = ADVANCED_FACE ( 'NONE', ( #171 ), #36, .F. ) ;
#158 = ORIENTED_EDGE ( 'NONE', *, *, #271, .F. ) ;
#159 = DIRECTION ( 'NONE',  ( 0.000000000000000000, 0.000000000000000000, -1.000000000000000000 ) ) ;
#160 = ORIENTED_EDGE ( 'NONE', *, *, #215, .T. ) ;
#161 = CARTESIAN_POINT ( 'NONE',  ( 0.000000000000000000, 0.000000000000000000, 0.000000000000000000 ) ) ;
#162 = ORIENTED_EDGE ( 'NONE', *, *, #237, .T. ) ;
#163 = FILL_AREA_STYLE ('',( #225 ) ) ;
#164 = COLOUR_RGB ( '',0.7921568627450980005, 0.8196078431372548767, 0.9333333333333333481 ) ;
#165 = ADVANCED_FACE ( 'NONE', ( #37 ), #190, .T. ) ;
#166 = FILL_AREA_STYLE ('',( #138 ) ) ;
#167 = DIRECTION ( 'NONE',  ( 0.000000000000000000, 0.000000000000000000, -1.000000000000000000 ) ) ;
#168 = CIRCLE ( 'NONE', #50, 4.999999999999993783 ) ;
#169 =( NAMED_UNIT ( * ) PLANE_ANGLE_UNIT ( ) SI_UNIT ( $, .RADIAN. ) );
#170 = UNCERTAINTY_MEASURE_WITH_UNIT (LENGTH_MEASURE( 1.000000000000000082E-05 ), #283, 'distance_accuracy_value', 'NONE');
#171 = FACE_OUTER_BOUND ( 'NONE', #26, .T. ) ;
#172 = SURFACE_SIDE_STYLE ('',( #110 ) ) ;
#173 = LINE ( 'NONE', #81, #130 ) ;
#174 = CIRCLE ( 'NONE', #131, 5.000000000000000000 ) ;
#175 = VECTOR ( 'NONE', #153, 1000.000000000000000 ) ;
#176 =( NAMED_UNIT ( * ) PLANE_ANGLE_UNIT ( ) SI_UNIT ( $, .RADIAN. ) );
#177 = AXIS2_PLACEMENT_3D ( 'NONE', #23, #99, #274 ) ;
#178 =( GEOMETRIC_REPRESENTATION_CONTEXT ( 3 ) GLOBAL_UNCERTAINTY_ASSIGNED_CONTEXT ( ( #281 ) ) GLOBAL_UNIT_ASSIGNED_CONTEXT ( ( #93, #101, #33 ) ) REPRESENTATION_CONTEXT ( 'NONE', 'WORKASPACE' ) );
#179 = ADVANCED_FACE ( 'NONE', ( #35 ), #125, .F. ) ;
#180 = DIRECTION ( 'NONE',  ( 1.224646799147352961E-16, 1.000000000000000000, -0.000000000000000000 ) ) ;
#181 = VERTEX_POINT ( 'NONE', #65 ) ;
#182 = MECHANICAL_DESIGN_GEOMETRIC_PRESENTATION_REPRESENTATION (  '', ( #191 ), #178 ) ;
#183 = ORIENTED_EDGE ( 'NONE', *, *, #220, .F. ) ;
#184 = SURFACE_SIDE_STYLE ('',( #186 ) ) ;
#185 = ORIENTED_EDGE ( 'NONE', *, *, #30, .T. ) ;
#186 = SURFACE_STYLE_FILL_AREA ( #163 ) ;
#187 = VERTEX_POINT ( 'NONE', #42 ) ;
#188 = DIRECTION ( 'NONE',  ( 0.000000000000000000, -0.000000000000000000, 1.000000000000000000 ) ) ;
#189 = PRODUCT_RELATED_PRODUCT_CATEGORY ( 'part', '', ( #34 ) ) ;
#190 = CYLINDRICAL_SURFACE ( 'NONE', #177, 5.000000000000000000 ) ;
#191 = STYLED_ITEM ( 'NONE', ( #51 ), #265 ) ;
#192 = MANIFOLD_SOLID_BREP ( 'Revolve - Tool Body (Straight Shanked)', #21 ) ;
#193 = DIRECTION ( 'NONE',  ( -0.000000000000000000, -1.000000000000000000, -0.000000000000000000 ) ) ;
#194 = UNCERTAINTY_MEASURE_WITH_UNIT (LENGTH_MEASURE( 1.000000000000000082E-05 ), #227, 'distance_accuracy_value', 'NONE');
#195 = PLANE ( 'NONE',  #278 ) ;
#196 = DIRECTION ( 'NONE',  ( -1.000000000000000000, 0.000000000000000000, 0.000000000000000000 ) ) ;
#197 = DIRECTION ( 'NONE',  ( -1.000000000000000000, 0.000000000000000000, 0.000000000000000000 ) ) ;
#198 = AXIS2_PLACEMENT_3D ( 'NONE', #20, #15, #40 ) ;
#199 = CARTESIAN_POINT ( 'NONE',  ( -4.999999999999991118, 75.00000000000000000, 0.000000000000000000 ) ) ;
#200 = ORIENTED_EDGE ( 'NONE', *, *, #66, .F. ) ;
#201 = SURFACE_STYLE_USAGE ( .BOTH. , #184 ) ;
#202 = AXIS2_PLACEMENT_3D ( 'NONE', #24, #154, #197 ) ;
#203 = EDGE_LOOP ( 'NONE', ( #228, #75, #48, #156 ) ) ;
#204 = ORIENTED_EDGE ( 'NONE', *, *, #253, .T. ) ;
#205 = CARTESIAN_POINT ( 'NONE',  ( -5.000000000000000000, 25.00000000000000000, 0.000000000000000000 ) ) ;
#206 = EDGE_LOOP ( 'NONE', ( #162, #224, #248, #142 ) ) ;
#207 = PRESENTATION_LAYER_ASSIGNMENT (  '', '', ( #133 ) ) ;
#208 = ORIENTED_EDGE ( 'NONE', *, *, #30, .F. ) ;
#209 = COLOUR_RGB ( '',0.7921568627450980005, 0.8196078431372548767, 0.9333333333333333481 ) ;
#210 = DIRECTION ( 'NONE',  ( -1.224646799147352961E-16, -1.000000000000000000, 0.000000000000000000 ) ) ;
#211 = EDGE_CURVE ( 'NONE', #181, #32, #114, .T. ) ;
#212 = PRODUCT_CONTEXT ( 'NONE', #137, 'mechanical' ) ;
#213 = CARTESIAN_POINT ( 'NONE',  ( 5.000000000000000000, 25.00000000000000000, 6.123233995736764310E-16 ) ) ;
#214 = AXIS2_PLACEMENT_3D ( 'NONE', #121, #231, #19 ) ;
#215 = EDGE_CURVE ( 'NONE', #136, #90, #94, .T. ) ;
#216 = PRESENTATION_STYLE_ASSIGNMENT (( #238 ) ) ;
#217 = UNCERTAINTY_MEASURE_WITH_UNIT (LENGTH_MEASURE( 1.000000000000000082E-05 ), #115, 'distance_accuracy_value', 'NONE');
#218 = CARTESIAN_POINT ( 'NONE',  ( 6.123233995736766282E-16, 0.000000000000000000, 5.000000000000000000 ) ) ;
#219 = PRESENTATION_LAYER_ASSIGNMENT (  '', '', ( #141 ) ) ;
#220 = EDGE_CURVE ( 'NONE', #249, #136, #132, .T. ) ;
#221 = CARTESIAN_POINT ( 'NONE',  ( 0.000000000000000000, 0.000000000000000000, -5.000000000000000000 ) ) ;
#222 = COLOUR_RGB ( '',1.000000000000000000, 0.000000000000000000, 0.000000000000000000 ) ;
#223 =( GEOMETRIC_REPRESENTATION_CONTEXT ( 3 ) GLOBAL_UNCERTAINTY_ASSIGNED_CONTEXT ( ( #60 ) ) GLOBAL_UNIT_ASSIGNED_CONTEXT ( ( #240, #145, #128 ) ) REPRESENTATION_CONTEXT ( 'NONE', 'WORKASPACE' ) );
#224 = ORIENTED_EDGE ( 'NONE', *, *, #269, .T. ) ;
#225 = FILL_AREA_STYLE_COLOUR ( '', #89 ) ;
#226 = ORIENTED_EDGE ( 'NONE', *, *, #220, .T. ) ;
#227 =( LENGTH_UNIT ( ) NAMED_UNIT ( * ) SI_UNIT ( .MILLI., .METRE. ) );
#228 = ORIENTED_EDGE ( 'NONE', *, *, #269, .F. ) ;
#229 = VERTEX_POINT ( 'NONE', #246 ) ;
#230 = PLANE ( 'NONE',  #6 ) ;
#231 = DIRECTION ( 'NONE',  ( 1.224646799147352961E-16, 1.000000000000000000, -0.000000000000000000 ) ) ;
#232 = FILL_AREA_STYLE_COLOUR ( '', #209 ) ;
#233 = ADVANCED_FACE ( 'NONE', ( #44 ), #134, .T. ) ;
#234 =( GEOMETRIC_REPRESENTATION_CONTEXT ( 3 ) GLOBAL_UNCERTAINTY_ASSIGNED_CONTEXT ( ( #170 ) ) GLOBAL_UNIT_ASSIGNED_CONTEXT ( ( #283, #84, #13 ) ) REPRESENTATION_CONTEXT ( 'NONE', 'WORKASPACE' ) );
#235 = CARTESIAN_POINT ( 'NONE',  ( 5.000000000000000000, 75.00000000000000000, 0.000000000000000000 ) ) ;
#236 = CARTESIAN_POINT ( 'NONE',  ( 6.123233995736762930E-15, 75.00000000000000000, 0.000000000000000000 ) ) ;
#237 = EDGE_CURVE ( 'NONE', #181, #187, #64, .T. ) ;
#238 = SURFACE_STYLE_USAGE ( .BOTH. , #61 ) ;
#239 = DIRECTION ( 'NONE',  ( -0.000000000000000000, -1.000000000000000000, -0.000000000000000000 ) ) ;
#240 =( LENGTH_UNIT ( ) NAMED_UNIT ( * ) SI_UNIT ( .MILLI., .METRE. ) );
#241 = SURFACE_SIDE_STYLE ('',( #112 ) ) ;
#242 =( NAMED_UNIT ( * ) SI_UNIT ( $, .STERADIAN. ) SOLID_ANGLE_UNIT ( ) );
#243 = AXIS2_PLACEMENT_3D ( 'NONE', #3, #28, #78 ) ;
#244 =( NAMED_UNIT ( * ) SI_UNIT ( $, .STERADIAN. ) SOLID_ANGLE_UNIT ( ) );
#245 = PRODUCT_DEFINITION_SHAPE ( 'NONE', 'NONE',  #143 ) ;
#246 = CARTESIAN_POINT ( 'NONE',  ( 6.123233995736766282E-16, 0.000000000000000000, 5.000000000000000000 ) ) ;
#247 = STYLED_ITEM ( 'NONE', ( #216 ), #165 ) ;
#248 = ORIENTED_EDGE ( 'NONE', *, *, #117, .F. ) ;
#249 = VERTEX_POINT ( 'NONE', #205 ) ;
#250 = ORIENTED_EDGE ( 'NONE', *, *, #215, .F. ) ;
#251 = SURFACE_STYLE_USAGE ( .BOTH. , #95 ) ;
#252 = DIRECTION ( 'NONE',  ( 0.000000000000000000, 1.000000000000000000, 0.000000000000000000 ) ) ;
#253 = EDGE_CURVE ( 'NONE', #73, #249, #80, .T. ) ;
#254 = COLOUR_RGB ( '',1.000000000000000000, 0.000000000000000000, 0.000000000000000000 ) ;
#255 = PRESENTATION_STYLE_ASSIGNMENT (( #144 ) ) ;
#256 =( GEOMETRIC_REPRESENTATION_CONTEXT ( 3 ) GLOBAL_UNCERTAINTY_ASSIGNED_CONTEXT ( ( #217 ) ) GLOBAL_UNIT_ASSIGNED_CONTEXT ( ( #115, #261, #244 ) ) REPRESENTATION_CONTEXT ( 'NONE', 'WORKASPACE' ) );
#257 = FACE_OUTER_BOUND ( 'NONE', #46, .T. ) ;
#258 = SURFACE_STYLE_FILL_AREA ( #148 ) ;
#259 = FILL_AREA_STYLE ('',( #10 ) ) ;
#260 = EDGE_CURVE ( 'NONE', #229, #32, #174, .T. ) ;
#261 =( NAMED_UNIT ( * ) PLANE_ANGLE_UNIT ( ) SI_UNIT ( $, .RADIAN. ) );
#262 =( GEOMETRIC_REPRESENTATION_CONTEXT ( 3 ) GLOBAL_UNCERTAINTY_ASSIGNED_CONTEXT ( ( #83 ) ) GLOBAL_UNIT_ASSIGNED_CONTEXT ( ( #129, #176, #242 ) ) REPRESENTATION_CONTEXT ( 'NONE', 'WORKASPACE' ) );
#263 = PRESENTATION_LAYER_ASSIGNMENT (  '', '', ( #191 ) ) ;
#264 = DIRECTION ( 'NONE',  ( -1.000000000000000000, 1.224646799147352961E-16, 0.000000000000000000 ) ) ;
#265 = ADVANCED_FACE ( 'NONE', ( #98 ), #230, .T. ) ;
#266 = EDGE_LOOP ( 'NONE', ( #120, #204, #226, #158 ) ) ;
#267 = CIRCLE ( 'NONE', #155, 5.000000000000000000 ) ;
#268 = AXIS2_PLACEMENT_3D ( 'NONE', #139, #96, #273 ) ;
#269 = EDGE_CURVE ( 'NONE', #187, #229, #287, .T. ) ;
#270 = ORIENTED_EDGE ( 'NONE', *, *, #67, .T. ) ;
#271 = EDGE_CURVE ( 'NONE', #90, #136, #168, .T. ) ;
#272 = ORIENTED_EDGE ( 'NONE', *, *, #237, .F. ) ;
#273 = DIRECTION ( 'NONE',  ( -1.000000000000000000, 0.000000000000000000, 0.000000000000000000 ) ) ;
#274 = DIRECTION ( 'NONE',  ( 0.000000000000000000, 0.000000000000000000, -1.000000000000000000 ) ) ;
#275 = MECHANICAL_DESIGN_GEOMETRIC_PRESENTATION_REPRESENTATION (  '', ( #133 ), #88 ) ;
#276 = CYLINDRICAL_SURFACE ( 'NONE', #49, 5.000000000000000000 ) ;
#277 =( NAMED_UNIT ( * ) SI_UNIT ( $, .STERADIAN. ) SOLID_ANGLE_UNIT ( ) );
#278 = AXIS2_PLACEMENT_3D ( 'NONE', #109, #252, #188 ) ;
#279 = CARTESIAN_POINT ( 'NONE',  ( 0.000000000000000000, 25.00000000000000000, 0.000000000000000000 ) ) ;
#280 = APPLICATION_PROTOCOL_DEFINITION ( 'draft international standard', 'automotive_design', 1998, #56 ) ;
#281 = UNCERTAINTY_MEASURE_WITH_UNIT (LENGTH_MEASURE( 1.000000000000000082E-05 ), #93, 'distance_accuracy_value', 'NONE');
#282 = DIRECTION ( 'NONE',  ( 0.000000000000000000, 0.000000000000000000, -1.000000000000000000 ) ) ;
#283 =( LENGTH_UNIT ( ) NAMED_UNIT ( * ) SI_UNIT ( .MILLI., .METRE. ) );
#284 = FACE_OUTER_BOUND ( 'NONE', #70, .T. ) ;
#285 = PRESENTATION_STYLE_ASSIGNMENT (( #111 ) ) ;
#286 = PRESENTATION_STYLE_ASSIGNMENT (( #43 ) ) ;
#287 = LINE ( 'NONE', #218, #147 ) ;
#288 = MANIFOLD_SOLID_BREP ( 'Revolve - Cutting Edge', #9 ) ;
ENDSEC;
END-ISO-10303-21;
