ISO-10303-21;
HEADER;
FILE_DESCRIPTION (( 'STEP AP214' ),
    '1' );
FILE_NAME ('84097.STEP',
    '2023-06-23T12:06:09',
    ( '' ),
    ( '' ),
    'SwSTEP 2.0',
    'SolidWorks 2023',
    '' );
FILE_SCHEMA (( 'AUTOMOTIVE_DESIGN' ));
ENDSEC;

DATA;
#1 = SURFACE_STYLE_FILL_AREA ( #166 ) ;
#2 = ORIENTED_EDGE ( 'NONE', *, *, #309, .F. ) ;
#3 = DIRECTION ( 'NONE',  ( -3.498990854706722745E-17, 1.000000000000000000, -0.000000000000000000 ) ) ;
#4 = VERTEX_POINT ( 'NONE', #168 ) ;
#5 = CIRCLE ( 'NONE', #76, 0.09375000000000001388 ) ;
#6 =( CONVERSION_BASED_UNIT ( 'INCH', #335 ) LENGTH_UNIT ( ) NAMED_UNIT ( #245 ) );
#7 = DIRECTION ( 'NONE',  ( -0.000000000000000000, -1.000000000000000000, -0.000000000000000000 ) ) ;
#8 = DIRECTION ( 'NONE',  ( 1.000000000000000000, 0.000000000000000000, 0.000000000000000000 ) ) ;
#9 = ADVANCED_FACE ( 'NONE', ( #302 ), #244, .T. ) ;
#10 =( NAMED_UNIT ( * ) PLANE_ANGLE_UNIT ( ) SI_UNIT ( $, .RADIAN. ) );
#11 = CARTESIAN_POINT ( 'NONE',  ( 1.148106374200643863E-17, 0.000000000000000000, 0.09375000000000001388 ) ) ;
#12 = STYLED_ITEM ( 'NONE', ( #67 ), #83 ) ;
#13 = STYLED_ITEM ( 'NONE', ( #146 ), #237 ) ;
#14 = DIRECTION ( 'NONE',  ( -3.498990854706722745E-17, 1.000000000000000000, -0.000000000000000000 ) ) ;
#15 =( NAMED_UNIT ( * ) SI_UNIT ( $, .STERADIAN. ) SOLID_ANGLE_UNIT ( ) );
#16 = ADVANCED_FACE ( 'NONE', ( #182 ), #287, .F. ) ;
#17 = PRESENTATION_LAYER_ASSIGNMENT (  '', '', ( #12 ) ) ;
#18 = CARTESIAN_POINT ( 'NONE',  ( 1.148106374200643863E-17, 0.7500000000000001110, 0.09375000000000001388 ) ) ;
#19 = EDGE_CURVE ( 'NONE', #51, #326, #160, .T. ) ;
#20 = FILL_AREA_STYLE_COLOUR ( '', #98 ) ;
#21 =( LENGTH_UNIT ( ) NAMED_UNIT ( * ) SI_UNIT ( $, .METRE. ) );
#22 = COLOUR_RGB ( '',1.000000000000000000, 0.000000000000000000, 0.000000000000000000 ) ;
#23 = AXIS2_PLACEMENT_3D ( 'NONE', #43, #161, #271 ) ;
#24 = DIRECTION ( 'NONE',  ( -1.000000000000000000, 0.000000000000000000, 0.000000000000000000 ) ) ;
#25 = EDGE_LOOP ( 'NONE', ( #275, #350 ) ) ;
#26 = EDGE_CURVE ( 'NONE', #103, #80, #270, .T. ) ;
#27 = ORIENTED_EDGE ( 'NONE', *, *, #203, .F. ) ;
#28 =( CONVERSION_BASED_UNIT ( 'INCH', #85 ) LENGTH_UNIT ( ) NAMED_UNIT ( #214 ) );
#29 = SURFACE_STYLE_FILL_AREA ( #278 ) ;
#30 = AXIS2_PLACEMENT_3D ( 'NONE', #354, #106, #53 ) ;
#31 = ORIENTED_EDGE ( 'NONE', *, *, #57, .T. ) ;
#32 = ORIENTED_EDGE ( 'NONE', *, *, #330, .T. ) ;
#33 = LINE ( 'NONE', #149, #298 ) ;
#34 = DIRECTION ( 'NONE',  ( -3.498990854706722745E-17, 1.000000000000000000, -0.000000000000000000 ) ) ;
#35 = CARTESIAN_POINT ( 'NONE',  ( -6.123233995736766036E-17, 2.500000000000000000, 0.000000000000000000 ) ) ;
#36 = DIRECTION ( 'NONE',  ( -1.000000000000000000, 0.000000000000000000, 0.000000000000000000 ) ) ;
#37 = EDGE_CURVE ( 'NONE', #80, #103, #218, .T. ) ;
#38 = DIRECTION ( 'NONE',  ( -1.000000000000000000, 0.000000000000000000, 0.000000000000000000 ) ) ;
#39 = STYLED_ITEM ( 'NONE', ( #159 ), #88 ) ;
#40 = CARTESIAN_POINT ( 'NONE',  ( 0.000000000000000000, 0.000000000000000000, 0.000000000000000000 ) ) ;
#41 =( LENGTH_UNIT ( ) NAMED_UNIT ( * ) SI_UNIT ( $, .METRE. ) );
#42 = PRODUCT_DEFINITION_SHAPE ( 'NONE', 'NONE',  #212 ) ;
#43 = CARTESIAN_POINT ( 'NONE',  ( -6.123233995736766036E-17, 2.500000000000000000, 0.000000000000000000 ) ) ;
#44 = AXIS2_PLACEMENT_3D ( 'NONE', #286, #3, #155 ) ;
#45 = ORIENTED_EDGE ( 'NONE', *, *, #187, .F. ) ;
#46 = EDGE_CURVE ( 'NONE', #247, #82, #259, .T. ) ;
#47 = DIMENSIONAL_EXPONENTS ( 1.000000000000000000, 0.000000000000000000, 0.000000000000000000, 0.000000000000000000, 0.000000000000000000, 0.000000000000000000, 0.000000000000000000 ) ;
#48 = SURFACE_STYLE_FILL_AREA ( #294 ) ;
#49 = DIRECTION ( 'NONE',  ( -3.498990854706722745E-17, 1.000000000000000000, -0.000000000000000000 ) ) ;
#50 = AXIS2_PLACEMENT_3D ( 'NONE', #40, #89, #93 ) ;
#51 = VERTEX_POINT ( 'NONE', #337 ) ;
#52 = CIRCLE ( 'NONE', #87, 0.09375000000000001388 ) ;
#53 = DIRECTION ( 'NONE',  ( 0.000000000000000000, 0.000000000000000000, -1.000000000000000000 ) ) ;
#54 = EDGE_LOOP ( 'NONE', ( #133, #165 ) ) ;
#55 = UNCERTAINTY_MEASURE_WITH_UNIT (LENGTH_MEASURE( 1.000000000000000082E-05 ), #6, 'distance_accuracy_value', 'NONE');
#56 = ORIENTED_EDGE ( 'NONE', *, *, #254, .F. ) ;
#57 = EDGE_CURVE ( 'NONE', #167, #247, #235, .T. ) ;
#58 = ORIENTED_EDGE ( 'NONE', *, *, #351, .F. ) ;
#59 = COLOUR_RGB ( '',0.7921568627450980005, 0.8196078431372548767, 0.9333333333333333481 ) ;
#60 = VECTOR ( 'NONE', #220, 39.37007874015748143 ) ;
#61 = ORIENTED_EDGE ( 'NONE', *, *, #37, .F. ) ;
#62 = DIRECTION ( 'NONE',  ( -1.000000000000000000, 0.000000000000000000, 0.000000000000000000 ) ) ;
#63 = DIRECTION ( 'NONE',  ( 3.498990854706722745E-17, -1.000000000000000000, 0.000000000000000000 ) ) ;
#64 = CARTESIAN_POINT ( 'NONE',  ( 0.000000000000000000, 0.000000000000000000, 0.000000000000000000 ) ) ;
#65 = SURFACE_SIDE_STYLE ('',( #313 ) ) ;
#66 =( GEOMETRIC_REPRESENTATION_CONTEXT ( 3 ) GLOBAL_UNCERTAINTY_ASSIGNED_CONTEXT ( ( #70 ) ) GLOBAL_UNIT_ASSIGNED_CONTEXT ( ( #156, #202, #206 ) ) REPRESENTATION_CONTEXT ( 'NONE', 'WORKASPACE' ) );
#67 = PRESENTATION_STYLE_ASSIGNMENT (( #232 ) ) ;
#68 = DIRECTION ( 'NONE',  ( -3.498990854706722745E-17, 1.000000000000000000, -0.000000000000000000 ) ) ;
#69 = DIRECTION ( 'NONE',  ( -0.000000000000000000, -1.000000000000000000, -0.000000000000000000 ) ) ;
#70 = UNCERTAINTY_MEASURE_WITH_UNIT (LENGTH_MEASURE( 1.000000000000000082E-05 ), #156, 'distance_accuracy_value', 'NONE');
#71 = STYLED_ITEM ( 'NONE', ( #319 ), #140 ) ;
#72 = SURFACE_STYLE_USAGE ( .BOTH. , #100 ) ;
#73 = CYLINDRICAL_SURFACE ( 'NONE', #312, 0.09375000000000001388 ) ;
#74 = DIRECTION ( 'NONE',  ( -0.000000000000000000, -1.000000000000000000, -0.000000000000000000 ) ) ;
#75 = AXIS2_PLACEMENT_3D ( 'NONE', #316, #63, #119 ) ;
#76 = AXIS2_PLACEMENT_3D ( 'NONE', #90, #307, #281 ) ;
#77 = SURFACE_SIDE_STYLE ('',( #189 ) ) ;
#78 = ORIENTED_EDGE ( 'NONE', *, *, #314, .T. ) ;
#79 = FILL_AREA_STYLE ('',( #359 ) ) ;
#80 = VERTEX_POINT ( 'NONE', #267 ) ;
#81 = DIRECTION ( 'NONE',  ( -3.498990854706722745E-17, 1.000000000000000000, -0.000000000000000000 ) ) ;
#82 = VERTEX_POINT ( 'NONE', #225 ) ;
#83 = ADVANCED_FACE ( 'NONE', ( #154 ), #308, .T. ) ;
#84 = ORIENTED_EDGE ( 'NONE', *, *, #330, .F. ) ;
#85 = LENGTH_MEASURE_WITH_UNIT ( LENGTH_MEASURE( 0.02539999999999999897 ), #21 );
#86 = LENGTH_MEASURE_WITH_UNIT ( LENGTH_MEASURE( 0.02539999999999999897 ), #147 );
#87 = AXIS2_PLACEMENT_3D ( 'NONE', #210, #143, #276 ) ;
#88 = MANIFOLD_SOLID_BREP ( 'Revolve - Cutting Edge', #157 ) ;
#89 = DIRECTION ( 'NONE',  ( 0.000000000000000000, -1.000000000000000000, -0.000000000000000000 ) ) ;
#90 = CARTESIAN_POINT ( 'NONE',  ( -7.582401355855259480E-33, 0.7499999999999998890, 0.000000000000000000 ) ) ;
#91 =( LENGTH_UNIT ( ) NAMED_UNIT ( * ) SI_UNIT ( $, .METRE. ) );
#92 =( NAMED_UNIT ( * ) SI_UNIT ( $, .STERADIAN. ) SOLID_ANGLE_UNIT ( ) );
#93 = DIRECTION ( 'NONE',  ( 0.000000000000000000, 0.000000000000000000, -1.000000000000000000 ) ) ;
#94 = APPLICATION_CONTEXT ( 'automotive_design' ) ;
#95 =( NAMED_UNIT ( * ) PLANE_ANGLE_UNIT ( ) SI_UNIT ( $, .RADIAN. ) );
#96 = FILL_AREA_STYLE_COLOUR ( '', #59 ) ;
#97 =( NAMED_UNIT ( * ) SI_UNIT ( $, .STERADIAN. ) SOLID_ANGLE_UNIT ( ) );
#98 = COLOUR_RGB ( '',1.000000000000000000, 0.000000000000000000, 0.000000000000000000 ) ;
#99 = AXIS2_PLACEMENT_3D ( 'NONE', #113, #315, #174 ) ;
#100 = SURFACE_SIDE_STYLE ('',( #48 ) ) ;
#101 = PRODUCT_RELATED_PRODUCT_CATEGORY ( 'part', '', ( #130 ) ) ;
#102 =( LENGTH_UNIT ( ) NAMED_UNIT ( * ) SI_UNIT ( $, .METRE. ) );
#103 = VERTEX_POINT ( 'NONE', #131 ) ;
#104 = VECTOR ( 'NONE', #7, 39.37007874015748143 ) ;
#105 = EDGE_CURVE ( 'NONE', #296, #82, #305, .T. ) ;
#106 = DIRECTION ( 'NONE',  ( -0.000000000000000000, -1.000000000000000000, -0.000000000000000000 ) ) ;
#107 = SURFACE_STYLE_USAGE ( .BOTH. , #306 ) ;
#108 = ORIENTED_EDGE ( 'NONE', *, *, #253, .F. ) ;
#109 = PRESENTATION_STYLE_ASSIGNMENT (( #107 ) ) ;
#110 = EDGE_LOOP ( 'NONE', ( #58, #252, #219, #357 ) ) ;
#111 = ORIENTED_EDGE ( 'NONE', *, *, #135, .T. ) ;
#112 = FILL_AREA_STYLE_COLOUR ( '', #22 ) ;
#113 = CARTESIAN_POINT ( 'NONE',  ( 0.000000000000000000, 0.7500000000000001110, 0.000000000000000000 ) ) ;
#114 = EDGE_LOOP ( 'NONE', ( #256, #304, #32, #324 ) ) ;
#115 = AXIS2_PLACEMENT_3D ( 'NONE', #196, #81, #138 ) ;
#116 = DIRECTION ( 'NONE',  ( -3.498990854706722745E-17, 1.000000000000000000, -0.000000000000000000 ) ) ;
#117 = CARTESIAN_POINT ( 'NONE',  ( 0.000000000000000000, 0.7500000000000001110, 0.000000000000000000 ) ) ;
#118 = CARTESIAN_POINT ( 'NONE',  ( 0.1249999999999999584, 2.500000000000000000, 1.530808498934191817E-17 ) ) ;
#119 = DIRECTION ( 'NONE',  ( 1.000000000000000000, 3.498990854706722745E-17, 0.000000000000000000 ) ) ;
#120 = CYLINDRICAL_SURFACE ( 'NONE', #284, 0.1250000000000000278 ) ;
#121 = FILL_AREA_STYLE ('',( #227 ) ) ;
#122 = ADVANCED_FACE ( 'NONE', ( #162 ), #127, .F. ) ;
#123 = MECHANICAL_DESIGN_GEOMETRIC_PRESENTATION_REPRESENTATION (  '', ( #231 ), #339 ) ;
#124 = VECTOR ( 'NONE', #125, 39.37007874015748854 ) ;
#125 = DIRECTION ( 'NONE',  ( -0.2588190451025211836, 0.9659258262890679791, 0.000000000000000000 ) ) ;
#126 = UNCERTAINTY_MEASURE_WITH_UNIT (LENGTH_MEASURE( 1.000000000000000082E-05 ), #201, 'distance_accuracy_value', 'NONE');
#127 = PLANE ( 'NONE',  #240 ) ;
#128 = DIMENSIONAL_EXPONENTS ( 1.000000000000000000, 0.000000000000000000, 0.000000000000000000, 0.000000000000000000, 0.000000000000000000, 0.000000000000000000, 0.000000000000000000 ) ;
#129 = PRESENTATION_LAYER_ASSIGNMENT (  '', '', ( #231 ) ) ;
#130 = PRODUCT ( '84097', '84097', '', ( #255 ) ) ;
#131 = CARTESIAN_POINT ( 'NONE',  ( 0.1250000000000000000, 0.8666265877365271209, 1.530808498934191509E-17 ) ) ;
#132 = LINE ( 'NONE', #272, #224 ) ;
#133 = ORIENTED_EDGE ( 'NONE', *, *, #187, .T. ) ;
#134 = PRODUCT_DEFINITION_CONTEXT ( 'detailed design', #94, 'design' ) ;
#135 = EDGE_CURVE ( 'NONE', #167, #296, #132, .T. ) ;
#136 =( LENGTH_UNIT ( ) NAMED_UNIT ( * ) SI_UNIT ( $, .METRE. ) );
#137 =( GEOMETRIC_REPRESENTATION_CONTEXT ( 3 ) GLOBAL_UNCERTAINTY_ASSIGNED_CONTEXT ( ( #268 ) ) GLOBAL_UNIT_ASSIGNED_CONTEXT ( ( #269, #239, #97 ) ) REPRESENTATION_CONTEXT ( 'NONE', 'WORKASPACE' ) );
#138 = DIRECTION ( 'NONE',  ( -1.000000000000000000, 0.000000000000000000, 0.000000000000000000 ) ) ;
#139 = EDGE_LOOP ( 'NONE', ( #346, #31, #356, #329 ) ) ;
#140 = ADVANCED_FACE ( 'NONE', ( #185 ), #73, .T. ) ;
#141 = FACE_OUTER_BOUND ( 'NONE', #277, .T. ) ;
#142 = ORIENTED_EDGE ( 'NONE', *, *, #309, .T. ) ;
#143 = DIRECTION ( 'NONE',  ( -0.000000000000000000, -1.000000000000000000, -0.000000000000000000 ) ) ;
#144 = SURFACE_STYLE_USAGE ( .BOTH. , #221 ) ;
#145 = COLOUR_RGB ( '',0.7921568627450980005, 0.8196078431372548767, 0.9333333333333333481 ) ;
#146 = PRESENTATION_STYLE_ASSIGNMENT (( #303 ) ) ;
#147 =( LENGTH_UNIT ( ) NAMED_UNIT ( * ) SI_UNIT ( $, .METRE. ) );
#148 = EDGE_LOOP ( 'NONE', ( #195, #56 ) ) ;
#149 = CARTESIAN_POINT ( 'NONE',  ( 0.09375000000000001388, 0.7499999999999998890, 1.148106374200643863E-17 ) ) ;
#150 = CARTESIAN_POINT ( 'NONE',  ( 0.000000000000000000, 0.000000000000000000, -0.09375000000000001388 ) ) ;
#151 = MECHANICAL_DESIGN_GEOMETRIC_PRESENTATION_REPRESENTATION (  '', ( #71 ), #137 ) ;
#152 = VECTOR ( 'NONE', #207, 39.37007874015748143 ) ;
#153 = CARTESIAN_POINT ( 'NONE',  ( -0.09375000000000001388, 0.7499999999999998890, 0.000000000000000000 ) ) ;
#154 = FACE_OUTER_BOUND ( 'NONE', #173, .T. ) ;
#155 = DIRECTION ( 'NONE',  ( -1.000000000000000000, 0.000000000000000000, 0.000000000000000000 ) ) ;
#156 =( CONVERSION_BASED_UNIT ( 'INCH', #263 ) LENGTH_UNIT ( ) NAMED_UNIT ( #295 ) );
#157 = CLOSED_SHELL ( 'NONE', ( #237, #83, #140, #9 ) ) ;
#158 = DIRECTION ( 'NONE',  ( -3.498990854706722745E-17, 1.000000000000000000, -0.000000000000000000 ) ) ;
#159 = PRESENTATION_STYLE_ASSIGNMENT (( #323 ) ) ;
#160 = CIRCLE ( 'NONE', #321, 0.09375000000000001388 ) ;
#161 = DIRECTION ( 'NONE',  ( -3.498990854706722745E-17, 1.000000000000000000, -0.000000000000000000 ) ) ;
#162 = FACE_OUTER_BOUND ( 'NONE', #148, .T. ) ;
#163 = EDGE_CURVE ( 'NONE', #332, #4, #213, .T. ) ;
#164 = COLOUR_RGB ( '',1.000000000000000000, 0.000000000000000000, 0.000000000000000000 ) ;
#165 = ORIENTED_EDGE ( 'NONE', *, *, #105, .T. ) ;
#166 = FILL_AREA_STYLE ('',( #331 ) ) ;
#167 = VERTEX_POINT ( 'NONE', #18 ) ;
#168 = CARTESIAN_POINT ( 'NONE',  ( -0.1250000000000001388, 2.500000000000000000, 0.000000000000000000 ) ) ;
#169 = AXIS2_PLACEMENT_3D ( 'NONE', #288, #14, #179 ) ;
#170 = ORIENTED_EDGE ( 'NONE', *, *, #19, .T. ) ;
#171 = MECHANICAL_DESIGN_GEOMETRIC_PRESENTATION_REPRESENTATION (  '', ( #13 ), #205 ) ;
#172 = LINE ( 'NONE', #328, #60 ) ;
#173 = EDGE_LOOP ( 'NONE', ( #2, #191 ) ) ;
#174 = DIRECTION ( 'NONE',  ( 0.000000000000000000, 0.000000000000000000, -1.000000000000000000 ) ) ;
#175 = FACE_OUTER_BOUND ( 'NONE', #114, .T. ) ;
#176 = DIRECTION ( 'NONE',  ( 0.000000000000000000, 0.000000000000000000, -1.000000000000000000 ) ) ;
#177 = AXIS2_PLACEMENT_3D ( 'NONE', #117, #69, #176 ) ;
#178 =( GEOMETRIC_REPRESENTATION_CONTEXT ( 3 ) GLOBAL_UNCERTAINTY_ASSIGNED_CONTEXT ( ( #347 ) ) GLOBAL_UNIT_ASSIGNED_CONTEXT ( ( #28, #248, #216 ) ) REPRESENTATION_CONTEXT ( 'NONE', 'WORKASPACE' ) );
#179 = DIRECTION ( 'NONE',  ( -1.000000000000000000, 0.000000000000000000, 0.000000000000000000 ) ) ;
#180 =( LENGTH_UNIT ( ) NAMED_UNIT ( * ) SI_UNIT ( $, .METRE. ) );
#181 = CARTESIAN_POINT ( 'NONE',  ( -4.080753639057601088E-18, 0.8666265877365271209, 0.000000000000000000 ) ) ;
#182 = FACE_OUTER_BOUND ( 'NONE', #25, .T. ) ;
#183 = LENGTH_MEASURE_WITH_UNIT ( LENGTH_MEASURE( 0.02539999999999999897 ), #102 );
#184 = CARTESIAN_POINT ( 'NONE',  ( 5.738876719369351455E-35, 0.7500000000000001110, 0.000000000000000000 ) ) ;
#185 = FACE_OUTER_BOUND ( 'NONE', #139, .T. ) ;
#186 = COLOUR_RGB ( '',1.000000000000000000, 0.000000000000000000, 0.000000000000000000 ) ;
#187 = EDGE_CURVE ( 'NONE', #82, #296, #52, .T. ) ;
#188 = STYLED_ITEM ( 'NONE', ( #109 ), #208 ) ;
#189 = SURFACE_STYLE_FILL_AREA ( #290 ) ;
#190 = UNCERTAINTY_MEASURE_WITH_UNIT (LENGTH_MEASURE( 1.000000000000000082E-05 ), #279, 'distance_accuracy_value', 'NONE');
#191 = ORIENTED_EDGE ( 'NONE', *, *, #57, .F. ) ;
#192 =( NAMED_UNIT ( * ) SI_UNIT ( $, .STERADIAN. ) SOLID_ANGLE_UNIT ( ) );
#193 = EDGE_LOOP ( 'NONE', ( #142, #111, #45, #197 ) ) ;
#194 = CARTESIAN_POINT ( 'NONE',  ( -7.582401355855259480E-33, 0.7499999999999998890, 0.000000000000000000 ) ) ;
#195 = ORIENTED_EDGE ( 'NONE', *, *, #19, .F. ) ;
#196 = CARTESIAN_POINT ( 'NONE',  ( -6.123233995736766036E-17, 2.500000000000000000, 0.000000000000000000 ) ) ;
#197 = ORIENTED_EDGE ( 'NONE', *, *, #46, .F. ) ;
#198 = ADVANCED_FACE ( 'NONE', ( #141 ), #334, .T. ) ;
#199 = AXIS2_PLACEMENT_3D ( 'NONE', #342, #74, #349 ) ;
#200 = PRODUCT_DEFINITION_FORMATION_WITH_SPECIFIED_SOURCE ( 'ANY', '', #130, .NOT_KNOWN. ) ;
#201 =( CONVERSION_BASED_UNIT ( 'INCH', #86 ) LENGTH_UNIT ( ) NAMED_UNIT ( #242 ) );
#202 =( NAMED_UNIT ( * ) PLANE_ANGLE_UNIT ( ) SI_UNIT ( $, .RADIAN. ) );
#203 = EDGE_CURVE ( 'NONE', #80, #4, #172, .T. ) ;
#204 = SHAPE_DEFINITION_REPRESENTATION ( #42, #325 ) ;
#205 =( GEOMETRIC_REPRESENTATION_CONTEXT ( 3 ) GLOBAL_UNCERTAINTY_ASSIGNED_CONTEXT ( ( #190 ) ) GLOBAL_UNIT_ASSIGNED_CONTEXT ( ( #279, #222, #192 ) ) REPRESENTATION_CONTEXT ( 'NONE', 'WORKASPACE' ) );
#206 =( NAMED_UNIT ( * ) SI_UNIT ( $, .STERADIAN. ) SOLID_ANGLE_UNIT ( ) );
#207 = DIRECTION ( 'NONE',  ( -3.498990854706722745E-17, 1.000000000000000000, -0.000000000000000000 ) ) ;
#208 = MANIFOLD_SOLID_BREP ( 'Revolve - Tool Body (Reduced Cut Diameter)', #289 ) ;
#209 = MECHANICAL_DESIGN_GEOMETRIC_PRESENTATION_REPRESENTATION (  '', ( #12 ), #66 ) ;
#210 = CARTESIAN_POINT ( 'NONE',  ( 0.000000000000000000, 0.000000000000000000, 0.000000000000000000 ) ) ;
#211 = AXIS2_PLACEMENT_3D ( 'NONE', #261, #265, #230 ) ;
#212 = PRODUCT_DEFINITION ( 'UNKNOWN', '', #200, #134 ) ;
#213 = CIRCLE ( 'NONE', #23, 0.1250000000000000555 ) ;
#214 = DIMENSIONAL_EXPONENTS ( 1.000000000000000000, 0.000000000000000000, 0.000000000000000000, 0.000000000000000000, 0.000000000000000000, 0.000000000000000000, 0.000000000000000000 ) ;
#215 = CARTESIAN_POINT ( 'NONE',  ( 0.000000000000000000, 0.7500000000000001110, -0.09375000000000001388 ) ) ;
#216 =( NAMED_UNIT ( * ) SI_UNIT ( $, .STERADIAN. ) SOLID_ANGLE_UNIT ( ) );
#217 = EDGE_LOOP ( 'NONE', ( #280, #299, #108, #27 ) ) ;
#218 = CIRCLE ( 'NONE', #311, 0.1250000000000000278 ) ;
#219 = ORIENTED_EDGE ( 'NONE', *, *, #203, .T. ) ;
#220 = DIRECTION ( 'NONE',  ( -3.498990854706722745E-17, 1.000000000000000000, -0.000000000000000000 ) ) ;
#221 = SURFACE_SIDE_STYLE ('',( #29 ) ) ;
#222 =( NAMED_UNIT ( * ) PLANE_ANGLE_UNIT ( ) SI_UNIT ( $, .RADIAN. ) );
#223 = LINE ( 'NONE', #118, #152 ) ;
#224 = VECTOR ( 'NONE', #348, 39.37007874015748143 ) ;
#225 = CARTESIAN_POINT ( 'NONE',  ( 0.000000000000000000, 0.000000000000000000, -0.09375000000000001388 ) ) ;
#226 = ADVANCED_FACE ( 'NONE', ( #251 ), #274, .T. ) ;
#227 = FILL_AREA_STYLE_COLOUR ( '', #186 ) ;
#228 = CARTESIAN_POINT ( 'NONE',  ( 0.09375000000000001388, 0.7499999999999998890, 1.339457436567417686E-17 ) ) ;
#229 = CARTESIAN_POINT ( 'NONE',  ( -7.582401355855259480E-33, 0.7499999999999998890, 0.000000000000000000 ) ) ;
#230 = DIRECTION ( 'NONE',  ( 0.000000000000000000, -0.000000000000000000, 1.000000000000000000 ) ) ;
#231 = STYLED_ITEM ( 'NONE', ( #250 ), #9 ) ;
#232 = SURFACE_STYLE_USAGE ( .BOTH. , #65 ) ;
#233 = APPLICATION_CONTEXT ( 'automotive_design' ) ;
#234 =( NAMED_UNIT ( * ) SI_UNIT ( $, .STERADIAN. ) SOLID_ANGLE_UNIT ( ) );
#235 = CIRCLE ( 'NONE', #177, 0.09375000000000001388 ) ;
#236 = DIRECTION ( 'NONE',  ( -0.000000000000000000, -1.000000000000000000, -0.000000000000000000 ) ) ;
#237 = ADVANCED_FACE ( 'NONE', ( #301 ), #243, .T. ) ;
#238 =( CONVERSION_BASED_UNIT ( 'INCH', #343 ) LENGTH_UNIT ( ) NAMED_UNIT ( #128 ) );
#239 =( NAMED_UNIT ( * ) PLANE_ANGLE_UNIT ( ) SI_UNIT ( $, .RADIAN. ) );
#240 = AXIS2_PLACEMENT_3D ( 'NONE', #184, #317, #320 ) ;
#241 = LENGTH_MEASURE_WITH_UNIT ( LENGTH_MEASURE( 0.02539999999999999897 ), #136 );
#242 = DIMENSIONAL_EXPONENTS ( 1.000000000000000000, 0.000000000000000000, 0.000000000000000000, 0.000000000000000000, 0.000000000000000000, 0.000000000000000000, 0.000000000000000000 ) ;
#243 = CYLINDRICAL_SURFACE ( 'NONE', #30, 0.09375000000000001388 ) ;
#244 = PLANE ( 'NONE',  #50 ) ;
#245 = DIMENSIONAL_EXPONENTS ( 1.000000000000000000, 0.000000000000000000, 0.000000000000000000, 0.000000000000000000, 0.000000000000000000, 0.000000000000000000, 0.000000000000000000 ) ;
#246 = SURFACE_SIDE_STYLE ('',( #355 ) ) ;
#247 = VERTEX_POINT ( 'NONE', #215 ) ;
#248 =( NAMED_UNIT ( * ) PLANE_ANGLE_UNIT ( ) SI_UNIT ( $, .RADIAN. ) );
#249 = PRESENTATION_LAYER_ASSIGNMENT (  '', '', ( #188 ) ) ;
#250 = PRESENTATION_STYLE_ASSIGNMENT (( #144 ) ) ;
#251 = FACE_OUTER_BOUND ( 'NONE', #110, .T. ) ;
#252 = ORIENTED_EDGE ( 'NONE', *, *, #26, .T. ) ;
#253 = EDGE_CURVE ( 'NONE', #4, #332, #340, .T. ) ;
#254 = EDGE_CURVE ( 'NONE', #326, #51, #5, .T. ) ;
#255 = PRODUCT_CONTEXT ( 'NONE', #233, 'mechanical' ) ;
#256 = ORIENTED_EDGE ( 'NONE', *, *, #314, .F. ) ;
#257 = LINE ( 'NONE', #153, #124 ) ;
#258 =( GEOMETRIC_REPRESENTATION_CONTEXT ( 3 ) GLOBAL_UNCERTAINTY_ASSIGNED_CONTEXT ( ( #338 ) ) GLOBAL_UNIT_ASSIGNED_CONTEXT ( ( #238, #273, #234 ) ) REPRESENTATION_CONTEXT ( 'NONE', 'WORKASPACE' ) );
#259 = LINE ( 'NONE', #150, #104 ) ;
#260 = APPLICATION_PROTOCOL_DEFINITION ( 'draft international standard', 'automotive_design', 1998, #233 ) ;
#261 = CARTESIAN_POINT ( 'NONE',  ( 0.000000000000000000, 0.7500000000000001110, 0.000000000000000000 ) ) ;
#262 = DIRECTION ( 'NONE',  ( 0.2588190451025211281, 0.9659258262890682012, 3.169619151431769872E-17 ) ) ;
#263 = LENGTH_MEASURE_WITH_UNIT ( LENGTH_MEASURE( 0.02539999999999999897 ), #91 );
#264 = FACE_OUTER_BOUND ( 'NONE', #217, .T. ) ;
#265 = DIRECTION ( 'NONE',  ( 0.000000000000000000, 1.000000000000000000, 0.000000000000000000 ) ) ;
#266 = MECHANICAL_DESIGN_GEOMETRIC_PRESENTATION_REPRESENTATION (  '', ( #39 ), #258 ) ;
#267 = CARTESIAN_POINT ( 'NONE',  ( -0.1250000000000000000, 0.8666265877365271209, 0.000000000000000000 ) ) ;
#268 = UNCERTAINTY_MEASURE_WITH_UNIT (LENGTH_MEASURE( 1.000000000000000082E-05 ), #269, 'distance_accuracy_value', 'NONE');
#269 =( CONVERSION_BASED_UNIT ( 'INCH', #183 ) LENGTH_UNIT ( ) NAMED_UNIT ( #47 ) );
#270 = CIRCLE ( 'NONE', #169, 0.1250000000000000278 ) ;
#271 = DIRECTION ( 'NONE',  ( -1.000000000000000000, 0.000000000000000000, 0.000000000000000000 ) ) ;
#272 = CARTESIAN_POINT ( 'NONE',  ( 1.148106374200643863E-17, 0.000000000000000000, 0.09375000000000001388 ) ) ;
#273 =( NAMED_UNIT ( * ) PLANE_ANGLE_UNIT ( ) SI_UNIT ( $, .RADIAN. ) );
#274 = CYLINDRICAL_SURFACE ( 'NONE', #115, 0.1250000000000000278 ) ;
#275 = ORIENTED_EDGE ( 'NONE', *, *, #253, .T. ) ;
#276 = DIRECTION ( 'NONE',  ( 0.000000000000000000, 0.000000000000000000, -1.000000000000000000 ) ) ;
#277 = EDGE_LOOP ( 'NONE', ( #170, #78, #61, #84 ) ) ;
#278 = FILL_AREA_STYLE ('',( #112 ) ) ;
#279 =( CONVERSION_BASED_UNIT ( 'INCH', #241 ) LENGTH_UNIT ( ) NAMED_UNIT ( #291 ) );
#280 = ORIENTED_EDGE ( 'NONE', *, *, #37, .T. ) ;
#281 = DIRECTION ( 'NONE',  ( -1.000000000000000000, 0.000000000000000000, 0.000000000000000000 ) ) ;
#282 = ADVANCED_FACE ( 'NONE', ( #264 ), #120, .T. ) ;
#283 = DIRECTION ( 'NONE',  ( 0.000000000000000000, 0.000000000000000000, 1.000000000000000000 ) ) ;
#284 = AXIS2_PLACEMENT_3D ( 'NONE', #341, #68, #62 ) ;
#285 = CARTESIAN_POINT ( 'NONE',  ( 0.1250000000000000278, 2.500000000000000000, 1.530808498934192125E-17 ) ) ;
#286 = CARTESIAN_POINT ( 'NONE',  ( -7.582401355855259480E-33, 0.7499999999999998890, 0.000000000000000000 ) ) ;
#287 = PLANE ( 'NONE',  #75 ) ;
#288 = CARTESIAN_POINT ( 'NONE',  ( -4.080753639057601088E-18, 0.8666265877365271209, 0.000000000000000000 ) ) ;
#289 = CLOSED_SHELL ( 'NONE', ( #282, #198, #122, #300, #226, #16 ) ) ;
#290 = FILL_AREA_STYLE ('',( #96 ) ) ;
#291 = DIMENSIONAL_EXPONENTS ( 1.000000000000000000, 0.000000000000000000, 0.000000000000000000, 0.000000000000000000, 0.000000000000000000, 0.000000000000000000, 0.000000000000000000 ) ;
#292 = DIRECTION ( 'NONE',  ( 0.000000000000000000, 0.000000000000000000, -1.000000000000000000 ) ) ;
#293 = AXIS2_PLACEMENT_3D ( 'NONE', #194, #49, #24 ) ;
#294 = FILL_AREA_STYLE ('',( #20 ) ) ;
#295 = DIMENSIONAL_EXPONENTS ( 1.000000000000000000, 0.000000000000000000, 0.000000000000000000, 0.000000000000000000, 0.000000000000000000, 0.000000000000000000, 0.000000000000000000 ) ;
#296 = VERTEX_POINT ( 'NONE', #11 ) ;
#297 = PRESENTATION_LAYER_ASSIGNMENT (  '', '', ( #71 ) ) ;
#298 = VECTOR ( 'NONE', #262, 39.37007874015748143 ) ;
#299 = ORIENTED_EDGE ( 'NONE', *, *, #351, .T. ) ;
#300 = ADVANCED_FACE ( 'NONE', ( #175 ), #327, .T. ) ;
#301 = FACE_OUTER_BOUND ( 'NONE', #193, .T. ) ;
#302 = FACE_OUTER_BOUND ( 'NONE', #54, .T. ) ;
#303 = SURFACE_STYLE_USAGE ( .BOTH. , #246 ) ;
#304 = ORIENTED_EDGE ( 'NONE', *, *, #254, .T. ) ;
#305 = CIRCLE ( 'NONE', #199, 0.09375000000000001388 ) ;
#306 = SURFACE_SIDE_STYLE ('',( #1 ) ) ;
#307 = DIRECTION ( 'NONE',  ( -3.498990854706722745E-17, 1.000000000000000000, -0.000000000000000000 ) ) ;
#308 = PLANE ( 'NONE',  #211 ) ;
#309 = EDGE_CURVE ( 'NONE', #247, #167, #353, .T. ) ;
#310 = DIRECTION ( 'NONE',  ( -1.000000000000000000, 0.000000000000000000, 0.000000000000000000 ) ) ;
#311 = AXIS2_PLACEMENT_3D ( 'NONE', #181, #158, #36 ) ;
#312 = AXIS2_PLACEMENT_3D ( 'NONE', #344, #236, #292 ) ;
#313 = SURFACE_STYLE_FILL_AREA ( #121 ) ;
#314 = EDGE_CURVE ( 'NONE', #326, #103, #33, .T. ) ;
#315 = DIRECTION ( 'NONE',  ( -0.000000000000000000, -1.000000000000000000, -0.000000000000000000 ) ) ;
#316 = CARTESIAN_POINT ( 'NONE',  ( 0.1250000000000000000, 2.500000000000000000, 0.000000000000000000 ) ) ;
#317 = DIRECTION ( 'NONE',  ( -3.498990854706722745E-17, 1.000000000000000000, 0.000000000000000000 ) ) ;
#318 = AXIS2_PLACEMENT_3D ( 'NONE', #35, #116, #310 ) ;
#319 = PRESENTATION_STYLE_ASSIGNMENT (( #72 ) ) ;
#320 = DIRECTION ( 'NONE',  ( -1.000000000000000000, -3.498990854706722745E-17, 0.000000000000000000 ) ) ;
#321 = AXIS2_PLACEMENT_3D ( 'NONE', #229, #34, #38 ) ;
#322 = AXIS2_PLACEMENT_3D ( 'NONE', #64, #283, #8 ) ;
#323 = SURFACE_STYLE_USAGE ( .BOTH. , #77 ) ;
#324 = ORIENTED_EDGE ( 'NONE', *, *, #26, .F. ) ;
#325 = ADVANCED_BREP_SHAPE_REPRESENTATION ( '84097', ( #88, #208, #322 ), #352 ) ;
#326 = VERTEX_POINT ( 'NONE', #228 ) ;
#327 = CONICAL_SURFACE ( 'NONE', #44, 0.09375000000000001388, 0.2617993877991498519 ) ;
#328 = CARTESIAN_POINT ( 'NONE',  ( -0.1250000000000001110, 2.500000000000000000, 0.000000000000000000 ) ) ;
#329 = ORIENTED_EDGE ( 'NONE', *, *, #105, .F. ) ;
#330 = EDGE_CURVE ( 'NONE', #51, #80, #257, .T. ) ;
#331 = FILL_AREA_STYLE_COLOUR ( '', #145 ) ;
#332 = VERTEX_POINT ( 'NONE', #285 ) ;
#333 = PRESENTATION_LAYER_ASSIGNMENT (  '', '', ( #39 ) ) ;
#334 = CONICAL_SURFACE ( 'NONE', #293, 0.09375000000000001388, 0.2617993877991498519 ) ;
#335 = LENGTH_MEASURE_WITH_UNIT ( LENGTH_MEASURE( 0.02539999999999999897 ), #180 );
#336 = APPLICATION_PROTOCOL_DEFINITION ( 'draft international standard', 'automotive_design', 1998, #94 ) ;
#337 = CARTESIAN_POINT ( 'NONE',  ( -0.09375000000000001388, 0.7499999999999998890, 0.000000000000000000 ) ) ;
#338 = UNCERTAINTY_MEASURE_WITH_UNIT (LENGTH_MEASURE( 1.000000000000000082E-05 ), #238, 'distance_accuracy_value', 'NONE');
#339 =( GEOMETRIC_REPRESENTATION_CONTEXT ( 3 ) GLOBAL_UNCERTAINTY_ASSIGNED_CONTEXT ( ( #126 ) ) GLOBAL_UNIT_ASSIGNED_CONTEXT ( ( #201, #10, #15 ) ) REPRESENTATION_CONTEXT ( 'NONE', 'WORKASPACE' ) );
#340 = CIRCLE ( 'NONE', #318, 0.1250000000000000555 ) ;
#341 = CARTESIAN_POINT ( 'NONE',  ( -6.123233995736766036E-17, 2.500000000000000000, 0.000000000000000000 ) ) ;
#342 = CARTESIAN_POINT ( 'NONE',  ( 0.000000000000000000, 0.000000000000000000, 0.000000000000000000 ) ) ;
#343 = LENGTH_MEASURE_WITH_UNIT ( LENGTH_MEASURE( 0.02539999999999999897 ), #41 );
#344 = CARTESIAN_POINT ( 'NONE',  ( 0.000000000000000000, 0.000000000000000000, 0.000000000000000000 ) ) ;
#345 = MECHANICAL_DESIGN_GEOMETRIC_PRESENTATION_REPRESENTATION (  '', ( #188 ), #178 ) ;
#346 = ORIENTED_EDGE ( 'NONE', *, *, #135, .F. ) ;
#347 = UNCERTAINTY_MEASURE_WITH_UNIT (LENGTH_MEASURE( 1.000000000000000082E-05 ), #28, 'distance_accuracy_value', 'NONE');
#348 = DIRECTION ( 'NONE',  ( -0.000000000000000000, -1.000000000000000000, -0.000000000000000000 ) ) ;
#349 = DIRECTION ( 'NONE',  ( 0.000000000000000000, 0.000000000000000000, -1.000000000000000000 ) ) ;
#350 = ORIENTED_EDGE ( 'NONE', *, *, #163, .T. ) ;
#351 = EDGE_CURVE ( 'NONE', #103, #332, #223, .T. ) ;
#352 =( GEOMETRIC_REPRESENTATION_CONTEXT ( 3 ) GLOBAL_UNCERTAINTY_ASSIGNED_CONTEXT ( ( #55 ) ) GLOBAL_UNIT_ASSIGNED_CONTEXT ( ( #6, #95, #92 ) ) REPRESENTATION_CONTEXT ( 'NONE', 'WORKASPACE' ) );
#353 = CIRCLE ( 'NONE', #99, 0.09375000000000001388 ) ;
#354 = CARTESIAN_POINT ( 'NONE',  ( 0.000000000000000000, 0.000000000000000000, 0.000000000000000000 ) ) ;
#355 = SURFACE_STYLE_FILL_AREA ( #79 ) ;
#356 = ORIENTED_EDGE ( 'NONE', *, *, #46, .T. ) ;
#357 = ORIENTED_EDGE ( 'NONE', *, *, #163, .F. ) ;
#358 = PRESENTATION_LAYER_ASSIGNMENT (  '', '', ( #13 ) ) ;
#359 = FILL_AREA_STYLE_COLOUR ( '', #164 ) ;
ENDSEC;
END-ISO-10303-21;
