ISO-10303-21;
HEADER;
FILE_DESCRIPTION (( 'STEP AP214' ),
    '1' );
FILE_NAME ('07012.STEP',
    '2023-07-12T13:04:58',
    ( '' ),
    ( '' ),
    'SwSTEP 2.0',
    'SolidWorks 2023',
    '' );
FILE_SCHEMA (( 'AUTOMOTIVE_DESIGN' ));
ENDSEC;

DATA;
#1 = PRESENTATION_LAYER_ASSIGNMENT (  '', '', ( #11 ) ) ;
#2 = CARTESIAN_POINT ( 'NONE',  ( 3.244069492476312449E-16, 0.3249999999999988454, 0.000000000000000000 ) ) ;
#3 = CARTESIAN_POINT ( 'NONE',  ( -6.123233995736772199E-17, 3.000000000000000444, 0.000000000000000000 ) ) ;
#4 = UNCERTAINTY_MEASURE_WITH_UNIT (LENGTH_MEASURE( 1.000000000000000082E-05 ), #160, 'distance_accuracy_value', 'NONE');
#5 =( CONVERSION_BASED_UNIT ( 'INCH', #295 ) LENGTH_UNIT ( ) NAMED_UNIT ( #48 ) );
#6 = AXIS2_PLACEMENT_3D ( 'NONE', #7, #126, #290 ) ;
#7 = CARTESIAN_POINT ( 'NONE',  ( 1.449978133535231054E-18, 0.3249999999999988454, 0.000000000000000000 ) ) ;
#8 = SURFACE_STYLE_USAGE ( .BOTH. , #217 ) ;
#9 = CYLINDRICAL_SURFACE ( 'NONE', #202, 0.3749999999999998890 ) ;
#10 =( NAMED_UNIT ( * ) PLANE_ANGLE_UNIT ( ) SI_UNIT ( $, .RADIAN. ) );
#11 = STYLED_ITEM ( 'NONE', ( #153 ), #291 ) ;
#12 =( CONVERSION_BASED_UNIT ( 'INCH', #84 ) LENGTH_UNIT ( ) NAMED_UNIT ( #221 ) );
#13 = DIRECTION ( 'NONE',  ( -4.461471180108419361E-18, -1.000000000000000000, -0.000000000000000000 ) ) ;
#14 = DIRECTION ( 'NONE',  ( -1.000000000000000000, -1.441642202635509481E-16, 0.000000000000000000 ) ) ;
#15 =( LENGTH_UNIT ( ) NAMED_UNIT ( * ) SI_UNIT ( $, .METRE. ) );
#16 = CARTESIAN_POINT ( 'NONE',  ( 3.244069492476312449E-16, 0.3249999999999988454, 0.000000000000000000 ) ) ;
#17 = CIRCLE ( 'NONE', #43, 0.3750000000000001110 ) ;
#18 = COLOUR_RGB ( '',1.000000000000000000, 0.000000000000000000, 0.000000000000000000 ) ;
#19 = FILL_AREA_STYLE ('',( #280 ) ) ;
#20 = ORIENTED_EDGE ( 'NONE', *, *, #156, .F. ) ;
#21 = SURFACE_STYLE_USAGE ( .BOTH. , #251 ) ;
#22 = SURFACE_STYLE_FILL_AREA ( #95 ) ;
#23 = LENGTH_MEASURE_WITH_UNIT ( LENGTH_MEASURE( 0.02539999999999999897 ), #187 );
#24 = AXIS2_PLACEMENT_3D ( 'NONE', #2, #96, #185 ) ;
#25 = ORIENTED_EDGE ( 'NONE', *, *, #241, .T. ) ;
#26 = LENGTH_MEASURE_WITH_UNIT ( LENGTH_MEASURE( 0.02539999999999999897 ), #167 );
#27 = UNCERTAINTY_MEASURE_WITH_UNIT (LENGTH_MEASURE( 1.000000000000000082E-05 ), #207, 'distance_accuracy_value', 'NONE');
#28 = SURFACE_SIDE_STYLE ('',( #22 ) ) ;
#29 = AXIS2_PLACEMENT_3D ( 'NONE', #30, #37, #106 ) ;
#30 = CARTESIAN_POINT ( 'NONE',  ( 9.952362545469006714E-37, 2.230735590054210066E-19, 0.000000000000000000 ) ) ;
#31 = FILL_AREA_STYLE ('',( #270 ) ) ;
#32 = PRODUCT_DEFINITION_CONTEXT ( 'detailed design', #234, 'design' ) ;
#33 = EDGE_CURVE ( 'NONE', #201, #91, #168, .T. ) ;
#34 = CIRCLE ( 'NONE', #271, 0.3750000000000001110 ) ;
#35 = CIRCLE ( 'NONE', #105, 0.05000000000000000278 ) ;
#36 = CARTESIAN_POINT ( 'NONE',  ( 9.952362545469006714E-37, 2.230735590054210066E-19, 0.000000000000000000 ) ) ;
#37 = DIRECTION ( 'NONE',  ( 4.461471180108419361E-18, 1.000000000000000000, 0.000000000000000000 ) ) ;
#38 = APPLICATION_PROTOCOL_DEFINITION ( 'draft international standard', 'automotive_design', 1998, #234 ) ;
#39 = LENGTH_MEASURE_WITH_UNIT ( LENGTH_MEASURE( 0.02539999999999999897 ), #135 );
#40 =( CONVERSION_BASED_UNIT ( 'INCH', #157 ) LENGTH_UNIT ( ) NAMED_UNIT ( #86 ) );
#41 = CARTESIAN_POINT ( 'NONE',  ( 0.3750000000000000555, 3.000000000000000444, 4.592425496802573602E-17 ) ) ;
#42 = CARTESIAN_POINT ( 'NONE',  ( 0.3750000000000000555, 0.3249999999999988454, 4.592425496802574219E-17 ) ) ;
#43 = AXIS2_PLACEMENT_3D ( 'NONE', #208, #220, #73 ) ;
#44 = AXIS2_PLACEMENT_3D ( 'NONE', #131, #107, #14 ) ;
#45 = FACE_OUTER_BOUND ( 'NONE', #90, .T. ) ;
#46 =( GEOMETRIC_REPRESENTATION_CONTEXT ( 3 ) GLOBAL_UNCERTAINTY_ASSIGNED_CONTEXT ( ( #269 ) ) GLOBAL_UNIT_ASSIGNED_CONTEXT ( ( #40, #206, #159 ) ) REPRESENTATION_CONTEXT ( 'NONE', 'WORKASPACE' ) );
#47 = DIRECTION ( 'NONE',  ( 0.7071067811865486830, 0.7071067811865462405, 8.659560562354947649E-17 ) ) ;
#48 = DIMENSIONAL_EXPONENTS ( 1.000000000000000000, 0.000000000000000000, 0.000000000000000000, 0.000000000000000000, 0.000000000000000000, 0.000000000000000000, 0.000000000000000000 ) ;
#49 = EDGE_CURVE ( 'NONE', #201, #169, #282, .T. ) ;
#50 = MECHANICAL_DESIGN_GEOMETRIC_PRESENTATION_REPRESENTATION (  '', ( #193 ), #275 ) ;
#51 =( NAMED_UNIT ( * ) PLANE_ANGLE_UNIT ( ) SI_UNIT ( $, .RADIAN. ) );
#52 = ORIENTED_EDGE ( 'NONE', *, *, #156, .T. ) ;
#53 = UNCERTAINTY_MEASURE_WITH_UNIT (LENGTH_MEASURE( 1.000000000000000082E-05 ), #285, 'distance_accuracy_value', 'NONE');
#54 = SURFACE_STYLE_FILL_AREA ( #99 ) ;
#55 =( LENGTH_UNIT ( ) NAMED_UNIT ( * ) SI_UNIT ( $, .METRE. ) );
#56 = CARTESIAN_POINT ( 'NONE',  ( -0.05000000000000000278, 4.461471180108420132E-19, 0.000000000000000000 ) ) ;
#57 = STYLED_ITEM ( 'NONE', ( #252 ), #158 ) ;
#58 = CARTESIAN_POINT ( 'NONE',  ( 0.3749999999999998335, 3.000000000000000444, 4.592425496802572986E-17 ) ) ;
#59 = FACE_OUTER_BOUND ( 'NONE', #302, .T. ) ;
#60 = PRESENTATION_LAYER_ASSIGNMENT (  '', '', ( #193 ) ) ;
#61 = EDGE_CURVE ( 'NONE', #155, #114, #17, .T. ) ;
#62 = DIRECTION ( 'NONE',  ( 1.000000000000000000, -4.461471180108420132E-18, 0.000000000000000000 ) ) ;
#63 = ORIENTED_EDGE ( 'NONE', *, *, #241, .F. ) ;
#64 = CARTESIAN_POINT ( 'NONE',  ( 0.000000000000000000, 0.000000000000000000, 0.000000000000000000 ) ) ;
#65 = DIRECTION ( 'NONE',  ( -1.441642202635509481E-16, 1.000000000000000000, -0.000000000000000000 ) ) ;
#66 = EDGE_LOOP ( 'NONE', ( #184, #63 ) ) ;
#67 = ORIENTED_EDGE ( 'NONE', *, *, #170, .F. ) ;
#68 = PRESENTATION_STYLE_ASSIGNMENT (( #115 ) ) ;
#69 = ADVANCED_FACE ( 'NONE', ( #242 ), #222, .F. ) ;
#70 = ORIENTED_EDGE ( 'NONE', *, *, #79, .F. ) ;
#71 = PRESENTATION_LAYER_ASSIGNMENT (  '', '', ( #296 ) ) ;
#72 = ORIENTED_EDGE ( 'NONE', *, *, #267, .T. ) ;
#73 = DIRECTION ( 'NONE',  ( -1.000000000000000000, 0.000000000000000000, 0.000000000000000000 ) ) ;
#74 = ADVANCED_FACE ( 'NONE', ( #80 ), #9, .T. ) ;
#75 = VECTOR ( 'NONE', #47, 39.37007874015748854 ) ;
#76 = VECTOR ( 'NONE', #65, 39.37007874015748143 ) ;
#77 = PRESENTATION_STYLE_ASSIGNMENT (( #8 ) ) ;
#78 =( CONVERSION_BASED_UNIT ( 'INCH', #294 ) LENGTH_UNIT ( ) NAMED_UNIT ( #94 ) );
#79 = EDGE_CURVE ( 'NONE', #114, #155, #34, .T. ) ;
#80 = FACE_OUTER_BOUND ( 'NONE', #255, .T. ) ;
#81 = COLOUR_RGB ( '',1.000000000000000000, 0.000000000000000000, 0.000000000000000000 ) ;
#82 = MANIFOLD_SOLID_BREP ( 'Revolve - Cutting Edge', #186 ) ;
#83 = CARTESIAN_POINT ( 'NONE',  ( -0.3749999999999999445, 3.000000000000000444, 0.000000000000000000 ) ) ;
#84 = LENGTH_MEASURE_WITH_UNIT ( LENGTH_MEASURE( 0.02539999999999999897 ), #15 );
#85 = EDGE_CURVE ( 'NONE', #213, #169, #119, .T. ) ;
#86 = DIMENSIONAL_EXPONENTS ( 1.000000000000000000, 0.000000000000000000, 0.000000000000000000, 0.000000000000000000, 0.000000000000000000, 0.000000000000000000, 0.000000000000000000 ) ;
#87 = MECHANICAL_DESIGN_GEOMETRIC_PRESENTATION_REPRESENTATION (  '', ( #57 ), #112 ) ;
#88 = PRODUCT_RELATED_PRODUCT_CATEGORY ( 'part', '', ( #98 ) ) ;
#89 = CARTESIAN_POINT ( 'NONE',  ( 9.952362545469006714E-37, 2.230735590054210066E-19, 0.000000000000000000 ) ) ;
#90 = EDGE_LOOP ( 'NONE', ( #230, #67 ) ) ;
#91 = VERTEX_POINT ( 'NONE', #56 ) ;
#92 = FACE_OUTER_BOUND ( 'NONE', #146, .T. ) ;
#93 =( GEOMETRIC_REPRESENTATION_CONTEXT ( 3 ) GLOBAL_UNCERTAINTY_ASSIGNED_CONTEXT ( ( #53 ) ) GLOBAL_UNIT_ASSIGNED_CONTEXT ( ( #285, #51, #235 ) ) REPRESENTATION_CONTEXT ( 'NONE', 'WORKASPACE' ) );
#94 = DIMENSIONAL_EXPONENTS ( 1.000000000000000000, 0.000000000000000000, 0.000000000000000000, 0.000000000000000000, 0.000000000000000000, 0.000000000000000000, 0.000000000000000000 ) ;
#95 = FILL_AREA_STYLE ('',( #260 ) ) ;
#96 = DIRECTION ( 'NONE',  ( -1.441642202635509481E-16, 1.000000000000000000, -0.000000000000000000 ) ) ;
#97 = DIRECTION ( 'NONE',  ( -1.000000000000000000, 4.461471180108419361E-18, 0.000000000000000000 ) ) ;
#98 = PRODUCT ( '07012', '07012', '', ( #203 ) ) ;
#99 = FILL_AREA_STYLE ('',( #121 ) ) ;
#100 = DIRECTION ( 'NONE',  ( -1.441642202635509481E-16, 1.000000000000000000, -0.000000000000000000 ) ) ;
#101 = PRODUCT_DEFINITION ( 'UNKNOWN', '', #245, #32 ) ;
#102 = DIRECTION ( 'NONE',  ( -1.000000000000000000, 0.000000000000000000, 0.000000000000000000 ) ) ;
#103 = DIRECTION ( 'NONE',  ( 1.441642202635509481E-16, -1.000000000000000000, 0.000000000000000000 ) ) ;
#104 = CARTESIAN_POINT ( 'NONE',  ( -6.123233995736770966E-17, 3.000000000000000444, 0.000000000000000000 ) ) ;
#105 = AXIS2_PLACEMENT_3D ( 'NONE', #36, #127, #62 ) ;
#106 = DIRECTION ( 'NONE',  ( -1.000000000000000000, 4.461471180108420132E-18, 0.000000000000000000 ) ) ;
#107 = DIRECTION ( 'NONE',  ( -1.441642202635509481E-16, 1.000000000000000000, 0.000000000000000000 ) ) ;
#108 = DIRECTION ( 'NONE',  ( 1.000000000000000000, 0.000000000000000000, 0.000000000000000000 ) ) ;
#109 = CARTESIAN_POINT ( 'NONE',  ( -0.3750000000000000555, 0.3249999999999988454, 0.000000000000000000 ) ) ;
#110 = ORIENTED_EDGE ( 'NONE', *, *, #188, .F. ) ;
#111 = DIRECTION ( 'NONE',  ( -1.441642202635509481E-16, 1.000000000000000000, -0.000000000000000000 ) ) ;
#112 =( GEOMETRIC_REPRESENTATION_CONTEXT ( 3 ) GLOBAL_UNCERTAINTY_ASSIGNED_CONTEXT ( ( #4 ) ) GLOBAL_UNIT_ASSIGNED_CONTEXT ( ( #160, #247, #177 ) ) REPRESENTATION_CONTEXT ( 'NONE', 'WORKASPACE' ) );
#113 = DIRECTION ( 'NONE',  ( 0.000000000000000000, 0.000000000000000000, 1.000000000000000000 ) ) ;
#114 = VERTEX_POINT ( 'NONE', #192 ) ;
#115 = SURFACE_STYLE_USAGE ( .BOTH. , #28 ) ;
#116 = DIMENSIONAL_EXPONENTS ( 1.000000000000000000, 0.000000000000000000, 0.000000000000000000, 0.000000000000000000, 0.000000000000000000, 0.000000000000000000, 0.000000000000000000 ) ;
#117 =( GEOMETRIC_REPRESENTATION_CONTEXT ( 3 ) GLOBAL_UNCERTAINTY_ASSIGNED_CONTEXT ( ( #287 ) ) GLOBAL_UNIT_ASSIGNED_CONTEXT ( ( #5, #147, #152 ) ) REPRESENTATION_CONTEXT ( 'NONE', 'WORKASPACE' ) );
#118 = FILL_AREA_STYLE_COLOUR ( '', #219 ) ;
#119 = CIRCLE ( 'NONE', #6, 0.3750000000000000555 ) ;
#120 = ADVANCED_FACE ( 'NONE', ( #149 ), #194, .T. ) ;
#121 = FILL_AREA_STYLE_COLOUR ( '', #81 ) ;
#122 = SURFACE_STYLE_FILL_AREA ( #31 ) ;
#123 = ADVANCED_FACE ( 'NONE', ( #266 ), #142, .T. ) ;
#124 = CIRCLE ( 'NONE', #24, 0.3749999999999996669 ) ;
#125 = UNCERTAINTY_MEASURE_WITH_UNIT (LENGTH_MEASURE( 1.000000000000000082E-05 ), #12, 'distance_accuracy_value', 'NONE');
#126 = DIRECTION ( 'NONE',  ( -4.461471180108419361E-18, -1.000000000000000000, -0.000000000000000000 ) ) ;
#127 = DIRECTION ( 'NONE',  ( -4.461471180108419361E-18, -1.000000000000000000, -0.000000000000000000 ) ) ;
#128 =( NAMED_UNIT ( * ) PLANE_ANGLE_UNIT ( ) SI_UNIT ( $, .RADIAN. ) );
#129 = AXIS2_PLACEMENT_3D ( 'NONE', #3, #240, #102 ) ;
#130 = CARTESIAN_POINT ( 'NONE',  ( 4.976181272734503357E-37, 1.115367795027105033E-19, 0.000000000000000000 ) ) ;
#131 = CARTESIAN_POINT ( 'NONE',  ( 3.244069492476312449E-16, 0.3249999999999988454, 0.000000000000000000 ) ) ;
#132 = DIRECTION ( 'NONE',  ( 1.000000000000000000, 0.000000000000000000, 0.000000000000000000 ) ) ;
#133 = DIRECTION ( 'NONE',  ( 1.000000000000000000, -4.461471180108420132E-18, 0.000000000000000000 ) ) ;
#134 = COLOUR_RGB ( '',0.7921568627450980005, 0.8196078431372548767, 0.9333333333333333481 ) ;
#135 =( LENGTH_UNIT ( ) NAMED_UNIT ( * ) SI_UNIT ( $, .METRE. ) );
#136 = STYLED_ITEM ( 'NONE', ( #68 ), #278 ) ;
#137 = AXIS2_PLACEMENT_3D ( 'NONE', #64, #113, #108 ) ;
#138 = ORIENTED_EDGE ( 'NONE', *, *, #231, .T. ) ;
#139 = DIMENSIONAL_EXPONENTS ( 1.000000000000000000, 0.000000000000000000, 0.000000000000000000, 0.000000000000000000, 0.000000000000000000, 0.000000000000000000, 0.000000000000000000 ) ;
#140 = CARTESIAN_POINT ( 'NONE',  ( 1.449978133535231054E-18, 0.3249999999999988454, 0.000000000000000000 ) ) ;
#141 = AXIS2_PLACEMENT_3D ( 'NONE', #214, #103, #195 ) ;
#142 = CONICAL_SURFACE ( 'NONE', #29, 0.05000000000000000278, 0.7853981633974500554 ) ;
#143 =( NAMED_UNIT ( * ) PLANE_ANGLE_UNIT ( ) SI_UNIT ( $, .RADIAN. ) );
#144 = UNCERTAINTY_MEASURE_WITH_UNIT (LENGTH_MEASURE( 1.000000000000000082E-05 ), #78, 'distance_accuracy_value', 'NONE');
#145 = EDGE_LOOP ( 'NONE', ( #72, #238, #70, #20 ) ) ;
#146 = EDGE_LOOP ( 'NONE', ( #306, #307 ) ) ;
#147 =( NAMED_UNIT ( * ) PLANE_ANGLE_UNIT ( ) SI_UNIT ( $, .RADIAN. ) );
#148 = COLOUR_RGB ( '',1.000000000000000000, 0.000000000000000000, 0.000000000000000000 ) ;
#149 = FACE_OUTER_BOUND ( 'NONE', #145, .T. ) ;
#150 = DIRECTION ( 'NONE',  ( -1.000000000000000000, 0.000000000000000000, 0.000000000000000000 ) ) ;
#151 = MECHANICAL_DESIGN_GEOMETRIC_PRESENTATION_REPRESENTATION (  '', ( #136 ), #93 ) ;
#152 =( NAMED_UNIT ( * ) SI_UNIT ( $, .STERADIAN. ) SOLID_ANGLE_UNIT ( ) );
#153 = PRESENTATION_STYLE_ASSIGNMENT (( #21 ) ) ;
#154 = SURFACE_SIDE_STYLE ('',( #253 ) ) ;
#155 = VERTEX_POINT ( 'NONE', #41 ) ;
#156 = EDGE_CURVE ( 'NONE', #257, #114, #279, .T. ) ;
#157 = LENGTH_MEASURE_WITH_UNIT ( LENGTH_MEASURE( 0.02539999999999999897 ), #303 );
#158 = ADVANCED_FACE ( 'NONE', ( #59 ), #239, .T. ) ;
#159 =( NAMED_UNIT ( * ) SI_UNIT ( $, .STERADIAN. ) SOLID_ANGLE_UNIT ( ) );
#160 =( CONVERSION_BASED_UNIT ( 'INCH', #39 ) LENGTH_UNIT ( ) NAMED_UNIT ( #116 ) );
#161 = ORIENTED_EDGE ( 'NONE', *, *, #61, .F. ) ;
#162 = MECHANICAL_DESIGN_GEOMETRIC_PRESENTATION_REPRESENTATION (  '', ( #296 ), #117 ) ;
#163 = AXIS2_PLACEMENT_3D ( 'NONE', #140, #256, #97 ) ;
#164 = CARTESIAN_POINT ( 'NONE',  ( 0.05000000000000000278, 0.000000000000000000, 6.123233995736766344E-18 ) ) ;
#165 = FILL_AREA_STYLE ('',( #118 ) ) ;
#166 = SURFACE_SIDE_STYLE ('',( #283 ) ) ;
#167 =( LENGTH_UNIT ( ) NAMED_UNIT ( * ) SI_UNIT ( $, .METRE. ) );
#168 = CIRCLE ( 'NONE', #218, 0.05000000000000000278 ) ;
#169 = VERTEX_POINT ( 'NONE', #42 ) ;
#170 = EDGE_CURVE ( 'NONE', #169, #213, #292, .T. ) ;
#171 = DIRECTION ( 'NONE',  ( -1.000000000000000000, 0.000000000000000000, 0.000000000000000000 ) ) ;
#172 = STYLED_ITEM ( 'NONE', ( #243 ), #123 ) ;
#173 = SURFACE_STYLE_USAGE ( .BOTH. , #293 ) ;
#174 = DIRECTION ( 'NONE',  ( -1.441642202635509481E-16, 1.000000000000000000, -0.000000000000000000 ) ) ;
#175 = AXIS2_PLACEMENT_3D ( 'NONE', #16, #111, #204 ) ;
#176 = COLOUR_RGB ( '',0.7921568627450980005, 0.8196078431372548767, 0.9333333333333333481 ) ;
#177 =( NAMED_UNIT ( * ) SI_UNIT ( $, .STERADIAN. ) SOLID_ANGLE_UNIT ( ) );
#178 = FILL_AREA_STYLE ('',( #249 ) ) ;
#179 = DIRECTION ( 'NONE',  ( -1.441642202635509481E-16, 1.000000000000000000, -0.000000000000000000 ) ) ;
#180 = PRESENTATION_LAYER_ASSIGNMENT (  '', '', ( #57 ) ) ;
#181 = CARTESIAN_POINT ( 'NONE',  ( 0.3750000000000000555, 0.3249999999999989009, 4.592425496802573602E-17 ) ) ;
#182 = DIRECTION ( 'NONE',  ( -4.461471180108419361E-18, -1.000000000000000000, -0.000000000000000000 ) ) ;
#183 = SURFACE_STYLE_FILL_AREA ( #19 ) ;
#184 = ORIENTED_EDGE ( 'NONE', *, *, #267, .F. ) ;
#185 = DIRECTION ( 'NONE',  ( -1.000000000000000000, -1.821231995776177205E-16, 0.000000000000000000 ) ) ;
#186 = CLOSED_SHELL ( 'NONE', ( #123, #268, #158, #278 ) ) ;
#187 =( LENGTH_UNIT ( ) NAMED_UNIT ( * ) SI_UNIT ( $, .METRE. ) );
#188 = EDGE_CURVE ( 'NONE', #91, #201, #35, .T. ) ;
#189 = ADVANCED_FACE ( 'NONE', ( #299 ), #273, .F. ) ;
#190 =( NAMED_UNIT ( * ) SI_UNIT ( $, .STERADIAN. ) SOLID_ANGLE_UNIT ( ) );
#191 = ORIENTED_EDGE ( 'NONE', *, *, #170, .T. ) ;
#192 = CARTESIAN_POINT ( 'NONE',  ( -0.3750000000000001665, 3.000000000000000444, 0.000000000000000000 ) ) ;
#193 = STYLED_ITEM ( 'NONE', ( #284 ), #268 ) ;
#194 = CYLINDRICAL_SURFACE ( 'NONE', #129, 0.3749999999999998890 ) ;
#195 = DIRECTION ( 'NONE',  ( 1.000000000000000000, 1.441642202635509481E-16, 0.000000000000000000 ) ) ;
#196 = MECHANICAL_DESIGN_GEOMETRIC_PRESENTATION_REPRESENTATION (  '', ( #11 ), #46 ) ;
#197 = SURFACE_STYLE_USAGE ( .BOTH. , #154 ) ;
#198 = SHAPE_DEFINITION_REPRESENTATION ( #289, #236 ) ;
#199 = CARTESIAN_POINT ( 'NONE',  ( 0.05000000000000000278, 0.000000000000000000, 2.602374448188125966E-17 ) ) ;
#200 = LINE ( 'NONE', #276, #228 ) ;
#201 = VERTEX_POINT ( 'NONE', #199 ) ;
#202 = AXIS2_PLACEMENT_3D ( 'NONE', #263, #174, #150 ) ;
#203 = PRODUCT_CONTEXT ( 'NONE', #216, 'mechanical' ) ;
#204 = DIRECTION ( 'NONE',  ( -1.000000000000000000, -1.821231995776177205E-16, 0.000000000000000000 ) ) ;
#205 = ORIENTED_EDGE ( 'NONE', *, *, #61, .T. ) ;
#206 =( NAMED_UNIT ( * ) PLANE_ANGLE_UNIT ( ) SI_UNIT ( $, .RADIAN. ) );
#207 =( CONVERSION_BASED_UNIT ( 'INCH', #23 ) LENGTH_UNIT ( ) NAMED_UNIT ( #139 ) );
#208 = CARTESIAN_POINT ( 'NONE',  ( -6.123233995736770966E-17, 3.000000000000000444, 0.000000000000000000 ) ) ;
#209 = AXIS2_PLACEMENT_3D ( 'NONE', #224, #225, #274 ) ;
#210 = SURFACE_STYLE_USAGE ( .BOTH. , #166 ) ;
#211 = ORIENTED_EDGE ( 'NONE', *, *, #49, .T. ) ;
#212 = EDGE_CURVE ( 'NONE', #237, #155, #300, .T. ) ;
#213 = VERTEX_POINT ( 'NONE', #109 ) ;
#214 = CARTESIAN_POINT ( 'NONE',  ( 0.3750000000000000555, 3.000000000000000444, 0.000000000000000000 ) ) ;
#215 =( LENGTH_UNIT ( ) NAMED_UNIT ( * ) SI_UNIT ( $, .METRE. ) );
#216 = APPLICATION_CONTEXT ( 'automotive_design' ) ;
#217 = SURFACE_SIDE_STYLE ('',( #122 ) ) ;
#218 = AXIS2_PLACEMENT_3D ( 'NONE', #89, #182, #133 ) ;
#219 = COLOUR_RGB ( '',1.000000000000000000, 0.000000000000000000, 0.000000000000000000 ) ;
#220 = DIRECTION ( 'NONE',  ( -1.441642202635509481E-16, 1.000000000000000000, -0.000000000000000000 ) ) ;
#221 = DIMENSIONAL_EXPONENTS ( 1.000000000000000000, 0.000000000000000000, 0.000000000000000000, 0.000000000000000000, 0.000000000000000000, 0.000000000000000000, 0.000000000000000000 ) ;
#222 = PLANE ( 'NONE',  #141 ) ;
#223 = VECTOR ( 'NONE', #179, 39.37007874015748143 ) ;
#224 = CARTESIAN_POINT ( 'NONE',  ( 9.952362545469006714E-37, 2.230735590054210066E-19, 0.000000000000000000 ) ) ;
#225 = DIRECTION ( 'NONE',  ( 4.461471180108419361E-18, 1.000000000000000000, 0.000000000000000000 ) ) ;
#226 = ORIENTED_EDGE ( 'NONE', *, *, #33, .F. ) ;
#227 = DIRECTION ( 'NONE',  ( -4.461471180108419361E-18, -1.000000000000000000, 0.000000000000000000 ) ) ;
#228 = VECTOR ( 'NONE', #301, 39.37007874015748854 ) ;
#229 =( NAMED_UNIT ( * ) SI_UNIT ( $, .STERADIAN. ) SOLID_ANGLE_UNIT ( ) );
#230 = ORIENTED_EDGE ( 'NONE', *, *, #85, .F. ) ;
#231 = EDGE_CURVE ( 'NONE', #91, #213, #200, .T. ) ;
#232 =( NAMED_UNIT ( * ) SI_UNIT ( $, .STERADIAN. ) SOLID_ANGLE_UNIT ( ) );
#233 = MECHANICAL_DESIGN_GEOMETRIC_PRESENTATION_REPRESENTATION (  '', ( #172 ), #244 ) ;
#234 = APPLICATION_CONTEXT ( 'automotive_design' ) ;
#235 =( NAMED_UNIT ( * ) SI_UNIT ( $, .STERADIAN. ) SOLID_ANGLE_UNIT ( ) );
#236 = ADVANCED_BREP_SHAPE_REPRESENTATION ( '07012', ( #82, #291, #137 ), #272 ) ;
#237 = VERTEX_POINT ( 'NONE', #181 ) ;
#238 = ORIENTED_EDGE ( 'NONE', *, *, #212, .T. ) ;
#239 = CONICAL_SURFACE ( 'NONE', #209, 0.05000000000000000278, 0.7853981633974500554 ) ;
#240 = DIRECTION ( 'NONE',  ( -1.441642202635509481E-16, 1.000000000000000000, -0.000000000000000000 ) ) ;
#241 = EDGE_CURVE ( 'NONE', #237, #257, #259, .T. ) ;
#242 = FACE_OUTER_BOUND ( 'NONE', #262, .T. ) ;
#243 = PRESENTATION_STYLE_ASSIGNMENT (( #173 ) ) ;
#244 =( GEOMETRIC_REPRESENTATION_CONTEXT ( 3 ) GLOBAL_UNCERTAINTY_ASSIGNED_CONTEXT ( ( #144 ) ) GLOBAL_UNIT_ASSIGNED_CONTEXT ( ( #78, #10, #229 ) ) REPRESENTATION_CONTEXT ( 'NONE', 'WORKASPACE' ) );
#245 = PRODUCT_DEFINITION_FORMATION_WITH_SPECIFIED_SOURCE ( 'ANY', '', #98, .NOT_KNOWN. ) ;
#246 = CARTESIAN_POINT ( 'NONE',  ( 1.449978133535231054E-18, 0.3249999999999988454, 0.000000000000000000 ) ) ;
#247 =( NAMED_UNIT ( * ) PLANE_ANGLE_UNIT ( ) SI_UNIT ( $, .RADIAN. ) );
#248 = DIMENSIONAL_EXPONENTS ( 1.000000000000000000, 0.000000000000000000, 0.000000000000000000, 0.000000000000000000, 0.000000000000000000, 0.000000000000000000, 0.000000000000000000 ) ;
#249 = FILL_AREA_STYLE_COLOUR ( '', #148 ) ;
#250 = ORIENTED_EDGE ( 'NONE', *, *, #212, .F. ) ;
#251 = SURFACE_SIDE_STYLE ('',( #183 ) ) ;
#252 = PRESENTATION_STYLE_ASSIGNMENT (( #197 ) ) ;
#253 = SURFACE_STYLE_FILL_AREA ( #178 ) ;
#254 = PRESENTATION_LAYER_ASSIGNMENT (  '', '', ( #172 ) ) ;
#255 = EDGE_LOOP ( 'NONE', ( #250, #25, #52, #161 ) ) ;
#256 = DIRECTION ( 'NONE',  ( 4.461471180108419361E-18, 1.000000000000000000, 0.000000000000000000 ) ) ;
#257 = VERTEX_POINT ( 'NONE', #304 ) ;
#258 = ORIENTED_EDGE ( 'NONE', *, *, #79, .T. ) ;
#259 = CIRCLE ( 'NONE', #175, 0.3749999999999996669 ) ;
#260 = FILL_AREA_STYLE_COLOUR ( '', #18 ) ;
#261 = EDGE_LOOP ( 'NONE', ( #226, #211, #191, #308 ) ) ;
#262 = EDGE_LOOP ( 'NONE', ( #258, #205 ) ) ;
#263 = CARTESIAN_POINT ( 'NONE',  ( -6.123233995736772199E-17, 3.000000000000000444, 0.000000000000000000 ) ) ;
#264 = CLOSED_SHELL ( 'NONE', ( #120, #189, #74, #69 ) ) ;
#265 = AXIS2_PLACEMENT_3D ( 'NONE', #130, #227, #298 ) ;
#266 = FACE_OUTER_BOUND ( 'NONE', #261, .T. ) ;
#267 = EDGE_CURVE ( 'NONE', #257, #237, #124, .T. ) ;
#268 = ADVANCED_FACE ( 'NONE', ( #45 ), #288, .T. ) ;
#269 = UNCERTAINTY_MEASURE_WITH_UNIT (LENGTH_MEASURE( 1.000000000000000082E-05 ), #40, 'distance_accuracy_value', 'NONE');
#270 = FILL_AREA_STYLE_COLOUR ( '', #134 ) ;
#271 = AXIS2_PLACEMENT_3D ( 'NONE', #104, #100, #171 ) ;
#272 =( GEOMETRIC_REPRESENTATION_CONTEXT ( 3 ) GLOBAL_UNCERTAINTY_ASSIGNED_CONTEXT ( ( #125 ) ) GLOBAL_UNIT_ASSIGNED_CONTEXT ( ( #12, #128, #232 ) ) REPRESENTATION_CONTEXT ( 'NONE', 'WORKASPACE' ) );
#273 = PLANE ( 'NONE',  #44 ) ;
#274 = DIRECTION ( 'NONE',  ( -1.000000000000000000, 4.461471180108420132E-18, 0.000000000000000000 ) ) ;
#275 =( GEOMETRIC_REPRESENTATION_CONTEXT ( 3 ) GLOBAL_UNCERTAINTY_ASSIGNED_CONTEXT ( ( #27 ) ) GLOBAL_UNIT_ASSIGNED_CONTEXT ( ( #207, #143, #190 ) ) REPRESENTATION_CONTEXT ( 'NONE', 'WORKASPACE' ) );
#276 = CARTESIAN_POINT ( 'NONE',  ( -0.05000000000000000278, 4.461471180108420132E-19, 0.000000000000000000 ) ) ;
#277 = ORIENTED_EDGE ( 'NONE', *, *, #49, .F. ) ;
#278 = ADVANCED_FACE ( 'NONE', ( #92 ), #309, .T. ) ;
#279 = LINE ( 'NONE', #83, #76 ) ;
#280 = FILL_AREA_STYLE_COLOUR ( '', #176 ) ;
#281 = ORIENTED_EDGE ( 'NONE', *, *, #85, .T. ) ;
#282 = LINE ( 'NONE', #164, #75 ) ;
#283 = SURFACE_STYLE_FILL_AREA ( #165 ) ;
#284 = PRESENTATION_STYLE_ASSIGNMENT (( #210 ) ) ;
#285 =( CONVERSION_BASED_UNIT ( 'INCH', #26 ) LENGTH_UNIT ( ) NAMED_UNIT ( #248 ) );
#286 = PRESENTATION_LAYER_ASSIGNMENT (  '', '', ( #136 ) ) ;
#287 = UNCERTAINTY_MEASURE_WITH_UNIT (LENGTH_MEASURE( 1.000000000000000082E-05 ), #5, 'distance_accuracy_value', 'NONE');
#288 = PLANE ( 'NONE',  #163 ) ;
#289 = PRODUCT_DEFINITION_SHAPE ( 'NONE', 'NONE',  #101 ) ;
#290 = DIRECTION ( 'NONE',  ( 1.000000000000000000, 0.000000000000000000, 0.000000000000000000 ) ) ;
#291 = MANIFOLD_SOLID_BREP ( 'Revolve - Tool Body (Tipped Off)', #264 ) ;
#292 = CIRCLE ( 'NONE', #297, 0.3750000000000000555 ) ;
#293 = SURFACE_SIDE_STYLE ('',( #54 ) ) ;
#294 = LENGTH_MEASURE_WITH_UNIT ( LENGTH_MEASURE( 0.02539999999999999897 ), #55 );
#295 = LENGTH_MEASURE_WITH_UNIT ( LENGTH_MEASURE( 0.02539999999999999897 ), #215 );
#296 = STYLED_ITEM ( 'NONE', ( #77 ), #82 ) ;
#297 = AXIS2_PLACEMENT_3D ( 'NONE', #246, #13, #132 ) ;
#298 = DIRECTION ( 'NONE',  ( 1.000000000000000000, -4.461471180108419361E-18, 0.000000000000000000 ) ) ;
#299 = FACE_OUTER_BOUND ( 'NONE', #66, .T. ) ;
#300 = LINE ( 'NONE', #58, #223 ) ;
#301 = DIRECTION ( 'NONE',  ( -0.7071067811865486830, 0.7071067811865462405, 0.000000000000000000 ) ) ;
#302 = EDGE_LOOP ( 'NONE', ( #277, #110, #138, #281 ) ) ;
#303 =( LENGTH_UNIT ( ) NAMED_UNIT ( * ) SI_UNIT ( $, .METRE. ) );
#304 = CARTESIAN_POINT ( 'NONE',  ( -0.3749999999999993339, 0.3249999999999987899, 0.000000000000000000 ) ) ;
#305 = APPLICATION_PROTOCOL_DEFINITION ( 'draft international standard', 'automotive_design', 1998, #216 ) ;
#306 = ORIENTED_EDGE ( 'NONE', *, *, #188, .T. ) ;
#307 = ORIENTED_EDGE ( 'NONE', *, *, #33, .T. ) ;
#308 = ORIENTED_EDGE ( 'NONE', *, *, #231, .F. ) ;
#309 = PLANE ( 'NONE',  #265 ) ;
ENDSEC;
END-ISO-10303-21;
