ISO-10303-21;
HEADER;
FILE_DESCRIPTION (( 'STEP AP214' ),
    '1' );
FILE_NAME ('Micro_GEM-500-3.STEP',
    '2021-09-01T20:47:28',
    ( '' ),
    ( '' ),
    'SwSTEP 2.0',
    'SolidWorks 2020',
    '' );
FILE_SCHEMA (( 'AUTOMOTIVE_DESIGN' ));
ENDSEC;

DATA;
#1 =( NAMED_UNIT ( * ) SI_UNIT ( $, .STERADIAN. ) SOLID_ANGLE_UNIT ( ) );
#2 = EDGE_CURVE ( 'NONE', #81, #150, #151, .T. ) ;
#3 = EDGE_LOOP ( 'NONE', ( #177, #140, #200, #122 ) ) ;
#4 = ORIENTED_EDGE ( 'NONE', *, *, #288, .T. ) ;
#5 = AXIS2_PLACEMENT_3D ( 'NONE', #282, #152, #153 ) ;
#6 = ORIENTED_EDGE ( 'NONE', *, *, #252, .T. ) ;
#7 = LINE ( 'NONE', #30, #48 ) ;
#8 = DIRECTION ( 'NONE',  ( 1.224646799147353454E-16, 0.0000000000000000000, 1.000000000000000000 ) ) ;
#9 = AXIS2_PLACEMENT_3D ( 'NONE', #86, #267, #206 ) ;
#10 = VECTOR ( 'NONE', #70, 39.37007874015748854 ) ;
#11 = DIRECTION ( 'NONE',  ( -0.1736481776669312194, 2.126576849575783625E-17, 0.9848077530122080203 ) ) ;
#12 = APPLICATION_CONTEXT ( 'automotive_design' ) ;
#13 = FILL_AREA_STYLE_COLOUR ( '', #215 ) ;
#14 =( CONVERSION_BASED_UNIT ( 'INCH', #40 ) LENGTH_UNIT ( ) NAMED_UNIT ( #97 ) );
#15 = EDGE_CURVE ( 'NONE', #82, #146, #239, .T. ) ;
#16 = DIRECTION ( 'NONE',  ( 0.0000000000000000000, 0.0000000000000000000, 1.000000000000000000 ) ) ;
#17 = DIRECTION ( 'NONE',  ( 1.000000000000000000, 0.0000000000000000000, 0.0000000000000000000 ) ) ;
#18 = FILL_AREA_STYLE_COLOUR ( '', #279 ) ;
#19 = CARTESIAN_POINT ( 'NONE',  ( 0.0000000000000000000, 0.0000000000000000000, 0.0000000000000000000 ) ) ;
#20 = DIRECTION ( 'NONE',  ( -1.000000000000000000, 0.0000000000000000000, 1.224646799147353700E-16 ) ) ;
#21 = STYLED_ITEM ( 'NONE', ( #225 ), #138 ) ;
#22 = CARTESIAN_POINT ( 'NONE',  ( -0.2497499999999998888, 3.060086189369449292E-17, 1.000000000000000000 ) ) ;
#23 = CIRCLE ( 'NONE', #280, 0.2500000000000000000 ) ;
#24 = DIRECTION ( 'NONE',  ( -1.224646799147353454E-16, -0.0000000000000000000, -1.000000000000000000 ) ) ;
#25 = DIRECTION ( 'NONE',  ( -1.224646799147353454E-16, -0.0000000000000000000, -1.000000000000000000 ) ) ;
#26 = DIMENSIONAL_EXPONENTS ( 1.000000000000000000, 0.0000000000000000000, 0.0000000000000000000, 0.0000000000000000000, 0.0000000000000000000, 0.0000000000000000000, 0.0000000000000000000 ) ;
#27 = ORIENTED_EDGE ( 'NONE', *, *, #2, .T. ) ;
#28 = CARTESIAN_POINT ( 'NONE',  ( -0.2499999999999998612, 0.0000000000000000000, 1.001417820454904462 ) ) ;
#29 = ORIENTED_EDGE ( 'NONE', *, *, #60, .F. ) ;
#30 = CARTESIAN_POINT ( 'NONE',  ( -0.2350000000000011524, 0.0000000000000000000, 3.000000000000000444 ) ) ;
#31 = ORIENTED_EDGE ( 'NONE', *, *, #137, .T. ) ;
#32 = PRODUCT_DEFINITION_SHAPE ( 'NONE', 'NONE',  #93 ) ;
#33 = DIRECTION ( 'NONE',  ( 0.0000000000000000000, 0.0000000000000000000, -1.000000000000000000 ) ) ;
#34 = MECHANICAL_DESIGN_GEOMETRIC_PRESENTATION_REPRESENTATION (  '', ( #233 ), #179 ) ;
#35 = SURFACE_STYLE_FILL_AREA ( #87 ) ;
#36 = PLANE ( 'NONE',  #272 ) ;
#37 = EDGE_CURVE ( 'NONE', #299, #284, #7, .T. ) ;
#38 = SURFACE_SIDE_STYLE ('',( #35 ) ) ;
#39 = CARTESIAN_POINT ( 'NONE',  ( 0.0000000000000000000, 0.0000000000000000000, 3.000000000000000444 ) ) ;
#40 = LENGTH_MEASURE_WITH_UNIT ( LENGTH_MEASURE( 0.02539999999999999897 ), #246 );
#41 = DIRECTION ( 'NONE',  ( -1.000000000000000000, 0.0000000000000000000, 0.0000000000000000000 ) ) ;
#42 = CARTESIAN_POINT ( 'NONE',  ( -0.2497499999999998888, 3.058555380870514950E-17, 1.000000000000000000 ) ) ;
#43 = FACE_OUTER_BOUND ( 'NONE', #237, .T. ) ;
#44 = SHAPE_DEFINITION_REPRESENTATION ( #32, #138 ) ;
#45 = DIRECTION ( 'NONE',  ( -1.224646799147353454E-16, -0.0000000000000000000, -1.000000000000000000 ) ) ;
#46 = EDGE_CURVE ( 'NONE', #176, #284, #291, .T. ) ;
#47 = DIRECTION ( 'NONE',  ( -0.0000000000000000000, -0.0000000000000000000, -1.000000000000000000 ) ) ;
#48 = VECTOR ( 'NONE', #216, 39.37007874015748854 ) ;
#49 = DIRECTION ( 'NONE',  ( 1.000000000000000000, 0.0000000000000000000, 0.0000000000000000000 ) ) ;
#50 = AXIS2_PLACEMENT_3D ( 'NONE', #248, #254, #273 ) ;
#51 = ORIENTED_EDGE ( 'NONE', *, *, #2, .F. ) ;
#52 = CIRCLE ( 'NONE', #106, 0.2500000000000000000 ) ;
#53 = ORIENTED_EDGE ( 'NONE', *, *, #172, .T. ) ;
#54 = VERTEX_POINT ( 'NONE', #28 ) ;
#55 = ADVANCED_FACE ( 'NONE', ( #201 ), #133, .T. ) ;
#56 = ORIENTED_EDGE ( 'NONE', *, *, #37, .F. ) ;
#57 = PRODUCT_DEFINITION_FORMATION_WITH_SPECIFIED_SOURCE ( 'ANY', '', #84, .NOT_KNOWN. ) ;
#58 = CIRCLE ( 'NONE', #223, 0.2350000000000011524 ) ;
#59 = ORIENTED_EDGE ( 'NONE', *, *, #115, .T. ) ;
#60 = EDGE_CURVE ( 'NONE', #299, #120, #58, .T. ) ;
#61 = DIRECTION ( 'NONE',  ( -1.000000000000000000, 0.0000000000000000000, 1.224646799147353700E-16 ) ) ;
#62 = FILL_AREA_STYLE ('',( #13 ) ) ;
#63 = EDGE_CURVE ( 'NONE', #82, #81, #181, .T. ) ;
#64 = AXIS2_PLACEMENT_3D ( 'NONE', #107, #241, #41 ) ;
#65 = VECTOR ( 'NONE', #227, 39.37007874015748143 ) ;
#66 = CARTESIAN_POINT ( 'NONE',  ( 1.224646799147353454E-16, 0.0000000000000000000, 1.000000000000000000 ) ) ;
#67 = DIRECTION ( 'NONE',  ( -1.224646799147353454E-16, -0.0000000000000000000, -1.000000000000000000 ) ) ;
#68 = DIRECTION ( 'NONE',  ( 0.0000000000000000000, 0.0000000000000000000, 1.000000000000000000 ) ) ;
#69 = DIRECTION ( 'NONE',  ( -1.000000000000000000, 0.0000000000000000000, 0.0000000000000000000 ) ) ;
#70 = DIRECTION ( 'NONE',  ( 0.7071067811865402453, 8.659560562354845344E-17, -0.7071067811865546782 ) ) ;
#71 =( NAMED_UNIT ( * ) PLANE_ANGLE_UNIT ( ) SI_UNIT ( $, .RADIAN. ) );
#72 = EDGE_CURVE ( 'NONE', #240, #82, #117, .T. ) ;
#73 = CYLINDRICAL_SURFACE ( 'NONE', #221, 0.2497499999999999998 ) ;
#74 = DIRECTION ( 'NONE',  ( 1.000000000000000000, 0.0000000000000000000, -0.0000000000000000000 ) ) ;
#75 = CARTESIAN_POINT ( 'NONE',  ( 0.0000000000000000000, 0.0000000000000000000, 0.0000000000000000000 ) ) ;
#76 = EDGE_LOOP ( 'NONE', ( #98, #261 ) ) ;
#77 = AXIS2_PLACEMENT_3D ( 'NONE', #118, #228, #49 ) ;
#78 = DIRECTION ( 'NONE',  ( 0.1736481776669314137, 0.0000000000000000000, 0.9848077530122077983 ) ) ;
#79 = CIRCLE ( 'NONE', #77, 0.2500000000000000000 ) ;
#80 = EDGE_LOOP ( 'NONE', ( #6, #27 ) ) ;
#81 = VERTEX_POINT ( 'NONE', #164 ) ;
#82 = VERTEX_POINT ( 'NONE', #105 ) ;
#83 = PRODUCT_RELATED_PRODUCT_CATEGORY ( 'part', '', ( #84 ) ) ;
#84 = PRODUCT ( 'Micro_GEM-500-3', 'Micro_GEM-500-3', '', ( #242 ) ) ;
#85 = AXIS2_PLACEMENT_3D ( 'NONE', #19, #234, #74 ) ;
#86 = CARTESIAN_POINT ( 'NONE',  ( 1.224646799147353454E-16, 0.0000000000000000000, 1.000000000000000000 ) ) ;
#87 = FILL_AREA_STYLE ('',( #18 ) ) ;
#88 = CARTESIAN_POINT ( 'NONE',  ( 0.0000000000000000000, 0.0000000000000000000, 0.0000000000000000000 ) ) ;
#89 = FACE_OUTER_BOUND ( 'NONE', #238, .T. ) ;
#90 =( NAMED_UNIT ( * ) PLANE_ANGLE_UNIT ( ) SI_UNIT ( $, .RADIAN. ) );
#91 = CARTESIAN_POINT ( 'NONE',  ( -0.2500000000000000000, 0.0000000000000000000, 3.000000000000000444 ) ) ;
#92 =( LENGTH_UNIT ( ) NAMED_UNIT ( * ) SI_UNIT ( $, .METRE. ) );
#93 = PRODUCT_DEFINITION ( 'UNKNOWN', '', #57, #171 ) ;
#94 =( LENGTH_UNIT ( ) NAMED_UNIT ( * ) SI_UNIT ( $, .METRE. ) );
#95 = CARTESIAN_POINT ( 'NONE',  ( 0.2500000000000000000, 3.061616997868382402E-17, 3.000000000000000444 ) ) ;
#96 = ORIENTED_EDGE ( 'NONE', *, *, #137, .F. ) ;
#97 = DIMENSIONAL_EXPONENTS ( 1.000000000000000000, 0.0000000000000000000, 0.0000000000000000000, 0.0000000000000000000, 0.0000000000000000000, 0.0000000000000000000, 0.0000000000000000000 ) ;
#98 = ORIENTED_EDGE ( 'NONE', *, *, #60, .T. ) ;
#99 = ADVANCED_FACE ( 'NONE', ( #204 ), #286, .T. ) ;
#100 = AXIS2_PLACEMENT_3D ( 'NONE', #251, #47, #143 ) ;
#101 = ORIENTED_EDGE ( 'NONE', *, *, #63, .F. ) ;
#102 = AXIS2_PLACEMENT_3D ( 'NONE', #88, #264, #61 ) ;
#103 = EDGE_LOOP ( 'NONE', ( #178, #4, #258, #96 ) ) ;
#104 = DIRECTION ( 'NONE',  ( 1.000000000000000000, 0.0000000000000000000, 0.0000000000000000000 ) ) ;
#105 = CARTESIAN_POINT ( 'NONE',  ( 0.2497500000000001386, 0.0000000000000000000, 1.000000000000000000 ) ) ;
#106 = AXIS2_PLACEMENT_3D ( 'NONE', #162, #33, #129 ) ;
#107 = CARTESIAN_POINT ( 'NONE',  ( 0.0000000000000000000, 0.0000000000000000000, 3.000000000000000444 ) ) ;
#108 = CARTESIAN_POINT ( 'NONE',  ( -0.2497499999999999998, 0.0000000000000000000, 6.117110761741031132E-17 ) ) ;
#109 = ADVANCED_FACE ( 'NONE', ( #89 ), #158, .T. ) ;
#110 = DIRECTION ( 'NONE',  ( -1.000000000000000000, 0.0000000000000000000, 0.0000000000000000000 ) ) ;
#111 = CLOSED_SHELL ( 'NONE', ( #196, #207, #148, #203, #55, #132, #109, #114, #99, #211 ) ) ;
#112 = PRESENTATION_STYLE_ASSIGNMENT (( #183 ) ) ;
#113 = CARTESIAN_POINT ( 'NONE',  ( -0.2497499999999999998, 0.0000000000000000000, 3.058555380870515566E-17 ) ) ;
#114 = ADVANCED_FACE ( 'NONE', ( #202 ), #269, .T. ) ;
#115 = EDGE_CURVE ( 'NONE', #146, #54, #23, .T. ) ;
#116 =( CONVERSION_BASED_UNIT ( 'INCH', #297 ) LENGTH_UNIT ( ) NAMED_UNIT ( #26 ) );
#117 = CIRCLE ( 'NONE', #9, 0.2497499999999999998 ) ;
#118 = CARTESIAN_POINT ( 'NONE',  ( 1.226383128429217700E-16, 0.0000000000000000000, 1.001417820454904462 ) ) ;
#119 =( NAMED_UNIT ( * ) PLANE_ANGLE_UNIT ( ) SI_UNIT ( $, .RADIAN. ) );
#120 = VERTEX_POINT ( 'NONE', #250 ) ;
#121 =( GEOMETRIC_REPRESENTATION_CONTEXT ( 3 ) GLOBAL_UNCERTAINTY_ASSIGNED_CONTEXT ( ( #161 ) ) GLOBAL_UNIT_ASSIGNED_CONTEXT ( ( #14, #90, #163 ) ) REPRESENTATION_CONTEXT ( 'NONE', 'WORKASPACE' ) );
#122 = ORIENTED_EDGE ( 'NONE', *, *, #232, .F. ) ;
#123 = EDGE_CURVE ( 'NONE', #284, #176, #52, .T. ) ;
#124 = DIRECTION ( 'NONE',  ( 0.0000000000000000000, 0.0000000000000000000, -1.000000000000000000 ) ) ;
#125 = EDGE_CURVE ( 'NONE', #240, #54, #222, .T. ) ;
#126 = EDGE_LOOP ( 'NONE', ( #174, #263, #31, #166 ) ) ;
#127 = CARTESIAN_POINT ( 'NONE',  ( 0.0000000000000000000, 0.0000000000000000000, 2.985000000000001208 ) ) ;
#128 = ORIENTED_EDGE ( 'NONE', *, *, #281, .T. ) ;
#129 = DIRECTION ( 'NONE',  ( 1.000000000000000000, 0.0000000000000000000, 0.0000000000000000000 ) ) ;
#130 = CIRCLE ( 'NONE', #209, 0.2497499999999999998 ) ;
#131 = DIRECTION ( 'NONE',  ( 0.0000000000000000000, 0.0000000000000000000, 1.000000000000000000 ) ) ;
#132 = ADVANCED_FACE ( 'NONE', ( #244 ), #36, .T. ) ;
#133 = CYLINDRICAL_SURFACE ( 'NONE', #199, 0.2500000000000000000 ) ;
#134 = LINE ( 'NONE', #91, #65 ) ;
#135 = MECHANICAL_DESIGN_GEOMETRIC_PRESENTATION_REPRESENTATION (  '', ( #21 ), #121 ) ;
#136 = LENGTH_MEASURE_WITH_UNIT ( LENGTH_MEASURE( 0.02539999999999999897 ), #94 );
#137 = EDGE_CURVE ( 'NONE', #284, #54, #134, .T. ) ;
#138 = ADVANCED_BREP_SHAPE_REPRESENTATION ( 'Micro_GEM-500-3', ( #159, #285 ), #243 ) ;
#139 = LINE ( 'NONE', #95, #190 ) ;
#140 = ORIENTED_EDGE ( 'NONE', *, *, #63, .T. ) ;
#141 = DIRECTION ( 'NONE',  ( -1.000000000000000000, 0.0000000000000000000, 1.224646799147353700E-16 ) ) ;
#142 = PRESENTATION_LAYER_ASSIGNMENT (  '', '', ( #21 ) ) ;
#143 = DIRECTION ( 'NONE',  ( -1.000000000000000000, 0.0000000000000000000, 0.0000000000000000000 ) ) ;
#144 = VECTOR ( 'NONE', #11, 39.37007874015747433 ) ;
#145 = LINE ( 'NONE', #235, #10 ) ;
#146 = VERTEX_POINT ( 'NONE', #182 ) ;
#147 = CONICAL_SURFACE ( 'NONE', #296, 0.2350000000000011524, 0.7853981633974380649 ) ;
#148 = ADVANCED_FACE ( 'NONE', ( #220 ), #147, .T. ) ;
#149 = EDGE_LOOP ( 'NONE', ( #197, #128, #173, #56 ) ) ;
#150 = VERTEX_POINT ( 'NONE', #108 ) ;
#151 = CIRCLE ( 'NONE', #5, 0.2497499999999999998 ) ;
#152 = DIRECTION ( 'NONE',  ( -1.224646799147353454E-16, -0.0000000000000000000, -1.000000000000000000 ) ) ;
#153 = DIRECTION ( 'NONE',  ( -1.000000000000000000, 0.0000000000000000000, 1.224646799147353700E-16 ) ) ;
#154 = APPLICATION_CONTEXT ( 'automotive_design' ) ;
#155 = CARTESIAN_POINT ( 'NONE',  ( 1.226383128429217700E-16, 0.0000000000000000000, 1.001417820454904462 ) ) ;
#156 = DIRECTION ( 'NONE',  ( 1.000000000000000000, 0.0000000000000000000, 0.0000000000000000000 ) ) ;
#157 = APPLICATION_PROTOCOL_DEFINITION ( 'draft international standard', 'automotive_design', 1998, #12 ) ;
#158 = CONICAL_SURFACE ( 'NONE', #64, 0.2350000000000011524, 0.7853981633974380649 ) ;
#159 = MANIFOLD_SOLID_BREP ( 'Cut-Revolve1', #111 ) ;
#160 = DIRECTION ( 'NONE',  ( -1.224646799147353454E-16, -0.0000000000000000000, -1.000000000000000000 ) ) ;
#161 = UNCERTAINTY_MEASURE_WITH_UNIT (LENGTH_MEASURE( 1.000000000000000082E-05 ), #14, 'distance_accuracy_value', 'NONE');
#162 = CARTESIAN_POINT ( 'NONE',  ( 0.0000000000000000000, 0.0000000000000000000, 2.985000000000001208 ) ) ;
#163 =( NAMED_UNIT ( * ) SI_UNIT ( $, .STERADIAN. ) SOLID_ANGLE_UNIT ( ) );
#164 = CARTESIAN_POINT ( 'NONE',  ( 0.2497499999999999998, 3.058555380870514950E-17, 0.0000000000000000000 ) ) ;
#165 = VECTOR ( 'NONE', #67, 39.37007874015748143 ) ;
#166 = ORIENTED_EDGE ( 'NONE', *, *, #115, .F. ) ;
#167 = FACE_OUTER_BOUND ( 'NONE', #103, .T. ) ;
#168 = AXIS2_PLACEMENT_3D ( 'NONE', #127, #124, #104 ) ;
#169 = CARTESIAN_POINT ( 'NONE',  ( 1.224646799147353454E-16, 0.0000000000000000000, 1.000000000000000000 ) ) ;
#170 = DIRECTION ( 'NONE',  ( 1.000000000000000000, 0.0000000000000000000, 0.0000000000000000000 ) ) ;
#171 = PRODUCT_DEFINITION_CONTEXT ( 'detailed design', #12, 'design' ) ;
#172 = EDGE_CURVE ( 'NONE', #82, #240, #189, .T. ) ;
#173 = ORIENTED_EDGE ( 'NONE', *, *, #123, .F. ) ;
#174 = ORIENTED_EDGE ( 'NONE', *, *, #288, .F. ) ;
#175 = PRESENTATION_LAYER_ASSIGNMENT (  '', '', ( #233 ) ) ;
#176 = VERTEX_POINT ( 'NONE', #255 ) ;
#177 = ORIENTED_EDGE ( 'NONE', *, *, #72, .T. ) ;
#178 = ORIENTED_EDGE ( 'NONE', *, *, #123, .T. ) ;
#179 =( GEOMETRIC_REPRESENTATION_CONTEXT ( 3 ) GLOBAL_UNCERTAINTY_ASSIGNED_CONTEXT ( ( #275 ) ) GLOBAL_UNIT_ASSIGNED_CONTEXT ( ( #116, #119, #192 ) ) REPRESENTATION_CONTEXT ( 'NONE', 'WORKASPACE' ) );
#180 = APPLICATION_PROTOCOL_DEFINITION ( 'draft international standard', 'automotive_design', 1998, #154 ) ;
#181 = LINE ( 'NONE', #270, #165 ) ;
#182 = CARTESIAN_POINT ( 'NONE',  ( 0.2500000000000001110, 3.061616997868383634E-17, 1.001417820454904462 ) ) ;
#183 = SURFACE_STYLE_USAGE ( .BOTH. , #289 ) ;
#184 = VECTOR ( 'NONE', #78, 39.37007874015748143 ) ;
#185 = DIRECTION ( 'NONE',  ( 0.0000000000000000000, 0.0000000000000000000, -1.000000000000000000 ) ) ;
#186 = CARTESIAN_POINT ( 'NONE',  ( 0.0000000000000000000, 0.0000000000000000000, 0.0000000000000000000 ) ) ;
#187 = DIRECTION ( 'NONE',  ( 0.0000000000000000000, 0.0000000000000000000, 1.000000000000000000 ) ) ;
#188 = ORIENTED_EDGE ( 'NONE', *, *, #46, .F. ) ;
#189 = CIRCLE ( 'NONE', #50, 0.2497499999999999998 ) ;
#190 = VECTOR ( 'NONE', #295, 39.37007874015748143 ) ;
#191 = DIRECTION ( 'NONE',  ( 1.224646799147353454E-16, 0.0000000000000000000, 1.000000000000000000 ) ) ;
#192 =( NAMED_UNIT ( * ) SI_UNIT ( $, .STERADIAN. ) SOLID_ANGLE_UNIT ( ) );
#193 = ORIENTED_EDGE ( 'NONE', *, *, #125, .F. ) ;
#194 = CARTESIAN_POINT ( 'NONE',  ( -0.2350000000000011524, 0.0000000000000000000, 3.000000000000000444 ) ) ;
#195 = ORIENTED_EDGE ( 'NONE', *, *, #15, .F. ) ;
#196 = ADVANCED_FACE ( 'NONE', ( #214 ), #73, .T. ) ;
#197 = ORIENTED_EDGE ( 'NONE', *, *, #277, .F. ) ;
#198 = ORIENTED_EDGE ( 'NONE', *, *, #281, .F. ) ;
#199 = AXIS2_PLACEMENT_3D ( 'NONE', #39, #226, #110 ) ;
#200 = ORIENTED_EDGE ( 'NONE', *, *, #252, .F. ) ;
#201 = FACE_OUTER_BOUND ( 'NONE', #126, .T. ) ;
#202 = FACE_OUTER_BOUND ( 'NONE', #260, .T. ) ;
#203 = ADVANCED_FACE ( 'NONE', ( #167 ), #229, .T. ) ;
#204 = FACE_OUTER_BOUND ( 'NONE', #219, .T. ) ;
#205 = SURFACE_STYLE_FILL_AREA ( #62 ) ;
#206 = DIRECTION ( 'NONE',  ( -1.000000000000000000, 0.0000000000000000000, 0.0000000000000000000 ) ) ;
#207 = ADVANCED_FACE ( 'NONE', ( #43 ), #259, .T. ) ;
#208 = DIRECTION ( 'NONE',  ( 1.000000000000000000, 0.0000000000000000000, 0.0000000000000000000 ) ) ;
#209 = AXIS2_PLACEMENT_3D ( 'NONE', #293, #24, #141 ) ;
#210 = AXIS2_PLACEMENT_3D ( 'NONE', #66, #8, #290 ) ;
#211 = ADVANCED_FACE ( 'NONE', ( #253 ), #257, .F. ) ;
#212 = CARTESIAN_POINT ( 'NONE',  ( 0.0000000000000000000, 0.0000000000000000000, 3.000000000000000444 ) ) ;
#213 = DIMENSIONAL_EXPONENTS ( 1.000000000000000000, 0.0000000000000000000, 0.0000000000000000000, 0.0000000000000000000, 0.0000000000000000000, 0.0000000000000000000, 0.0000000000000000000 ) ;
#214 = FACE_OUTER_BOUND ( 'NONE', #3, .T. ) ;
#215 = COLOUR_RGB ( '',0.7921568627450980005, 0.8196078431372548767, 0.9333333333333333481 ) ;
#216 = DIRECTION ( 'NONE',  ( -0.7071067811865402453, 0.0000000000000000000, -0.7071067811865546782 ) ) ;
#217 = ORIENTED_EDGE ( 'NONE', *, *, #72, .F. ) ;
#218 = ORIENTED_EDGE ( 'NONE', *, *, #256, .T. ) ;
#219 = EDGE_LOOP ( 'NONE', ( #101, #53, #276, #51 ) ) ;
#220 = FACE_OUTER_BOUND ( 'NONE', #149, .T. ) ;
#221 = AXIS2_PLACEMENT_3D ( 'NONE', #75, #25, #20 ) ;
#222 = LINE ( 'NONE', #42, #144 ) ;
#223 = AXIS2_PLACEMENT_3D ( 'NONE', #265, #16, #156 ) ;
#224 = CARTESIAN_POINT ( 'NONE',  ( 0.0000000000000000000, 0.0000000000000000000, 3.000000000000000444 ) ) ;
#225 = PRESENTATION_STYLE_ASSIGNMENT (( #292 ) ) ;
#226 = DIRECTION ( 'NONE',  ( -0.0000000000000000000, -0.0000000000000000000, -1.000000000000000000 ) ) ;
#227 = DIRECTION ( 'NONE',  ( -0.0000000000000000000, -0.0000000000000000000, -1.000000000000000000 ) ) ;
#228 = DIRECTION ( 'NONE',  ( -1.224646799147353454E-16, -0.0000000000000000000, -1.000000000000000000 ) ) ;
#229 = CYLINDRICAL_SURFACE ( 'NONE', #100, 0.2500000000000000000 ) ;
#230 = ORIENTED_EDGE ( 'NONE', *, *, #37, .T. ) ;
#231 = VECTOR ( 'NONE', #45, 39.37007874015748143 ) ;
#232 = EDGE_CURVE ( 'NONE', #240, #150, #274, .T. ) ;
#233 = STYLED_ITEM ( 'NONE', ( #112 ), #159 ) ;
#234 = DIRECTION ( 'NONE',  ( 0.0000000000000000000, 0.0000000000000000000, 1.000000000000000000 ) ) ;
#235 = CARTESIAN_POINT ( 'NONE',  ( 0.2350000000000011524, 2.877919977996294002E-17, 3.000000000000000444 ) ) ;
#236 = ORIENTED_EDGE ( 'NONE', *, *, #172, .F. ) ;
#237 = EDGE_LOOP ( 'NONE', ( #217, #262, #218, #195 ) ) ;
#238 = EDGE_LOOP ( 'NONE', ( #198, #29, #230, #188 ) ) ;
#239 = LINE ( 'NONE', #278, #184 ) ;
#240 = VERTEX_POINT ( 'NONE', #22 ) ;
#241 = DIRECTION ( 'NONE',  ( 0.0000000000000000000, 0.0000000000000000000, -1.000000000000000000 ) ) ;
#242 = PRODUCT_CONTEXT ( 'NONE', #154, 'mechanical' ) ;
#243 =( GEOMETRIC_REPRESENTATION_CONTEXT ( 3 ) GLOBAL_UNCERTAINTY_ASSIGNED_CONTEXT ( ( #268 ) ) GLOBAL_UNIT_ASSIGNED_CONTEXT ( ( #271, #71, #1 ) ) REPRESENTATION_CONTEXT ( 'NONE', 'WORKASPACE' ) );
#244 = FACE_OUTER_BOUND ( 'NONE', #76, .T. ) ;
#245 = AXIS2_PLACEMENT_3D ( 'NONE', #212, #187, #208 ) ;
#246 =( LENGTH_UNIT ( ) NAMED_UNIT ( * ) SI_UNIT ( $, .METRE. ) );
#247 = DIRECTION ( 'NONE',  ( 1.000000000000000000, 0.0000000000000000000, -0.0000000000000000000 ) ) ;
#248 = CARTESIAN_POINT ( 'NONE',  ( 1.224646799147353454E-16, 0.0000000000000000000, 1.000000000000000000 ) ) ;
#249 = DIRECTION ( 'NONE',  ( 1.000000000000000000, 0.0000000000000000000, 0.0000000000000000000 ) ) ;
#250 = CARTESIAN_POINT ( 'NONE',  ( 0.2350000000000011524, 2.969768487932338510E-17, 3.000000000000000444 ) ) ;
#251 = CARTESIAN_POINT ( 'NONE',  ( 0.0000000000000000000, 0.0000000000000000000, 3.000000000000000444 ) ) ;
#252 = EDGE_CURVE ( 'NONE', #150, #81, #130, .T. ) ;
#253 = FACE_OUTER_BOUND ( 'NONE', #80, .T. ) ;
#254 = DIRECTION ( 'NONE',  ( -1.224646799147353454E-16, -0.0000000000000000000, -1.000000000000000000 ) ) ;
#255 = CARTESIAN_POINT ( 'NONE',  ( 0.2500000000000000000, 3.061616997868382402E-17, 2.985000000000001208 ) ) ;
#256 = EDGE_CURVE ( 'NONE', #54, #146, #79, .T. ) ;
#257 = PLANE ( 'NONE',  #85 ) ;
#258 = ORIENTED_EDGE ( 'NONE', *, *, #256, .F. ) ;
#259 = CONICAL_SURFACE ( 'NONE', #266, 0.2497499999999999998, 0.1745329251994339192 ) ;
#260 = EDGE_LOOP ( 'NONE', ( #193, #236, #283, #59 ) ) ;
#261 = ORIENTED_EDGE ( 'NONE', *, *, #277, .T. ) ;
#262 = ORIENTED_EDGE ( 'NONE', *, *, #125, .T. ) ;
#263 = ORIENTED_EDGE ( 'NONE', *, *, #46, .T. ) ;
#264 = DIRECTION ( 'NONE',  ( -1.224646799147353454E-16, -0.0000000000000000000, -1.000000000000000000 ) ) ;
#265 = CARTESIAN_POINT ( 'NONE',  ( 0.0000000000000000000, 0.0000000000000000000, 3.000000000000000444 ) ) ;
#266 = AXIS2_PLACEMENT_3D ( 'NONE', #169, #191, #170 ) ;
#267 = DIRECTION ( 'NONE',  ( -1.224646799147353454E-16, -0.0000000000000000000, -1.000000000000000000 ) ) ;
#268 = UNCERTAINTY_MEASURE_WITH_UNIT (LENGTH_MEASURE( 1.000000000000000082E-05 ), #271, 'distance_accuracy_value', 'NONE');
#269 = CONICAL_SURFACE ( 'NONE', #210, 0.2497499999999999998, 0.1745329251994339192 ) ;
#270 = CARTESIAN_POINT ( 'NONE',  ( 0.2497499999999999998, 3.058555380870514950E-17, -3.058555380870515566E-17 ) ) ;
#271 =( CONVERSION_BASED_UNIT ( 'INCH', #136 ) LENGTH_UNIT ( ) NAMED_UNIT ( #213 ) );
#272 = AXIS2_PLACEMENT_3D ( 'NONE', #287, #131, #247 ) ;
#273 = DIRECTION ( 'NONE',  ( -1.000000000000000000, 0.0000000000000000000, 0.0000000000000000000 ) ) ;
#274 = LINE ( 'NONE', #113, #231 ) ;
#275 = UNCERTAINTY_MEASURE_WITH_UNIT (LENGTH_MEASURE( 1.000000000000000082E-05 ), #116, 'distance_accuracy_value', 'NONE');
#276 = ORIENTED_EDGE ( 'NONE', *, *, #232, .T. ) ;
#277 = EDGE_CURVE ( 'NONE', #120, #299, #294, .T. ) ;
#278 = CARTESIAN_POINT ( 'NONE',  ( 0.2497500000000001386, 0.0000000000000000000, 1.000000000000000000 ) ) ;
#279 = COLOUR_RGB ( '',0.7921568627450980005, 0.8196078431372548767, 0.9333333333333333481 ) ;
#280 = AXIS2_PLACEMENT_3D ( 'NONE', #155, #160, #17 ) ;
#281 = EDGE_CURVE ( 'NONE', #120, #176, #145, .T. ) ;
#282 = CARTESIAN_POINT ( 'NONE',  ( 3.745650057197990990E-33, 0.0000000000000000000, 3.058555380870515566E-17 ) ) ;
#283 = ORIENTED_EDGE ( 'NONE', *, *, #15, .T. ) ;
#284 = VERTEX_POINT ( 'NONE', #298 ) ;
#285 = AXIS2_PLACEMENT_3D ( 'NONE', #186, #68, #249 ) ;
#286 = CYLINDRICAL_SURFACE ( 'NONE', #102, 0.2497499999999999998 ) ;
#287 = CARTESIAN_POINT ( 'NONE',  ( 0.0000000000000000000, 0.0000000000000000000, 3.000000000000000444 ) ) ;
#288 = EDGE_CURVE ( 'NONE', #176, #146, #139, .T. ) ;
#289 = SURFACE_SIDE_STYLE ('',( #205 ) ) ;
#290 = DIRECTION ( 'NONE',  ( 1.000000000000000000, 0.0000000000000000000, 0.0000000000000000000 ) ) ;
#291 = CIRCLE ( 'NONE', #168, 0.2500000000000000000 ) ;
#292 = SURFACE_STYLE_USAGE ( .BOTH. , #38 ) ;
#293 = CARTESIAN_POINT ( 'NONE',  ( 3.745650057197990990E-33, 0.0000000000000000000, 3.058555380870515566E-17 ) ) ;
#294 = CIRCLE ( 'NONE', #245, 0.2350000000000011524 ) ;
#295 = DIRECTION ( 'NONE',  ( -0.0000000000000000000, -0.0000000000000000000, -1.000000000000000000 ) ) ;
#296 = AXIS2_PLACEMENT_3D ( 'NONE', #224, #185, #69 ) ;
#297 = LENGTH_MEASURE_WITH_UNIT ( LENGTH_MEASURE( 0.02539999999999999897 ), #92 );
#298 = CARTESIAN_POINT ( 'NONE',  ( -0.2500000000000000000, 0.0000000000000000000, 2.985000000000001208 ) ) ;
#299 = VERTEX_POINT ( 'NONE', #194 ) ;
ENDSEC;
END-ISO-10303-21;
