ISO-10303-21;
HEADER;
FILE_DESCRIPTION (( 'STEP AP214' ),
    '1' );
FILE_NAME ('81640.STEP',
    '2023-06-23T02:15:39',
    ( '' ),
    ( '' ),
    'SwSTEP 2.0',
    'SolidWorks 2023',
    '' );
FILE_SCHEMA (( 'AUTOMOTIVE_DESIGN' ));
ENDSEC;

DATA;
#1 = CYLINDRICAL_SURFACE ( 'NONE', #301, 0.09374999999999998612 ) ;
#2 = ADVANCED_FACE ( 'NONE', ( #11 ), #74, .T. ) ;
#3 = MECHANICAL_DESIGN_GEOMETRIC_PRESENTATION_REPRESENTATION (  '', ( #192 ), #262 ) ;
#4 =( NAMED_UNIT ( * ) SI_UNIT ( $, .STERADIAN. ) SOLID_ANGLE_UNIT ( ) );
#5 = CARTESIAN_POINT ( 'NONE',  ( -6.123233995736766036E-17, 2.500000000000000000, 0.000000000000000000 ) ) ;
#6 = SURFACE_SIDE_STYLE ('',( #202 ) ) ;
#7 = DIRECTION ( 'NONE',  ( 0.000000000000000000, -1.000000000000000000, -0.000000000000000000 ) ) ;
#8 = DIMENSIONAL_EXPONENTS ( 1.000000000000000000, 0.000000000000000000, 0.000000000000000000, 0.000000000000000000, 0.000000000000000000, 0.000000000000000000, 0.000000000000000000 ) ;
#9 = EDGE_CURVE ( 'NONE', #201, #254, #108, .T. ) ;
#10 =( CONVERSION_BASED_UNIT ( 'INCH', #65 ) LENGTH_UNIT ( ) NAMED_UNIT ( #97 ) );
#11 = FACE_OUTER_BOUND ( 'NONE', #16, .T. ) ;
#12 = CARTESIAN_POINT ( 'NONE',  ( 1.148106374200643555E-17, 0.000000000000000000, 0.09375000000000001388 ) ) ;
#13 =( CONVERSION_BASED_UNIT ( 'INCH', #80 ) LENGTH_UNIT ( ) NAMED_UNIT ( #250 ) );
#14 = PRESENTATION_LAYER_ASSIGNMENT (  '', '', ( #258 ) ) ;
#15 = DIRECTION ( 'NONE',  ( -0.000000000000000000, -1.000000000000000000, -0.000000000000000000 ) ) ;
#16 = EDGE_LOOP ( 'NONE', ( #131, #56, #153, #230 ) ) ;
#17 = SURFACE_SIDE_STYLE ('',( #233 ) ) ;
#18 = ORIENTED_EDGE ( 'NONE', *, *, #197, .F. ) ;
#19 = CARTESIAN_POINT ( 'NONE',  ( 0.000000000000000000, 0.000000000000000000, -0.09375000000000001388 ) ) ;
#20 =( LENGTH_UNIT ( ) NAMED_UNIT ( * ) SI_UNIT ( $, .METRE. ) );
#21 = PRODUCT_DEFINITION_CONTEXT ( 'detailed design', #302, 'design' ) ;
#22 =( CONVERSION_BASED_UNIT ( 'INCH', #241 ) LENGTH_UNIT ( ) NAMED_UNIT ( #184 ) );
#23 = SHAPE_DEFINITION_REPRESENTATION ( #81, #205 ) ;
#24 = DIRECTION ( 'NONE',  ( -1.000000000000000000, 0.000000000000000000, 0.000000000000000000 ) ) ;
#25 = CIRCLE ( 'NONE', #188, 0.09375000000000005551 ) ;
#26 = ORIENTED_EDGE ( 'NONE', *, *, #9, .F. ) ;
#27 =( LENGTH_UNIT ( ) NAMED_UNIT ( * ) SI_UNIT ( $, .METRE. ) );
#28 = EDGE_CURVE ( 'NONE', #89, #78, #212, .T. ) ;
#29 = COLOUR_RGB ( '',0.7921568627450980005, 0.8196078431372548767, 0.9333333333333333481 ) ;
#30 = UNCERTAINTY_MEASURE_WITH_UNIT (LENGTH_MEASURE( 1.000000000000000082E-05 ), #217, 'distance_accuracy_value', 'NONE');
#31 = PRESENTATION_STYLE_ASSIGNMENT (( #90 ) ) ;
#32 = LENGTH_MEASURE_WITH_UNIT ( LENGTH_MEASURE( 0.02539999999999999897 ), #35 );
#33 = FACE_OUTER_BOUND ( 'NONE', #282, .T. ) ;
#34 = DIRECTION ( 'NONE',  ( -4.082155997157843818E-17, 1.000000000000000000, -0.000000000000000000 ) ) ;
#35 =( LENGTH_UNIT ( ) NAMED_UNIT ( * ) SI_UNIT ( $, .METRE. ) );
#36 = PRESENTATION_LAYER_ASSIGNMENT (  '', '', ( #117 ) ) ;
#37 = DIRECTION ( 'NONE',  ( -4.082155997157843818E-17, 1.000000000000000000, -0.000000000000000000 ) ) ;
#38 = UNCERTAINTY_MEASURE_WITH_UNIT (LENGTH_MEASURE( 1.000000000000000082E-05 ), #152, 'distance_accuracy_value', 'NONE');
#39 = DIRECTION ( 'NONE',  ( -4.082155997157843818E-17, 1.000000000000000000, -0.000000000000000000 ) ) ;
#40 = DIRECTION ( 'NONE',  ( 0.000000000000000000, -0.000000000000000000, 1.000000000000000000 ) ) ;
#41 = SURFACE_STYLE_USAGE ( .BOTH. , #245 ) ;
#42 = ORIENTED_EDGE ( 'NONE', *, *, #284, .F. ) ;
#43 = STYLED_ITEM ( 'NONE', ( #91 ), #225 ) ;
#44 = PRESENTATION_STYLE_ASSIGNMENT (( #179 ) ) ;
#45 = CARTESIAN_POINT ( 'NONE',  ( 0.000000000000000000, 1.000000000000000000, 0.000000000000000000 ) ) ;
#46 = LENGTH_MEASURE_WITH_UNIT ( LENGTH_MEASURE( 0.02539999999999999897 ), #27 );
#47 = SURFACE_STYLE_USAGE ( .BOTH. , #234 ) ;
#48 = EDGE_CURVE ( 'NONE', #254, #294, #203, .T. ) ;
#49 = SURFACE_STYLE_FILL_AREA ( #260 ) ;
#50 = DIRECTION ( 'NONE',  ( 1.000000000000000000, 4.082155997157843818E-17, 0.000000000000000000 ) ) ;
#51 = CARTESIAN_POINT ( 'NONE',  ( 0.000000000000000000, 0.000000000000000000, 0.000000000000000000 ) ) ;
#52 =( GEOMETRIC_REPRESENTATION_CONTEXT ( 3 ) GLOBAL_UNCERTAINTY_ASSIGNED_CONTEXT ( ( #98 ) ) GLOBAL_UNIT_ASSIGNED_CONTEXT ( ( #22, #156, #4 ) ) REPRESENTATION_CONTEXT ( 'NONE', 'WORKASPACE' ) );
#53 = AXIS2_PLACEMENT_3D ( 'NONE', #251, #34, #121 ) ;
#54 =( NAMED_UNIT ( * ) PLANE_ANGLE_UNIT ( ) SI_UNIT ( $, .RADIAN. ) );
#55 = ORIENTED_EDGE ( 'NONE', *, *, #180, .F. ) ;
#56 = ORIENTED_EDGE ( 'NONE', *, *, #291, .T. ) ;
#57 = ORIENTED_EDGE ( 'NONE', *, *, #287, .T. ) ;
#58 = CIRCLE ( 'NONE', #213, 0.09375000000000001388 ) ;
#59 = ADVANCED_FACE ( 'NONE', ( #85 ), #168, .F. ) ;
#60 = ORIENTED_EDGE ( 'NONE', *, *, #197, .T. ) ;
#61 = DIRECTION ( 'NONE',  ( -4.082155997157843818E-17, 1.000000000000000000, 0.000000000000000000 ) ) ;
#62 = DIRECTION ( 'NONE',  ( -1.000000000000000000, -4.082155997157843818E-17, 0.000000000000000000 ) ) ;
#63 = CARTESIAN_POINT ( 'NONE',  ( 0.09374999999999995837, 2.500000000000000000, 1.148106374200644017E-17 ) ) ;
#64 = STYLED_ITEM ( 'NONE', ( #76 ), #274 ) ;
#65 = LENGTH_MEASURE_WITH_UNIT ( LENGTH_MEASURE( 0.02539999999999999897 ), #218 );
#66 = DIMENSIONAL_EXPONENTS ( 1.000000000000000000, 0.000000000000000000, 0.000000000000000000, 0.000000000000000000, 0.000000000000000000, 0.000000000000000000, 0.000000000000000000 ) ;
#67 = FILL_AREA_STYLE_COLOUR ( '', #29 ) ;
#68 = ORIENTED_EDGE ( 'NONE', *, *, #303, .F. ) ;
#69 =( GEOMETRIC_REPRESENTATION_CONTEXT ( 3 ) GLOBAL_UNCERTAINTY_ASSIGNED_CONTEXT ( ( #162 ) ) GLOBAL_UNIT_ASSIGNED_CONTEXT ( ( #13, #178, #169 ) ) REPRESENTATION_CONTEXT ( 'NONE', 'WORKASPACE' ) );
#70 =( NAMED_UNIT ( * ) SI_UNIT ( $, .STERADIAN. ) SOLID_ANGLE_UNIT ( ) );
#71 = VECTOR ( 'NONE', #159, 39.37007874015748143 ) ;
#72 = CARTESIAN_POINT ( 'NONE',  ( 0.09374999999999998612, 2.500000000000000000, 0.000000000000000000 ) ) ;
#73 = EDGE_LOOP ( 'NONE', ( #55, #147, #60, #68 ) ) ;
#74 = CYLINDRICAL_SURFACE ( 'NONE', #53, 0.09375000000000002776 ) ;
#75 = CARTESIAN_POINT ( 'NONE',  ( 1.148106374200643401E-17, 0.000000000000000000, 0.09374999999999998612 ) ) ;
#76 = PRESENTATION_STYLE_ASSIGNMENT (( #47 ) ) ;
#77 = AXIS2_PLACEMENT_3D ( 'NONE', #193, #172, #40 ) ;
#78 = VERTEX_POINT ( 'NONE', #115 ) ;
#79 = PLANE ( 'NONE',  #77 ) ;
#80 = LENGTH_MEASURE_WITH_UNIT ( LENGTH_MEASURE( 0.02539999999999999897 ), #220 );
#81 = PRODUCT_DEFINITION_SHAPE ( 'NONE', 'NONE',  #130 ) ;
#82 = ADVANCED_FACE ( 'NONE', ( #92 ), #1, .T. ) ;
#83 = CARTESIAN_POINT ( 'NONE',  ( 0.000000000000000000, 0.000000000000000000, 0.000000000000000000 ) ) ;
#84 = AXIS2_PLACEMENT_3D ( 'NONE', #5, #293, #182 ) ;
#85 = FACE_OUTER_BOUND ( 'NONE', #141, .T. ) ;
#86 = DIRECTION ( 'NONE',  ( -0.000000000000000000, -1.000000000000000000, -0.000000000000000000 ) ) ;
#87 = SURFACE_STYLE_USAGE ( .BOTH. , #17 ) ;
#88 = MECHANICAL_DESIGN_GEOMETRIC_PRESENTATION_REPRESENTATION (  '', ( #102 ), #69 ) ;
#89 = VERTEX_POINT ( 'NONE', #181 ) ;
#90 = SURFACE_STYLE_USAGE ( .BOTH. , #232 ) ;
#91 = PRESENTATION_STYLE_ASSIGNMENT (( #240 ) ) ;
#92 = FACE_OUTER_BOUND ( 'NONE', #73, .T. ) ;
#93 = CARTESIAN_POINT ( 'NONE',  ( 7.811248868030507305E-35, 1.000000000000000000, 0.000000000000000000 ) ) ;
#94 = CARTESIAN_POINT ( 'NONE',  ( 0.000000000000000000, 0.000000000000000000, 0.000000000000000000 ) ) ;
#95 = AXIS2_PLACEMENT_3D ( 'NONE', #72, #128, #50 ) ;
#96 = UNCERTAINTY_MEASURE_WITH_UNIT (LENGTH_MEASURE( 1.000000000000000082E-05 ), #231, 'distance_accuracy_value', 'NONE');
#97 = DIMENSIONAL_EXPONENTS ( 1.000000000000000000, 0.000000000000000000, 0.000000000000000000, 0.000000000000000000, 0.000000000000000000, 0.000000000000000000, 0.000000000000000000 ) ;
#98 = UNCERTAINTY_MEASURE_WITH_UNIT (LENGTH_MEASURE( 1.000000000000000082E-05 ), #22, 'distance_accuracy_value', 'NONE');
#99 =( NAMED_UNIT ( * ) SI_UNIT ( $, .STERADIAN. ) SOLID_ANGLE_UNIT ( ) );
#100 = DIRECTION ( 'NONE',  ( 0.000000000000000000, 0.000000000000000000, -1.000000000000000000 ) ) ;
#101 = CARTESIAN_POINT ( 'NONE',  ( -6.123233995736766036E-17, 2.500000000000000000, 0.000000000000000000 ) ) ;
#102 = STYLED_ITEM ( 'NONE', ( #31 ), #82 ) ;
#103 = ORIENTED_EDGE ( 'NONE', *, *, #48, .T. ) ;
#104 = DIRECTION ( 'NONE',  ( -1.000000000000000000, 0.000000000000000000, 0.000000000000000000 ) ) ;
#105 = LINE ( 'NONE', #189, #308 ) ;
#106 = CYLINDRICAL_SURFACE ( 'NONE', #264, 0.09374999999999998612 ) ;
#107 = DIRECTION ( 'NONE',  ( -0.000000000000000000, -1.000000000000000000, -0.000000000000000000 ) ) ;
#108 = CIRCLE ( 'NONE', #215, 0.09374999999999998612 ) ;
#109 = AXIS2_PLACEMENT_3D ( 'NONE', #83, #223, #133 ) ;
#110 =( NAMED_UNIT ( * ) SI_UNIT ( $, .STERADIAN. ) SOLID_ANGLE_UNIT ( ) );
#111 = FILL_AREA_STYLE ('',( #67 ) ) ;
#112 = AXIS2_PLACEMENT_3D ( 'NONE', #306, #107, #286 ) ;
#113 = ORIENTED_EDGE ( 'NONE', *, *, #222, .T. ) ;
#114 = CIRCLE ( 'NONE', #214, 0.09375000000000001388 ) ;
#115 = CARTESIAN_POINT ( 'NONE',  ( 0.000000000000000000, 1.000000000000000000, -0.09374999999999998612 ) ) ;
#116 = UNCERTAINTY_MEASURE_WITH_UNIT (LENGTH_MEASURE( 1.000000000000000082E-05 ), #10, 'distance_accuracy_value', 'NONE');
#117 = STYLED_ITEM ( 'NONE', ( #243 ), #149 ) ;
#118 = PRESENTATION_STYLE_ASSIGNMENT (( #41 ) ) ;
#119 =( NAMED_UNIT ( * ) PLANE_ANGLE_UNIT ( ) SI_UNIT ( $, .RADIAN. ) );
#120 = MECHANICAL_DESIGN_GEOMETRIC_PRESENTATION_REPRESENTATION (  '', ( #64 ), #226 ) ;
#121 = DIRECTION ( 'NONE',  ( -1.000000000000000000, 0.000000000000000000, 0.000000000000000000 ) ) ;
#122 = FACE_OUTER_BOUND ( 'NONE', #281, .T. ) ;
#123 = LENGTH_MEASURE_WITH_UNIT ( LENGTH_MEASURE( 0.02539999999999999897 ), #20 );
#124 = AXIS2_PLACEMENT_3D ( 'NONE', #101, #37, #140 ) ;
#125 = DIRECTION ( 'NONE',  ( 0.000000000000000000, 0.000000000000000000, -1.000000000000000000 ) ) ;
#126 = COLOUR_RGB ( '',1.000000000000000000, 0.000000000000000000, 0.000000000000000000 ) ;
#127 = EDGE_LOOP ( 'NONE', ( #113, #142, #268, #18 ) ) ;
#128 = DIRECTION ( 'NONE',  ( 4.082155997157843818E-17, -1.000000000000000000, 0.000000000000000000 ) ) ;
#129 = AXIS2_PLACEMENT_3D ( 'NONE', #227, #15, #125 ) ;
#130 = PRODUCT_DEFINITION ( 'UNKNOWN', '', #176, #21 ) ;
#131 = ORIENTED_EDGE ( 'NONE', *, *, #284, .T. ) ;
#132 = DIRECTION ( 'NONE',  ( -4.082155997157843818E-17, 1.000000000000000000, -0.000000000000000000 ) ) ;
#133 = DIRECTION ( 'NONE',  ( 1.000000000000000000, 0.000000000000000000, 0.000000000000000000 ) ) ;
#134 = DIRECTION ( 'NONE',  ( 0.000000000000000000, 0.000000000000000000, -1.000000000000000000 ) ) ;
#135 = VECTOR ( 'NONE', #132, 39.37007874015748143 ) ;
#136 = MANIFOLD_SOLID_BREP ( 'Revolve - Tool Body (Straight Shanked)', #175 ) ;
#137 = EDGE_CURVE ( 'NONE', #235, #294, #25, .T. ) ;
#138 = DIMENSIONAL_EXPONENTS ( 1.000000000000000000, 0.000000000000000000, 0.000000000000000000, 0.000000000000000000, 0.000000000000000000, 0.000000000000000000, 0.000000000000000000 ) ;
#139 = EDGE_LOOP ( 'NONE', ( #242, #209 ) ) ;
#140 = DIRECTION ( 'NONE',  ( -1.000000000000000000, 0.000000000000000000, 0.000000000000000000 ) ) ;
#141 = EDGE_LOOP ( 'NONE', ( #283, #273 ) ) ;
#142 = ORIENTED_EDGE ( 'NONE', *, *, #180, .T. ) ;
#143 = ADVANCED_FACE ( 'NONE', ( #187 ), #155, .T. ) ;
#144 = COLOUR_RGB ( '',1.000000000000000000, 0.000000000000000000, 0.000000000000000000 ) ;
#145 = FILL_AREA_STYLE ('',( #269 ) ) ;
#146 = CARTESIAN_POINT ( 'NONE',  ( 0.09374999999999998612, 1.000000000000000000, 1.148106374200644171E-17 ) ) ;
#147 = ORIENTED_EDGE ( 'NONE', *, *, #28, .T. ) ;
#148 = SURFACE_SIDE_STYLE ('',( #49 ) ) ;
#149 = ADVANCED_FACE ( 'NONE', ( #305 ), #79, .T. ) ;
#150 = ORIENTED_EDGE ( 'NONE', *, *, #9, .T. ) ;
#151 = MECHANICAL_DESIGN_GEOMETRIC_PRESENTATION_REPRESENTATION (  '', ( #43 ), #52 ) ;
#152 =( CONVERSION_BASED_UNIT ( 'INCH', #276 ) LENGTH_UNIT ( ) NAMED_UNIT ( #161 ) );
#153 = ORIENTED_EDGE ( 'NONE', *, *, #249, .F. ) ;
#154 =( LENGTH_UNIT ( ) NAMED_UNIT ( * ) SI_UNIT ( $, .METRE. ) );
#155 = CYLINDRICAL_SURFACE ( 'NONE', #84, 0.09375000000000002776 ) ;
#156 =( NAMED_UNIT ( * ) PLANE_ANGLE_UNIT ( ) SI_UNIT ( $, .RADIAN. ) );
#157 = CARTESIAN_POINT ( 'NONE',  ( 0.000000000000000000, 0.000000000000000000, 0.000000000000000000 ) ) ;
#158 = UNCERTAINTY_MEASURE_WITH_UNIT (LENGTH_MEASURE( 1.000000000000000082E-05 ), #280, 'distance_accuracy_value', 'NONE');
#159 = DIRECTION ( 'NONE',  ( -4.082155997157843818E-17, 1.000000000000000000, -0.000000000000000000 ) ) ;
#160 = PRESENTATION_LAYER_ASSIGNMENT (  '', '', ( #43 ) ) ;
#161 = DIMENSIONAL_EXPONENTS ( 1.000000000000000000, 0.000000000000000000, 0.000000000000000000, 0.000000000000000000, 0.000000000000000000, 0.000000000000000000, 0.000000000000000000 ) ;
#162 = UNCERTAINTY_MEASURE_WITH_UNIT (LENGTH_MEASURE( 1.000000000000000082E-05 ), #13, 'distance_accuracy_value', 'NONE');
#163 = FILL_AREA_STYLE_COLOUR ( '', #126 ) ;
#164 = ORIENTED_EDGE ( 'NONE', *, *, #137, .F. ) ;
#165 = DIRECTION ( 'NONE',  ( 0.000000000000000000, 0.000000000000000000, -1.000000000000000000 ) ) ;
#166 = ORIENTED_EDGE ( 'NONE', *, *, #303, .T. ) ;
#167 =( GEOMETRIC_REPRESENTATION_CONTEXT ( 3 ) GLOBAL_UNCERTAINTY_ASSIGNED_CONTEXT ( ( #38 ) ) GLOBAL_UNIT_ASSIGNED_CONTEXT ( ( #152, #119, #252 ) ) REPRESENTATION_CONTEXT ( 'NONE', 'WORKASPACE' ) );
#168 = PLANE ( 'NONE',  #95 ) ;
#169 =( NAMED_UNIT ( * ) SI_UNIT ( $, .STERADIAN. ) SOLID_ANGLE_UNIT ( ) );
#170 = ORIENTED_EDGE ( 'NONE', *, *, #291, .F. ) ;
#171 = FILL_AREA_STYLE_COLOUR ( '', #253 ) ;
#172 = DIRECTION ( 'NONE',  ( 0.000000000000000000, 1.000000000000000000, 0.000000000000000000 ) ) ;
#173 = PLANE ( 'NONE',  #270 ) ;
#174 = CARTESIAN_POINT ( 'NONE',  ( 0.000000000000000000, 0.000000000000000000, 0.000000000000000000 ) ) ;
#175 = CLOSED_SHELL ( 'NONE', ( #2, #299, #143, #59 ) ) ;
#176 = PRODUCT_DEFINITION_FORMATION_WITH_SPECIFIED_SOURCE ( 'ANY', '', #237, .NOT_KNOWN. ) ;
#177 = VECTOR ( 'NONE', #204, 39.37007874015748143 ) ;
#178 =( NAMED_UNIT ( * ) PLANE_ANGLE_UNIT ( ) SI_UNIT ( $, .RADIAN. ) );
#179 = SURFACE_STYLE_USAGE ( .BOTH. , #6 ) ;
#180 = EDGE_CURVE ( 'NONE', #89, #191, #265, .T. ) ;
#181 = CARTESIAN_POINT ( 'NONE',  ( 1.148106374200643401E-17, 1.000000000000000000, 0.09374999999999998612 ) ) ;
#182 = DIRECTION ( 'NONE',  ( -1.000000000000000000, 0.000000000000000000, 0.000000000000000000 ) ) ;
#183 = AXIS2_PLACEMENT_3D ( 'NONE', #45, #261, #24 ) ;
#184 = DIMENSIONAL_EXPONENTS ( 1.000000000000000000, 0.000000000000000000, 0.000000000000000000, 0.000000000000000000, 0.000000000000000000, 0.000000000000000000, 0.000000000000000000 ) ;
#185 = APPLICATION_PROTOCOL_DEFINITION ( 'draft international standard', 'automotive_design', 1998, #289 ) ;
#186 = DIRECTION ( 'NONE',  ( -0.000000000000000000, -1.000000000000000000, -0.000000000000000000 ) ) ;
#187 = FACE_OUTER_BOUND ( 'NONE', #278, .T. ) ;
#188 = AXIS2_PLACEMENT_3D ( 'NONE', #210, #292, #200 ) ;
#189 = CARTESIAN_POINT ( 'NONE',  ( 0.000000000000000000, 0.000000000000000000, -0.09374999999999998612 ) ) ;
#190 = FILL_AREA_STYLE_COLOUR ( '', #288 ) ;
#191 = VERTEX_POINT ( 'NONE', #12 ) ;
#192 = STYLED_ITEM ( 'NONE', ( #44 ), #309 ) ;
#193 = CARTESIAN_POINT ( 'NONE',  ( 0.000000000000000000, 1.000000000000000000, 0.000000000000000000 ) ) ;
#194 = CIRCLE ( 'NONE', #112, 0.09374999999999998612 ) ;
#195 = SURFACE_STYLE_FILL_AREA ( #216 ) ;
#196 = DIRECTION ( 'NONE',  ( 0.000000000000000000, 0.000000000000000000, -1.000000000000000000 ) ) ;
#197 = EDGE_CURVE ( 'NONE', #78, #211, #105, .T. ) ;
#198 =( NAMED_UNIT ( * ) PLANE_ANGLE_UNIT ( ) SI_UNIT ( $, .RADIAN. ) );
#199 = PRODUCT_RELATED_PRODUCT_CATEGORY ( 'part', '', ( #237 ) ) ;
#200 = DIRECTION ( 'NONE',  ( -1.000000000000000000, 0.000000000000000000, 0.000000000000000000 ) ) ;
#201 = VERTEX_POINT ( 'NONE', #146 ) ;
#202 = SURFACE_STYLE_FILL_AREA ( #300 ) ;
#203 = LINE ( 'NONE', #304, #135 ) ;
#204 = DIRECTION ( 'NONE',  ( -0.000000000000000000, -1.000000000000000000, -0.000000000000000000 ) ) ;
#205 = ADVANCED_BREP_SHAPE_REPRESENTATION ( '81640', ( #225, #136, #109 ), #224 ) ;
#206 = PRODUCT_CONTEXT ( 'NONE', #289, 'mechanical' ) ;
#207 =( NAMED_UNIT ( * ) PLANE_ANGLE_UNIT ( ) SI_UNIT ( $, .RADIAN. ) );
#208 = MECHANICAL_DESIGN_GEOMETRIC_PRESENTATION_REPRESENTATION (  '', ( #117 ), #248 ) ;
#209 = ORIENTED_EDGE ( 'NONE', *, *, #28, .F. ) ;
#210 = CARTESIAN_POINT ( 'NONE',  ( -6.123233995736766036E-17, 2.500000000000000000, 0.000000000000000000 ) ) ;
#211 = VERTEX_POINT ( 'NONE', #19 ) ;
#212 = CIRCLE ( 'NONE', #129, 0.09374999999999998612 ) ;
#213 = AXIS2_PLACEMENT_3D ( 'NONE', #51, #290, #196 ) ;
#214 = AXIS2_PLACEMENT_3D ( 'NONE', #94, #86, #246 ) ;
#215 = AXIS2_PLACEMENT_3D ( 'NONE', #256, #39, #104 ) ;
#216 = FILL_AREA_STYLE ('',( #257 ) ) ;
#217 =( CONVERSION_BASED_UNIT ( 'INCH', #32 ) LENGTH_UNIT ( ) NAMED_UNIT ( #8 ) );
#218 =( LENGTH_UNIT ( ) NAMED_UNIT ( * ) SI_UNIT ( $, .METRE. ) );
#219 = PLANE ( 'NONE',  #255 ) ;
#220 =( LENGTH_UNIT ( ) NAMED_UNIT ( * ) SI_UNIT ( $, .METRE. ) );
#221 = CARTESIAN_POINT ( 'NONE',  ( -0.09374999999999998612, 1.000000000000000000, 0.000000000000000000 ) ) ;
#222 = EDGE_CURVE ( 'NONE', #78, #89, #194, .T. ) ;
#223 = DIRECTION ( 'NONE',  ( 0.000000000000000000, 0.000000000000000000, 1.000000000000000000 ) ) ;
#224 =( GEOMETRIC_REPRESENTATION_CONTEXT ( 3 ) GLOBAL_UNCERTAINTY_ASSIGNED_CONTEXT ( ( #30 ) ) GLOBAL_UNIT_ASSIGNED_CONTEXT ( ( #217, #54, #70 ) ) REPRESENTATION_CONTEXT ( 'NONE', 'WORKASPACE' ) );
#225 = MANIFOLD_SOLID_BREP ( 'Revolve - Cutting Edge', #239 ) ;
#226 =( GEOMETRIC_REPRESENTATION_CONTEXT ( 3 ) GLOBAL_UNCERTAINTY_ASSIGNED_CONTEXT ( ( #96 ) ) GLOBAL_UNIT_ASSIGNED_CONTEXT ( ( #231, #207, #266 ) ) REPRESENTATION_CONTEXT ( 'NONE', 'WORKASPACE' ) );
#227 = CARTESIAN_POINT ( 'NONE',  ( 0.000000000000000000, 1.000000000000000000, 0.000000000000000000 ) ) ;
#228 = PRESENTATION_LAYER_ASSIGNMENT (  '', '', ( #64 ) ) ;
#229 = CIRCLE ( 'NONE', #183, 0.09374999999999998612 ) ;
#230 = ORIENTED_EDGE ( 'NONE', *, *, #48, .F. ) ;
#231 =( CONVERSION_BASED_UNIT ( 'INCH', #123 ) LENGTH_UNIT ( ) NAMED_UNIT ( #66 ) );
#232 = SURFACE_SIDE_STYLE ('',( #195 ) ) ;
#233 = SURFACE_STYLE_FILL_AREA ( #145 ) ;
#234 = SURFACE_SIDE_STYLE ('',( #307 ) ) ;
#235 = VERTEX_POINT ( 'NONE', #275 ) ;
#236 = PRESENTATION_LAYER_ASSIGNMENT (  '', '', ( #192 ) ) ;
#237 = PRODUCT ( '81640', '81640', '', ( #206 ) ) ;
#238 =( NAMED_UNIT ( * ) PLANE_ANGLE_UNIT ( ) SI_UNIT ( $, .RADIAN. ) );
#239 = CLOSED_SHELL ( 'NONE', ( #309, #149, #82, #274 ) ) ;
#240 = SURFACE_STYLE_USAGE ( .BOTH. , #148 ) ;
#241 = LENGTH_MEASURE_WITH_UNIT ( LENGTH_MEASURE( 0.02539999999999999897 ), #296 );
#242 = ORIENTED_EDGE ( 'NONE', *, *, #222, .F. ) ;
#243 = PRESENTATION_STYLE_ASSIGNMENT (( #87 ) ) ;
#244 = PRESENTATION_LAYER_ASSIGNMENT (  '', '', ( #102 ) ) ;
#245 = SURFACE_SIDE_STYLE ('',( #279 ) ) ;
#246 = DIRECTION ( 'NONE',  ( 0.000000000000000000, 0.000000000000000000, -1.000000000000000000 ) ) ;
#247 = CARTESIAN_POINT ( 'NONE',  ( -0.09375000000000012490, 2.500000000000000000, 0.000000000000000000 ) ) ;
#248 =( GEOMETRIC_REPRESENTATION_CONTEXT ( 3 ) GLOBAL_UNCERTAINTY_ASSIGNED_CONTEXT ( ( #158 ) ) GLOBAL_UNIT_ASSIGNED_CONTEXT ( ( #280, #238, #110 ) ) REPRESENTATION_CONTEXT ( 'NONE', 'WORKASPACE' ) );
#249 = EDGE_CURVE ( 'NONE', #294, #235, #298, .T. ) ;
#250 = DIMENSIONAL_EXPONENTS ( 1.000000000000000000, 0.000000000000000000, 0.000000000000000000, 0.000000000000000000, 0.000000000000000000, 0.000000000000000000, 0.000000000000000000 ) ;
#251 = CARTESIAN_POINT ( 'NONE',  ( -6.123233995736766036E-17, 2.500000000000000000, 0.000000000000000000 ) ) ;
#252 =( NAMED_UNIT ( * ) SI_UNIT ( $, .STERADIAN. ) SOLID_ANGLE_UNIT ( ) );
#253 = COLOUR_RGB ( '',0.7921568627450980005, 0.8196078431372548767, 0.9333333333333333481 ) ;
#254 = VERTEX_POINT ( 'NONE', #221 ) ;
#255 = AXIS2_PLACEMENT_3D ( 'NONE', #93, #61, #62 ) ;
#256 = CARTESIAN_POINT ( 'NONE',  ( 0.000000000000000000, 1.000000000000000000, 0.000000000000000000 ) ) ;
#257 = FILL_AREA_STYLE_COLOUR ( '', #271 ) ;
#258 = STYLED_ITEM ( 'NONE', ( #118 ), #136 ) ;
#259 = FILL_AREA_STYLE ('',( #190 ) ) ;
#260 = FILL_AREA_STYLE ('',( #171 ) ) ;
#261 = DIRECTION ( 'NONE',  ( -4.082155997157843818E-17, 1.000000000000000000, -0.000000000000000000 ) ) ;
#262 =( GEOMETRIC_REPRESENTATION_CONTEXT ( 3 ) GLOBAL_UNCERTAINTY_ASSIGNED_CONTEXT ( ( #116 ) ) GLOBAL_UNIT_ASSIGNED_CONTEXT ( ( #10, #198, #99 ) ) REPRESENTATION_CONTEXT ( 'NONE', 'WORKASPACE' ) );
#263 = APPLICATION_PROTOCOL_DEFINITION ( 'draft international standard', 'automotive_design', 1998, #302 ) ;
#264 = AXIS2_PLACEMENT_3D ( 'NONE', #277, #186, #165 ) ;
#265 = LINE ( 'NONE', #75, #177 ) ;
#266 =( NAMED_UNIT ( * ) SI_UNIT ( $, .STERADIAN. ) SOLID_ANGLE_UNIT ( ) );
#267 = DIRECTION ( 'NONE',  ( -0.000000000000000000, -1.000000000000000000, -0.000000000000000000 ) ) ;
#268 = ORIENTED_EDGE ( 'NONE', *, *, #287, .F. ) ;
#269 = FILL_AREA_STYLE_COLOUR ( '', #144 ) ;
#270 = AXIS2_PLACEMENT_3D ( 'NONE', #157, #7, #100 ) ;
#271 = COLOUR_RGB ( '',1.000000000000000000, 0.000000000000000000, 0.000000000000000000 ) ;
#272 = FACE_OUTER_BOUND ( 'NONE', #127, .T. ) ;
#273 = ORIENTED_EDGE ( 'NONE', *, *, #137, .T. ) ;
#274 = ADVANCED_FACE ( 'NONE', ( #122 ), #173, .T. ) ;
#275 = CARTESIAN_POINT ( 'NONE',  ( 0.09374999999999998612, 2.500000000000000000, 1.148106374200644171E-17 ) ) ;
#276 = LENGTH_MEASURE_WITH_UNIT ( LENGTH_MEASURE( 0.02539999999999999897 ), #154 );
#277 = CARTESIAN_POINT ( 'NONE',  ( 0.000000000000000000, 0.000000000000000000, 0.000000000000000000 ) ) ;
#278 = EDGE_LOOP ( 'NONE', ( #170, #150, #103, #164 ) ) ;
#279 = SURFACE_STYLE_FILL_AREA ( #111 ) ;
#280 =( CONVERSION_BASED_UNIT ( 'INCH', #46 ) LENGTH_UNIT ( ) NAMED_UNIT ( #138 ) );
#281 = EDGE_LOOP ( 'NONE', ( #57, #166 ) ) ;
#282 = EDGE_LOOP ( 'NONE', ( #42, #26 ) ) ;
#283 = ORIENTED_EDGE ( 'NONE', *, *, #249, .T. ) ;
#284 = EDGE_CURVE ( 'NONE', #254, #201, #229, .T. ) ;
#285 = DIRECTION ( 'NONE',  ( -0.000000000000000000, -1.000000000000000000, -0.000000000000000000 ) ) ;
#286 = DIRECTION ( 'NONE',  ( 0.000000000000000000, 0.000000000000000000, -1.000000000000000000 ) ) ;
#287 = EDGE_CURVE ( 'NONE', #211, #191, #58, .T. ) ;
#288 = COLOUR_RGB ( '',1.000000000000000000, 0.000000000000000000, 0.000000000000000000 ) ;
#289 = APPLICATION_CONTEXT ( 'automotive_design' ) ;
#290 = DIRECTION ( 'NONE',  ( -0.000000000000000000, -1.000000000000000000, -0.000000000000000000 ) ) ;
#291 = EDGE_CURVE ( 'NONE', #201, #235, #297, .T. ) ;
#292 = DIRECTION ( 'NONE',  ( -4.082155997157843818E-17, 1.000000000000000000, -0.000000000000000000 ) ) ;
#293 = DIRECTION ( 'NONE',  ( -4.082155997157843818E-17, 1.000000000000000000, -0.000000000000000000 ) ) ;
#294 = VERTEX_POINT ( 'NONE', #247 ) ;
#295 = MECHANICAL_DESIGN_GEOMETRIC_PRESENTATION_REPRESENTATION (  '', ( #258 ), #167 ) ;
#296 =( LENGTH_UNIT ( ) NAMED_UNIT ( * ) SI_UNIT ( $, .METRE. ) );
#297 = LINE ( 'NONE', #63, #71 ) ;
#298 = CIRCLE ( 'NONE', #124, 0.09375000000000005551 ) ;
#299 = ADVANCED_FACE ( 'NONE', ( #33 ), #219, .F. ) ;
#300 = FILL_AREA_STYLE ('',( #163 ) ) ;
#301 = AXIS2_PLACEMENT_3D ( 'NONE', #174, #267, #134 ) ;
#302 = APPLICATION_CONTEXT ( 'automotive_design' ) ;
#303 = EDGE_CURVE ( 'NONE', #191, #211, #114, .T. ) ;
#304 = CARTESIAN_POINT ( 'NONE',  ( -0.09375000000000009714, 2.500000000000000000, 0.000000000000000000 ) ) ;
#305 = FACE_OUTER_BOUND ( 'NONE', #139, .T. ) ;
#306 = CARTESIAN_POINT ( 'NONE',  ( 0.000000000000000000, 1.000000000000000000, 0.000000000000000000 ) ) ;
#307 = SURFACE_STYLE_FILL_AREA ( #259 ) ;
#308 = VECTOR ( 'NONE', #285, 39.37007874015748143 ) ;
#309 = ADVANCED_FACE ( 'NONE', ( #272 ), #106, .T. ) ;
ENDSEC;
END-ISO-10303-21;
