ISO-10303-21;
HEADER;
FILE_DESCRIPTION (( 'STEP AP214' ),
    '1' );
FILE_NAME ('06450.STEP',
    '2023-07-05T16:03:06',
    ( '' ),
    ( '' ),
    'SwSTEP 2.0',
    'SolidWorks 2023',
    '' );
FILE_SCHEMA (( 'AUTOMOTIVE_DESIGN' ));
ENDSEC;

DATA;
#1 = CIRCLE ( 'NONE', #35, 0.1875000000000000555 ) ;
#2 = DIMENSIONAL_EXPONENTS ( 1.000000000000000000, 0.000000000000000000, 0.000000000000000000, 0.000000000000000000, 0.000000000000000000, 0.000000000000000000, 0.000000000000000000 ) ;
#3 = VECTOR ( 'NONE', #142, 39.37007874015748854 ) ;
#4 = CYLINDRICAL_SURFACE ( 'NONE', #165, 0.1874999999999998890 ) ;
#5 = ORIENTED_EDGE ( 'NONE', *, *, #189, .F. ) ;
#6 = CARTESIAN_POINT ( 'NONE',  ( 0.000000000000000000, 0.000000000000000000, 0.000000000000000000 ) ) ;
#7 = AXIS2_PLACEMENT_3D ( 'NONE', #126, #156, #213 ) ;
#8 = DIRECTION ( 'NONE',  ( -1.000000000000000000, -1.821231995776178437E-16, 0.000000000000000000 ) ) ;
#9 = FILL_AREA_STYLE ('',( #108 ) ) ;
#10 = UNCERTAINTY_MEASURE_WITH_UNIT (LENGTH_MEASURE( 1.000000000000000082E-05 ), #37, 'distance_accuracy_value', 'NONE');
#11 = CLOSED_SHELL ( 'NONE', ( #97, #15, #231, #93 ) ) ;
#12 =( NAMED_UNIT ( * ) PLANE_ANGLE_UNIT ( ) SI_UNIT ( $, .RADIAN. ) );
#13 = DIRECTION ( 'NONE',  ( -1.451753476719974375E-16, 1.000000000000000000, -0.000000000000000000 ) ) ;
#14 =( GEOMETRIC_REPRESENTATION_CONTEXT ( 3 ) GLOBAL_UNCERTAINTY_ASSIGNED_CONTEXT ( ( #238 ) ) GLOBAL_UNIT_ASSIGNED_CONTEXT ( ( #24, #86, #105 ) ) REPRESENTATION_CONTEXT ( 'NONE', 'WORKASPACE' ) );
#15 = ADVANCED_FACE ( 'NONE', ( #100 ), #226, .F. ) ;
#16 =( NAMED_UNIT ( * ) PLANE_ANGLE_UNIT ( ) SI_UNIT ( $, .RADIAN. ) );
#17 = FACE_OUTER_BOUND ( 'NONE', #73, .T. ) ;
#18 = PRESENTATION_LAYER_ASSIGNMENT (  '', '', ( #44 ) ) ;
#19 = ORIENTED_EDGE ( 'NONE', *, *, #186, .T. ) ;
#20 = CARTESIAN_POINT ( 'NONE',  ( 2.859903368367275526E-16, 0.1082531754730542140, 0.000000000000000000 ) ) ;
#21 = CARTESIAN_POINT ( 'NONE',  ( 2.859903368367275526E-16, 0.1082531754730542278, 0.000000000000000000 ) ) ;
#22 = ORIENTED_EDGE ( 'NONE', *, *, #169, .T. ) ;
#23 = DIMENSIONAL_EXPONENTS ( 1.000000000000000000, 0.000000000000000000, 0.000000000000000000, 0.000000000000000000, 0.000000000000000000, 0.000000000000000000, 0.000000000000000000 ) ;
#24 =( CONVERSION_BASED_UNIT ( 'INCH', #143 ) LENGTH_UNIT ( ) NAMED_UNIT ( #2 ) );
#25 = ADVANCED_FACE ( 'NONE', ( #262 ), #155, .T. ) ;
#26 = DIRECTION ( 'NONE',  ( -1.451753476719974375E-16, 1.000000000000000000, -0.000000000000000000 ) ) ;
#27 = CIRCLE ( 'NONE', #45, 0.1875000000000000555 ) ;
#28 = CARTESIAN_POINT ( 'NONE',  ( -6.123233995736766036E-17, 2.500000000000000000, 0.000000000000000000 ) ) ;
#29 = FACE_OUTER_BOUND ( 'NONE', #95, .T. ) ;
#30 = CARTESIAN_POINT ( 'NONE',  ( 0.000000000000000000, 0.000000000000000000, 0.000000000000000000 ) ) ;
#31 = VECTOR ( 'NONE', #13, 39.37007874015748143 ) ;
#32 =( NAMED_UNIT ( * ) PLANE_ANGLE_UNIT ( ) SI_UNIT ( $, .RADIAN. ) );
#33 =( CONVERSION_BASED_UNIT ( 'INCH', #90 ) LENGTH_UNIT ( ) NAMED_UNIT ( #215 ) );
#34 = DIRECTION ( 'NONE',  ( 1.451753476719974375E-16, -1.000000000000000000, 0.000000000000000000 ) ) ;
#35 = AXIS2_PLACEMENT_3D ( 'NONE', #112, #260, #244 ) ;
#36 = LINE ( 'NONE', #96, #31 ) ;
#37 =( CONVERSION_BASED_UNIT ( 'INCH', #167 ) LENGTH_UNIT ( ) NAMED_UNIT ( #171 ) );
#38 = DIRECTION ( 'NONE',  ( -1.451753476719974375E-16, 1.000000000000000000, -0.000000000000000000 ) ) ;
#39 = PRESENTATION_LAYER_ASSIGNMENT (  '', '', ( #242 ) ) ;
#40 = DIRECTION ( 'NONE',  ( -1.000000000000000000, -1.821231995776178437E-16, 0.000000000000000000 ) ) ;
#41 = ORIENTED_EDGE ( 'NONE', *, *, #134, .T. ) ;
#42 = CARTESIAN_POINT ( 'NONE',  ( 0.000000000000000000, 0.000000000000000000, 0.000000000000000000 ) ) ;
#43 = VERTEX_POINT ( 'NONE', #149 ) ;
#44 = STYLED_ITEM ( 'NONE', ( #239 ), #64 ) ;
#45 = AXIS2_PLACEMENT_3D ( 'NONE', #84, #206, #250 ) ;
#46 = AXIS2_PLACEMENT_3D ( 'NONE', #132, #210, #225 ) ;
#47 = CARTESIAN_POINT ( 'NONE',  ( 0.1874999999999999722, 2.500000000000000000, 0.000000000000000000 ) ) ;
#48 = EDGE_CURVE ( 'NONE', #43, #232, #27, .T. ) ;
#49 = CARTESIAN_POINT ( 'NONE',  ( 2.296212748401287726E-17, 0.1082531754730542695, -0.1875000000000000278 ) ) ;
#50 = AXIS2_PLACEMENT_3D ( 'NONE', #47, #34, #71 ) ;
#51 = CARTESIAN_POINT ( 'NONE',  ( 2.859903368367275526E-16, 0.1082531754730542140, 0.000000000000000000 ) ) ;
#52 = PRODUCT_DEFINITION_SHAPE ( 'NONE', 'NONE',  #150 ) ;
#53 = UNCERTAINTY_MEASURE_WITH_UNIT (LENGTH_MEASURE( 1.000000000000000082E-05 ), #235, 'distance_accuracy_value', 'NONE');
#54 = AXIS2_PLACEMENT_3D ( 'NONE', #78, #177, #83 ) ;
#55 = DIRECTION ( 'NONE',  ( 1.060575238724908024E-16, 0.4999999999999979461, -0.8660254037844397068 ) ) ;
#56 = LINE ( 'NONE', #183, #236 ) ;
#57 = DIRECTION ( 'NONE',  ( -1.000000000000000000, -1.451753476719974375E-16, 0.000000000000000000 ) ) ;
#58 = CARTESIAN_POINT ( 'NONE',  ( 0.000000000000000000, 0.1082531754730542695, 0.000000000000000000 ) ) ;
#59 = CIRCLE ( 'NONE', #107, 0.1874999999999996947 ) ;
#60 = COLOUR_RGB ( '',0.7921568627450980005, 0.8196078431372548767, 0.9333333333333333481 ) ;
#61 = SURFACE_SIDE_STYLE ('',( #184 ) ) ;
#62 = PRODUCT_CONTEXT ( 'NONE', #129, 'mechanical' ) ;
#63 =( LENGTH_UNIT ( ) NAMED_UNIT ( * ) SI_UNIT ( $, .METRE. ) );
#64 = MANIFOLD_SOLID_BREP ( 'Revolve - Tool Body (Pointed)', #11 ) ;
#65 = PLANE ( 'NONE',  #128 ) ;
#66 =( NAMED_UNIT ( * ) SI_UNIT ( $, .STERADIAN. ) SOLID_ANGLE_UNIT ( ) );
#67 = DIRECTION ( 'NONE',  ( 0.000000000000000000, 0.000000000000000000, 1.000000000000000000 ) ) ;
#68 = VERTEX_POINT ( 'NONE', #49 ) ;
#69 = ADVANCED_FACE ( 'NONE', ( #29 ), #65, .T. ) ;
#70 = MECHANICAL_DESIGN_GEOMETRIC_PRESENTATION_REPRESENTATION (  '', ( #44 ), #254 ) ;
#71 = DIRECTION ( 'NONE',  ( 1.000000000000000000, 1.451753476719974375E-16, 0.000000000000000000 ) ) ;
#72 = CYLINDRICAL_SURFACE ( 'NONE', #7, 0.1874999999999998890 ) ;
#73 = EDGE_LOOP ( 'NONE', ( #161, #133, #22 ) ) ;
#74 = FILL_AREA_STYLE ('',( #136 ) ) ;
#75 = UNCERTAINTY_MEASURE_WITH_UNIT (LENGTH_MEASURE( 1.000000000000000082E-05 ), #33, 'distance_accuracy_value', 'NONE');
#76 = COLOUR_RGB ( '',1.000000000000000000, 0.000000000000000000, 0.000000000000000000 ) ;
#77 = LENGTH_MEASURE_WITH_UNIT ( LENGTH_MEASURE( 0.02539999999999999897 ), #140 );
#78 = CARTESIAN_POINT ( 'NONE',  ( 0.000000000000000000, 0.1082531754730542695, 0.000000000000000000 ) ) ;
#79 = FILL_AREA_STYLE ('',( #117 ) ) ;
#80 = ORIENTED_EDGE ( 'NONE', *, *, #189, .T. ) ;
#81 = AXIS2_PLACEMENT_3D ( 'NONE', #42, #229, #185 ) ;
#82 = FILL_AREA_STYLE ('',( #137 ) ) ;
#83 = DIRECTION ( 'NONE',  ( 0.000000000000000000, 0.000000000000000000, -1.000000000000000000 ) ) ;
#84 = CARTESIAN_POINT ( 'NONE',  ( -6.123233995736764803E-17, 2.500000000000000000, 0.000000000000000000 ) ) ;
#85 = ORIENTED_EDGE ( 'NONE', *, *, #123, .F. ) ;
#86 =( NAMED_UNIT ( * ) PLANE_ANGLE_UNIT ( ) SI_UNIT ( $, .RADIAN. ) );
#87 =( GEOMETRIC_REPRESENTATION_CONTEXT ( 3 ) GLOBAL_UNCERTAINTY_ASSIGNED_CONTEXT ( ( #174 ) ) GLOBAL_UNIT_ASSIGNED_CONTEXT ( ( #116, #12, #201 ) ) REPRESENTATION_CONTEXT ( 'NONE', 'WORKASPACE' ) );
#88 = LINE ( 'NONE', #6, #3 ) ;
#89 = LINE ( 'NONE', #264, #164 ) ;
#90 = LENGTH_MEASURE_WITH_UNIT ( LENGTH_MEASURE( 0.02539999999999999897 ), #257 );
#91 = DIRECTION ( 'NONE',  ( 0.000000000000000000, 1.000000000000000000, 0.000000000000000000 ) ) ;
#92 = COLOUR_RGB ( '',1.000000000000000000, 0.000000000000000000, 0.000000000000000000 ) ;
#93 = ADVANCED_FACE ( 'NONE', ( #216 ), #259, .F. ) ;
#94 =( NAMED_UNIT ( * ) SI_UNIT ( $, .STERADIAN. ) SOLID_ANGLE_UNIT ( ) );
#95 = EDGE_LOOP ( 'NONE', ( #217, #104 ) ) ;
#96 = CARTESIAN_POINT ( 'NONE',  ( 0.1874999999999998057, 2.500000000000000000, 2.296212748401285877E-17 ) ) ;
#97 = ADVANCED_FACE ( 'NONE', ( #237 ), #72, .T. ) ;
#98 = PRESENTATION_LAYER_ASSIGNMENT (  '', '', ( #218 ) ) ;
#99 = DIRECTION ( 'NONE',  ( -0.000000000000000000, -1.000000000000000000, -0.000000000000000000 ) ) ;
#100 = FACE_OUTER_BOUND ( 'NONE', #118, .T. ) ;
#101 = SURFACE_STYLE_USAGE ( .BOTH. , #243 ) ;
#102 = MECHANICAL_DESIGN_GEOMETRIC_PRESENTATION_REPRESENTATION (  '', ( #218 ), #125 ) ;
#103 = DIMENSIONAL_EXPONENTS ( 1.000000000000000000, 0.000000000000000000, 0.000000000000000000, 0.000000000000000000, 0.000000000000000000, 0.000000000000000000, 0.000000000000000000 ) ;
#104 = ORIENTED_EDGE ( 'NONE', *, *, #147, .F. ) ;
#105 =( NAMED_UNIT ( * ) SI_UNIT ( $, .STERADIAN. ) SOLID_ANGLE_UNIT ( ) );
#106 = DIRECTION ( 'NONE',  ( -1.451753476719974375E-16, 1.000000000000000000, -0.000000000000000000 ) ) ;
#107 = AXIS2_PLACEMENT_3D ( 'NONE', #20, #38, #40 ) ;
#108 = FILL_AREA_STYLE_COLOUR ( '', #76 ) ;
#109 = SURFACE_SIDE_STYLE ('',( #153 ) ) ;
#110 = EDGE_LOOP ( 'NONE', ( #158, #80, #131, #197 ) ) ;
#111 = CIRCLE ( 'NONE', #178, 0.1875000000000000278 ) ;
#112 = CARTESIAN_POINT ( 'NONE',  ( -6.123233995736764803E-17, 2.500000000000000000, 0.000000000000000000 ) ) ;
#113 = ORIENTED_EDGE ( 'NONE', *, *, #135, .F. ) ;
#114 = CIRCLE ( 'NONE', #54, 0.1875000000000000278 ) ;
#115 = PRESENTATION_STYLE_ASSIGNMENT (( #246 ) ) ;
#116 =( CONVERSION_BASED_UNIT ( 'INCH', #77 ) LENGTH_UNIT ( ) NAMED_UNIT ( #23 ) );
#117 = FILL_AREA_STYLE_COLOUR ( '', #92 ) ;
#118 = EDGE_LOOP ( 'NONE', ( #85, #113 ) ) ;
#119 = PRODUCT_DEFINITION_FORMATION_WITH_SPECIFIED_SOURCE ( 'ANY', '', #130, .NOT_KNOWN. ) ;
#120 = LENGTH_MEASURE_WITH_UNIT ( LENGTH_MEASURE( 0.02539999999999999897 ), #162 );
#121 = VERTEX_POINT ( 'NONE', #30 ) ;
#122 = APPLICATION_PROTOCOL_DEFINITION ( 'draft international standard', 'automotive_design', 1998, #129 ) ;
#123 = EDGE_CURVE ( 'NONE', #176, #203, #159, .T. ) ;
#124 = STYLED_ITEM ( 'NONE', ( #152 ), #69 ) ;
#125 =( GEOMETRIC_REPRESENTATION_CONTEXT ( 3 ) GLOBAL_UNCERTAINTY_ASSIGNED_CONTEXT ( ( #258 ) ) GLOBAL_UNIT_ASSIGNED_CONTEXT ( ( #249, #251, #66 ) ) REPRESENTATION_CONTEXT ( 'NONE', 'WORKASPACE' ) );
#126 = CARTESIAN_POINT ( 'NONE',  ( -6.123233995736766036E-17, 2.500000000000000000, 0.000000000000000000 ) ) ;
#127 = LENGTH_MEASURE_WITH_UNIT ( LENGTH_MEASURE( 0.02539999999999999897 ), #175 );
#128 = AXIS2_PLACEMENT_3D ( 'NONE', #194, #91, #172 ) ;
#129 = APPLICATION_CONTEXT ( 'automotive_design' ) ;
#130 = PRODUCT ( '06450', '06450', '', ( #62 ) ) ;
#131 = ORIENTED_EDGE ( 'NONE', *, *, #186, .F. ) ;
#132 = CARTESIAN_POINT ( 'NONE',  ( 0.000000000000000000, 39.37007874015748143, 0.000000000000000000 ) ) ;
#133 = ORIENTED_EDGE ( 'NONE', *, *, #209, .T. ) ;
#134 = EDGE_CURVE ( 'NONE', #121, #68, #89, .T. ) ;
#135 = EDGE_CURVE ( 'NONE', #203, #176, #59, .T. ) ;
#136 = FILL_AREA_STYLE_COLOUR ( '', #144 ) ;
#137 = FILL_AREA_STYLE_COLOUR ( '', #214 ) ;
#138 = SURFACE_STYLE_USAGE ( .BOTH. , #61 ) ;
#139 = CLOSED_SHELL ( 'NONE', ( #25, #69, #191 ) ) ;
#140 =( LENGTH_UNIT ( ) NAMED_UNIT ( * ) SI_UNIT ( $, .METRE. ) );
#141 = CARTESIAN_POINT ( 'NONE',  ( 0.000000000000000000, 39.37007874015748143, 0.000000000000000000 ) ) ;
#142 = DIRECTION ( 'NONE',  ( 0.000000000000000000, 0.4999999999999979461, 0.8660254037844397068 ) ) ;
#143 = LENGTH_MEASURE_WITH_UNIT ( LENGTH_MEASURE( 0.02539999999999999897 ), #63 );
#144 = COLOUR_RGB ( '',0.7921568627450980005, 0.8196078431372548767, 0.9333333333333333481 ) ;
#145 = FILL_AREA_STYLE_COLOUR ( '', #60 ) ;
#146 = APPLICATION_CONTEXT ( 'automotive_design' ) ;
#147 = EDGE_CURVE ( 'NONE', #68, #181, #111, .T. ) ;
#148 = ORIENTED_EDGE ( 'NONE', *, *, #135, .T. ) ;
#149 = CARTESIAN_POINT ( 'NONE',  ( 0.1874999999999999722, 2.500000000000000000, 2.296212748401286801E-17 ) ) ;
#150 = PRODUCT_DEFINITION ( 'UNKNOWN', '', #119, #198 ) ;
#151 = MANIFOLD_SOLID_BREP ( 'Revolve - Cutting Edge', #139 ) ;
#152 = PRESENTATION_STYLE_ASSIGNMENT (( #212 ) ) ;
#153 = SURFACE_STYLE_FILL_AREA ( #256 ) ;
#154 = SURFACE_SIDE_STYLE ('',( #192 ) ) ;
#155 = CONICAL_SURFACE ( 'NONE', #188, 68.19097667594041923, 1.047197551196600074 ) ;
#156 = DIRECTION ( 'NONE',  ( -1.451753476719974375E-16, 1.000000000000000000, -0.000000000000000000 ) ) ;
#157 = SURFACE_STYLE_USAGE ( .BOTH. , #109 ) ;
#158 = ORIENTED_EDGE ( 'NONE', *, *, #123, .T. ) ;
#159 = CIRCLE ( 'NONE', #230, 0.1874999999999996947 ) ;
#160 = CARTESIAN_POINT ( 'NONE',  ( 0.000000000000000000, 0.1082531754730542695, 0.1875000000000000278 ) ) ;
#161 = ORIENTED_EDGE ( 'NONE', *, *, #134, .F. ) ;
#162 =( LENGTH_UNIT ( ) NAMED_UNIT ( * ) SI_UNIT ( $, .METRE. ) );
#163 = EDGE_CURVE ( 'NONE', #176, #232, #56, .T. ) ;
#164 = VECTOR ( 'NONE', #55, 39.37007874015748854 ) ;
#165 = AXIS2_PLACEMENT_3D ( 'NONE', #28, #26, #252 ) ;
#166 = CARTESIAN_POINT ( 'NONE',  ( 0.1874999999999999722, 0.1082531754730542417, 2.296212748401286801E-17 ) ) ;
#167 = LENGTH_MEASURE_WITH_UNIT ( LENGTH_MEASURE( 0.02539999999999999897 ), #222 );
#168 = FACE_OUTER_BOUND ( 'NONE', #207, .T. ) ;
#169 = EDGE_CURVE ( 'NONE', #181, #68, #114, .T. ) ;
#170 = STYLED_ITEM ( 'NONE', ( #179 ), #151 ) ;
#171 = DIMENSIONAL_EXPONENTS ( 1.000000000000000000, 0.000000000000000000, 0.000000000000000000, 0.000000000000000000, 0.000000000000000000, 0.000000000000000000, 0.000000000000000000 ) ;
#172 = DIRECTION ( 'NONE',  ( 0.000000000000000000, -0.000000000000000000, 1.000000000000000000 ) ) ;
#173 = PRESENTATION_LAYER_ASSIGNMENT (  '', '', ( #170 ) ) ;
#174 = UNCERTAINTY_MEASURE_WITH_UNIT (LENGTH_MEASURE( 1.000000000000000082E-05 ), #116, 'distance_accuracy_value', 'NONE');
#175 =( LENGTH_UNIT ( ) NAMED_UNIT ( * ) SI_UNIT ( $, .METRE. ) );
#176 = VERTEX_POINT ( 'NONE', #220 ) ;
#177 = DIRECTION ( 'NONE',  ( -0.000000000000000000, -1.000000000000000000, -0.000000000000000000 ) ) ;
#178 = AXIS2_PLACEMENT_3D ( 'NONE', #58, #99, #224 ) ;
#179 = PRESENTATION_STYLE_ASSIGNMENT (( #101 ) ) ;
#180 = EDGE_LOOP ( 'NONE', ( #19, #233 ) ) ;
#181 = VERTEX_POINT ( 'NONE', #160 ) ;
#182 = SURFACE_STYLE_FILL_AREA ( #74 ) ;
#183 = CARTESIAN_POINT ( 'NONE',  ( -0.1874999999999999445, 2.500000000000000000, 0.000000000000000000 ) ) ;
#184 = SURFACE_STYLE_FILL_AREA ( #79 ) ;
#185 = DIRECTION ( 'NONE',  ( 1.000000000000000000, 0.000000000000000000, 0.000000000000000000 ) ) ;
#186 = EDGE_CURVE ( 'NONE', #232, #43, #1, .T. ) ;
#187 = APPLICATION_PROTOCOL_DEFINITION ( 'draft international standard', 'automotive_design', 1998, #146 ) ;
#188 = AXIS2_PLACEMENT_3D ( 'NONE', #141, #253, #67 ) ;
#189 = EDGE_CURVE ( 'NONE', #203, #43, #36, .T. ) ;
#190 = MECHANICAL_DESIGN_GEOMETRIC_PRESENTATION_REPRESENTATION (  '', ( #124 ), #196 ) ;
#191 = ADVANCED_FACE ( 'NONE', ( #17 ), #234, .T. ) ;
#192 = SURFACE_STYLE_FILL_AREA ( #9 ) ;
#193 = DIMENSIONAL_EXPONENTS ( 1.000000000000000000, 0.000000000000000000, 0.000000000000000000, 0.000000000000000000, 0.000000000000000000, 0.000000000000000000, 0.000000000000000000 ) ;
#194 = CARTESIAN_POINT ( 'NONE',  ( 0.000000000000000000, 0.1082531754730542556, 0.000000000000000000 ) ) ;
#195 =( NAMED_UNIT ( * ) PLANE_ANGLE_UNIT ( ) SI_UNIT ( $, .RADIAN. ) );
#196 =( GEOMETRIC_REPRESENTATION_CONTEXT ( 3 ) GLOBAL_UNCERTAINTY_ASSIGNED_CONTEXT ( ( #75 ) ) GLOBAL_UNIT_ASSIGNED_CONTEXT ( ( #33, #195, #94 ) ) REPRESENTATION_CONTEXT ( 'NONE', 'WORKASPACE' ) );
#197 = ORIENTED_EDGE ( 'NONE', *, *, #163, .F. ) ;
#198 = PRODUCT_DEFINITION_CONTEXT ( 'detailed design', #146, 'design' ) ;
#199 = MECHANICAL_DESIGN_GEOMETRIC_PRESENTATION_REPRESENTATION (  '', ( #170 ), #87 ) ;
#200 = DIRECTION ( 'NONE',  ( -1.451753476719974375E-16, 1.000000000000000000, -0.000000000000000000 ) ) ;
#201 =( NAMED_UNIT ( * ) SI_UNIT ( $, .STERADIAN. ) SOLID_ANGLE_UNIT ( ) );
#202 = CARTESIAN_POINT ( 'NONE',  ( -0.1875000000000001110, 2.500000000000000000, 0.000000000000000000 ) ) ;
#203 = VERTEX_POINT ( 'NONE', #166 ) ;
#204 = MECHANICAL_DESIGN_GEOMETRIC_PRESENTATION_REPRESENTATION (  '', ( #242 ), #245 ) ;
#205 = SHAPE_DEFINITION_REPRESENTATION ( #52, #227 ) ;
#206 = DIRECTION ( 'NONE',  ( -1.451753476719974375E-16, 1.000000000000000000, -0.000000000000000000 ) ) ;
#207 = EDGE_LOOP ( 'NONE', ( #5, #148, #248, #240 ) ) ;
#208 =( NAMED_UNIT ( * ) SI_UNIT ( $, .STERADIAN. ) SOLID_ANGLE_UNIT ( ) );
#209 = EDGE_CURVE ( 'NONE', #121, #181, #88, .T. ) ;
#210 = DIRECTION ( 'NONE',  ( 0.000000000000000000, 1.000000000000000000, 0.000000000000000000 ) ) ;
#211 = AXIS2_PLACEMENT_3D ( 'NONE', #21, #247, #57 ) ;
#212 = SURFACE_STYLE_USAGE ( .BOTH. , #154 ) ;
#213 = DIRECTION ( 'NONE',  ( -1.000000000000000000, 0.000000000000000000, 0.000000000000000000 ) ) ;
#214 = COLOUR_RGB ( '',1.000000000000000000, 0.000000000000000000, 0.000000000000000000 ) ;
#215 = DIMENSIONAL_EXPONENTS ( 1.000000000000000000, 0.000000000000000000, 0.000000000000000000, 0.000000000000000000, 0.000000000000000000, 0.000000000000000000, 0.000000000000000000 ) ;
#216 = FACE_OUTER_BOUND ( 'NONE', #180, .T. ) ;
#217 = ORIENTED_EDGE ( 'NONE', *, *, #169, .F. ) ;
#218 = STYLED_ITEM ( 'NONE', ( #115 ), #191 ) ;
#219 = ORIENTED_EDGE ( 'NONE', *, *, #147, .T. ) ;
#220 = CARTESIAN_POINT ( 'NONE',  ( -0.1874999999999994449, 0.1082531754730541723, 0.000000000000000000 ) ) ;
#221 = SURFACE_SIDE_STYLE ('',( #241 ) ) ;
#222 =( LENGTH_UNIT ( ) NAMED_UNIT ( * ) SI_UNIT ( $, .METRE. ) );
#223 = PRESENTATION_LAYER_ASSIGNMENT (  '', '', ( #124 ) ) ;
#224 = DIRECTION ( 'NONE',  ( 0.000000000000000000, 0.000000000000000000, -1.000000000000000000 ) ) ;
#225 = DIRECTION ( 'NONE',  ( 0.000000000000000000, 0.000000000000000000, 1.000000000000000000 ) ) ;
#226 = PLANE ( 'NONE',  #211 ) ;
#227 = ADVANCED_BREP_SHAPE_REPRESENTATION ( '06450', ( #151, #64, #81 ), #14 ) ;
#228 = PRODUCT_RELATED_PRODUCT_CATEGORY ( 'part', '', ( #130 ) ) ;
#229 = DIRECTION ( 'NONE',  ( 0.000000000000000000, 0.000000000000000000, 1.000000000000000000 ) ) ;
#230 = AXIS2_PLACEMENT_3D ( 'NONE', #51, #106, #8 ) ;
#231 = ADVANCED_FACE ( 'NONE', ( #168 ), #4, .T. ) ;
#232 = VERTEX_POINT ( 'NONE', #202 ) ;
#233 = ORIENTED_EDGE ( 'NONE', *, *, #48, .T. ) ;
#234 = CONICAL_SURFACE ( 'NONE', #46, 68.19097667594041923, 1.047197551196600074 ) ;
#235 =( CONVERSION_BASED_UNIT ( 'INCH', #127 ) LENGTH_UNIT ( ) NAMED_UNIT ( #193 ) );
#236 = VECTOR ( 'NONE', #200, 39.37007874015748143 ) ;
#237 = FACE_OUTER_BOUND ( 'NONE', #110, .T. ) ;
#238 = UNCERTAINTY_MEASURE_WITH_UNIT (LENGTH_MEASURE( 1.000000000000000082E-05 ), #24, 'distance_accuracy_value', 'NONE');
#239 = PRESENTATION_STYLE_ASSIGNMENT (( #157 ) ) ;
#240 = ORIENTED_EDGE ( 'NONE', *, *, #48, .F. ) ;
#241 = SURFACE_STYLE_FILL_AREA ( #82 ) ;
#242 = STYLED_ITEM ( 'NONE', ( #265 ), #25 ) ;
#243 = SURFACE_SIDE_STYLE ('',( #182 ) ) ;
#244 = DIRECTION ( 'NONE',  ( -1.000000000000000000, 0.000000000000000000, 0.000000000000000000 ) ) ;
#245 =( GEOMETRIC_REPRESENTATION_CONTEXT ( 3 ) GLOBAL_UNCERTAINTY_ASSIGNED_CONTEXT ( ( #10 ) ) GLOBAL_UNIT_ASSIGNED_CONTEXT ( ( #37, #16, #208 ) ) REPRESENTATION_CONTEXT ( 'NONE', 'WORKASPACE' ) );
#246 = SURFACE_STYLE_USAGE ( .BOTH. , #221 ) ;
#247 = DIRECTION ( 'NONE',  ( -1.451753476719974375E-16, 1.000000000000000000, 0.000000000000000000 ) ) ;
#248 = ORIENTED_EDGE ( 'NONE', *, *, #163, .T. ) ;
#249 =( CONVERSION_BASED_UNIT ( 'INCH', #120 ) LENGTH_UNIT ( ) NAMED_UNIT ( #103 ) );
#250 = DIRECTION ( 'NONE',  ( -1.000000000000000000, 0.000000000000000000, 0.000000000000000000 ) ) ;
#251 =( NAMED_UNIT ( * ) PLANE_ANGLE_UNIT ( ) SI_UNIT ( $, .RADIAN. ) );
#252 = DIRECTION ( 'NONE',  ( -1.000000000000000000, 0.000000000000000000, 0.000000000000000000 ) ) ;
#253 = DIRECTION ( 'NONE',  ( 0.000000000000000000, 1.000000000000000000, 0.000000000000000000 ) ) ;
#254 =( GEOMETRIC_REPRESENTATION_CONTEXT ( 3 ) GLOBAL_UNCERTAINTY_ASSIGNED_CONTEXT ( ( #53 ) ) GLOBAL_UNIT_ASSIGNED_CONTEXT ( ( #235, #32, #255 ) ) REPRESENTATION_CONTEXT ( 'NONE', 'WORKASPACE' ) );
#255 =( NAMED_UNIT ( * ) SI_UNIT ( $, .STERADIAN. ) SOLID_ANGLE_UNIT ( ) );
#256 = FILL_AREA_STYLE ('',( #145 ) ) ;
#257 =( LENGTH_UNIT ( ) NAMED_UNIT ( * ) SI_UNIT ( $, .METRE. ) );
#258 = UNCERTAINTY_MEASURE_WITH_UNIT (LENGTH_MEASURE( 1.000000000000000082E-05 ), #249, 'distance_accuracy_value', 'NONE');
#259 = PLANE ( 'NONE',  #50 ) ;
#260 = DIRECTION ( 'NONE',  ( -1.451753476719974375E-16, 1.000000000000000000, -0.000000000000000000 ) ) ;
#261 = ORIENTED_EDGE ( 'NONE', *, *, #209, .F. ) ;
#262 = FACE_OUTER_BOUND ( 'NONE', #263, .T. ) ;
#263 = EDGE_LOOP ( 'NONE', ( #261, #41, #219 ) ) ;
#264 = CARTESIAN_POINT ( 'NONE',  ( 0.000000000000000000, 0.000000000000000000, 0.000000000000000000 ) ) ;
#265 = PRESENTATION_STYLE_ASSIGNMENT (( #138 ) ) ;
ENDSEC;
END-ISO-10303-21;
