ISO-10303-21;
HEADER;
FILE_DESCRIPTION (( 'STEP AP214' ),
    '1' );
FILE_NAME ('Micro_AMRM-017-2X.STEP',
    '2021-09-01T17:15:48',
    ( '' ),
    ( '' ),
    'SwSTEP 2.0',
    'SolidWorks 2020',
    '' );
FILE_SCHEMA (( 'AUTOMOTIVE_DESIGN' ));
ENDSEC;

DATA;
#1 = ADVANCED_FACE ( 'NONE', ( #115 ), #79, .T. ) ;
#2 = CARTESIAN_POINT ( 'NONE',  ( 0.03343103549999999757, 4.094121061725653542E-18, 0.0000000000000000000 ) ) ;
#3 = AXIS2_PLACEMENT_3D ( 'NONE', #75, #72, #245 ) ;
#4 = ADVANCED_FACE ( 'NONE', ( #279 ), #76, .T. ) ;
#5 = DIRECTION ( 'NONE',  ( 0.0000000000000000000, 0.0000000000000000000, 1.000000000000000000 ) ) ;
#6 = AXIS2_PLACEMENT_3D ( 'NONE', #274, #69, #256 ) ;
#7 = DIRECTION ( 'NONE',  ( -1.000000000000000000, 0.0000000000000000000, 0.0000000000000000000 ) ) ;
#8 = SURFACE_STYLE_USAGE ( .BOTH. , #261 ) ;
#9 = DIRECTION ( 'NONE',  ( -1.000000000000000000, 0.0000000000000000000, 0.0000000000000000000 ) ) ;
#10 = AXIS2_PLACEMENT_3D ( 'NONE', #194, #217, #240 ) ;
#11 = ORIENTED_EDGE ( 'NONE', *, *, #114, .F. ) ;
#12 = CARTESIAN_POINT ( 'NONE',  ( 0.03343103550000002533, 0.0000000000000000000, 0.2007869999999999933 ) ) ;
#13 = DIMENSIONAL_EXPONENTS ( 1.000000000000000000, 0.0000000000000000000, 0.0000000000000000000, 0.0000000000000000000, 0.0000000000000000000, 0.0000000000000000000, 0.0000000000000000000 ) ;
#14 = APPLICATION_PROTOCOL_DEFINITION ( 'draft international standard', 'automotive_design', 1998, #258 ) ;
#15 = VERTEX_POINT ( 'NONE', #119 ) ;
#16 = FACE_OUTER_BOUND ( 'NONE', #110, .T. ) ;
#17 = FILL_AREA_STYLE ('',( #70 ) ) ;
#18 = EDGE_LOOP ( 'NONE', ( #255, #107, #88, #167 ) ) ;
#19 = DIRECTION ( 'NONE',  ( -0.0000000000000000000, -0.0000000000000000000, -1.000000000000000000 ) ) ;
#20 = VERTEX_POINT ( 'NONE', #234 ) ;
#21 = CARTESIAN_POINT ( 'NONE',  ( 5.013852253564084895E-34, 0.0000000000000000000, 4.094121061725653542E-18 ) ) ;
#22 = EDGE_CURVE ( 'NONE', #62, #198, #246, .T. ) ;
#23 = ORIENTED_EDGE ( 'NONE', *, *, #242, .T. ) ;
#24 = PLANE ( 'NONE',  #164 ) ;
#25 = EDGE_CURVE ( 'NONE', #163, #15, #120, .T. ) ;
#26 = DIRECTION ( 'NONE',  ( 1.224646799147353207E-16, 0.0000000000000000000, 1.000000000000000000 ) ) ;
#27 = PRODUCT_DEFINITION_FORMATION_WITH_SPECIFIED_SOURCE ( 'ANY', '', #143, .NOT_KNOWN. ) ;
#28 = UNCERTAINTY_MEASURE_WITH_UNIT (LENGTH_MEASURE( 1.000000000000000082E-05 ), #272, 'distance_accuracy_value', 'NONE');
#29 = VECTOR ( 'NONE', #188, 39.37007874015748143 ) ;
#30 = MANIFOLD_SOLID_BREP ( 'Cut-Revolve1', #214 ) ;
#31 = DIRECTION ( 'NONE',  ( 0.0000000000000000000, 0.0000000000000000000, 1.000000000000000000 ) ) ;
#32 = ADVANCED_FACE ( 'NONE', ( #33 ), #128, .T. ) ;
#33 = FACE_OUTER_BOUND ( 'NONE', #200, .T. ) ;
#34 = CARTESIAN_POINT ( 'NONE',  ( 0.0000000000000000000, 0.0000000000000000000, 1.953504000000000129 ) ) ;
#35 = ADVANCED_FACE ( 'NONE', ( #81 ), #97, .T. ) ;
#36 = PRESENTATION_STYLE_ASSIGNMENT (( #8 ) ) ;
#37 = LENGTH_MEASURE_WITH_UNIT ( LENGTH_MEASURE( 0.02539999999999999897 ), #264 );
#38 = AXIS2_PLACEMENT_3D ( 'NONE', #168, #144, #51 ) ;
#39 = CARTESIAN_POINT ( 'NONE',  ( 0.0000000000000000000, 0.0000000000000000000, 1.968503999999999809 ) ) ;
#40 = APPLICATION_CONTEXT ( 'automotive_design' ) ;
#41 = ORIENTED_EDGE ( 'NONE', *, *, #175, .T. ) ;
#42 = LINE ( 'NONE', #113, #280 ) ;
#43 = EDGE_CURVE ( 'NONE', #198, #62, #268, .T. ) ;
#44 = ORIENTED_EDGE ( 'NONE', *, *, #195, .F. ) ;
#45 = DIRECTION ( 'NONE',  ( 0.0000000000000000000, 0.0000000000000000000, -1.000000000000000000 ) ) ;
#46 = ORIENTED_EDGE ( 'NONE', *, *, #265, .T. ) ;
#47 = FACE_OUTER_BOUND ( 'NONE', #156, .T. ) ;
#48 = VECTOR ( 'NONE', #19, 39.37007874015748143 ) ;
#49 = VERTEX_POINT ( 'NONE', #219 ) ;
#50 = DIRECTION ( 'NONE',  ( -0.7071067811865507924, 0.0000000000000000000, -0.7071067811865443531 ) ) ;
#51 = DIRECTION ( 'NONE',  ( -1.000000000000000000, 0.0000000000000000000, 0.0000000000000000000 ) ) ;
#52 = EDGE_CURVE ( 'NONE', #198, #227, #82, .T. ) ;
#53 =( NAMED_UNIT ( * ) SI_UNIT ( $, .STERADIAN. ) SOLID_ANGLE_UNIT ( ) );
#54 = EDGE_CURVE ( 'NONE', #20, #183, #229, .T. ) ;
#55 = DIRECTION ( 'NONE',  ( 1.000000000000000000, 0.0000000000000000000, 0.0000000000000000000 ) ) ;
#56 = CARTESIAN_POINT ( 'NONE',  ( -0.07874000000000001831, 0.0000000000000000000, 1.968503999999999809 ) ) ;
#57 = PRODUCT_RELATED_PRODUCT_CATEGORY ( 'part', '', ( #143 ) ) ;
#58 = VECTOR ( 'NONE', #130, 39.37007874015748143 ) ;
#59 = DIRECTION ( 'NONE',  ( 0.0000000000000000000, 0.0000000000000000000, 1.000000000000000000 ) ) ;
#60 = CARTESIAN_POINT ( 'NONE',  ( 0.0000000000000000000, 0.0000000000000000000, 1.968503999999999809 ) ) ;
#61 = CARTESIAN_POINT ( 'NONE',  ( 0.0000000000000000000, 0.0000000000000000000, 1.968503999999999809 ) ) ;
#62 = VERTEX_POINT ( 'NONE', #288 ) ;
#63 = MECHANICAL_DESIGN_GEOMETRIC_PRESENTATION_REPRESENTATION (  '', ( #282 ), #145 ) ;
#64 = CYLINDRICAL_SURFACE ( 'NONE', #104, 0.03343103549999999757 ) ;
#65 = COLOUR_RGB ( '',0.7921568627450980005, 0.8196078431372548767, 0.9333333333333333481 ) ;
#66 = ADVANCED_FACE ( 'NONE', ( #243 ), #266, .T. ) ;
#67 = PRODUCT_CONTEXT ( 'NONE', #40, 'mechanical' ) ;
#68 = ORIENTED_EDGE ( 'NONE', *, *, #54, .T. ) ;
#69 = DIRECTION ( 'NONE',  ( -1.224646799147353207E-16, -0.0000000000000000000, -1.000000000000000000 ) ) ;
#70 = FILL_AREA_STYLE_COLOUR ( '', #65 ) ;
#71 = ORIENTED_EDGE ( 'NONE', *, *, #99, .F. ) ;
#72 = DIRECTION ( 'NONE',  ( 1.224646799147353207E-16, 0.0000000000000000000, 1.000000000000000000 ) ) ;
#73 = AXIS2_PLACEMENT_3D ( 'NONE', #150, #83, #148 ) ;
#74 = CIRCLE ( 'NONE', #140, 0.07874000000000001831 ) ;
#75 = CARTESIAN_POINT ( 'NONE',  ( 2.458931568603996074E-17, 0.0000000000000000000, 0.2007869999999999933 ) ) ;
#76 = CYLINDRICAL_SURFACE ( 'NONE', #38, 0.07874000000000001831 ) ;
#77 = VECTOR ( 'NONE', #101, 39.37007874015748143 ) ;
#78 = EDGE_CURVE ( 'NONE', #20, #276, #80, .T. ) ;
#79 = CONICAL_SURFACE ( 'NONE', #170, 0.03343103549999999757, 0.1745329251994339192 ) ;
#80 = LINE ( 'NONE', #129, #77 ) ;
#81 = FACE_OUTER_BOUND ( 'NONE', #141, .T. ) ;
#82 = LINE ( 'NONE', #178, #58 ) ;
#83 = DIRECTION ( 'NONE',  ( -1.224646799147353207E-16, -0.0000000000000000000, -1.000000000000000000 ) ) ;
#84 = ORIENTED_EDGE ( 'NONE', *, *, #25, .F. ) ;
#85 = LINE ( 'NONE', #12, #237 ) ;
#86 = EDGE_LOOP ( 'NONE', ( #158, #248 ) ) ;
#87 = CARTESIAN_POINT ( 'NONE',  ( 5.013852253564084895E-34, 0.0000000000000000000, 4.094121061725653542E-18 ) ) ;
#88 = ORIENTED_EDGE ( 'NONE', *, *, #242, .F. ) ;
#89 = CARTESIAN_POINT ( 'NONE',  ( -0.06374000000000018540, 0.0000000000000000000, 1.968503999999999809 ) ) ;
#90 = ORIENTED_EDGE ( 'NONE', *, *, #220, .T. ) ;
#91 = LINE ( 'NONE', #270, #29 ) ;
#92 = CARTESIAN_POINT ( 'NONE',  ( 0.0000000000000000000, 0.0000000000000000000, 0.0000000000000000000 ) ) ;
#93 = EDGE_LOOP ( 'NONE', ( #299, #180, #90, #257 ) ) ;
#94 = AXIS2_PLACEMENT_3D ( 'NONE', #92, #289, #182 ) ;
#95 = UNCERTAINTY_MEASURE_WITH_UNIT (LENGTH_MEASURE( 1.000000000000000082E-05 ), #172, 'distance_accuracy_value', 'NONE');
#96 = CARTESIAN_POINT ( 'NONE',  ( 2.458931568603996074E-17, 0.0000000000000000000, 0.2007869999999999933 ) ) ;
#97 = CONICAL_SURFACE ( 'NONE', #247, 0.06374000000000018540, 0.7853981633974528309 ) ;
#98 = DIRECTION ( 'NONE',  ( -0.0000000000000000000, -0.0000000000000000000, -1.000000000000000000 ) ) ;
#99 = EDGE_CURVE ( 'NONE', #49, #227, #259, .T. ) ;
#100 = CIRCLE ( 'NONE', #146, 0.03343103549999999757 ) ;
#101 = DIRECTION ( 'NONE',  ( -1.224646799147353207E-16, -0.0000000000000000000, -1.000000000000000000 ) ) ;
#102 = DIRECTION ( 'NONE',  ( -1.000000000000000000, 0.0000000000000000000, 0.0000000000000000000 ) ) ;
#103 =( LENGTH_UNIT ( ) NAMED_UNIT ( * ) SI_UNIT ( $, .METRE. ) );
#104 = AXIS2_PLACEMENT_3D ( 'NONE', #293, #267, #135 ) ;
#105 =( NAMED_UNIT ( * ) PLANE_ANGLE_UNIT ( ) SI_UNIT ( $, .RADIAN. ) );
#106 = EDGE_CURVE ( 'NONE', #183, #20, #215, .T. ) ;
#107 = ORIENTED_EDGE ( 'NONE', *, *, #78, .T. ) ;
#108 = LINE ( 'NONE', #89, #149 ) ;
#109 =( NAMED_UNIT ( * ) SI_UNIT ( $, .STERADIAN. ) SOLID_ANGLE_UNIT ( ) );
#110 = EDGE_LOOP ( 'NONE', ( #23, #112 ) ) ;
#111 = SURFACE_STYLE_FILL_AREA ( #17 ) ;
#112 = ORIENTED_EDGE ( 'NONE', *, *, #152, .T. ) ;
#113 = CARTESIAN_POINT ( 'NONE',  ( -0.03343103549999996982, 4.094121061725653542E-18, 0.2007869999999999933 ) ) ;
#114 = EDGE_CURVE ( 'NONE', #49, #15, #174, .T. ) ;
#115 = FACE_OUTER_BOUND ( 'NONE', #290, .T. ) ;
#116 = CYLINDRICAL_SURFACE ( 'NONE', #6, 0.03343103549999999757 ) ;
#117 = ORIENTED_EDGE ( 'NONE', *, *, #195, .T. ) ;
#118 = CARTESIAN_POINT ( 'NONE',  ( 0.0000000000000000000, 0.0000000000000000000, 0.0000000000000000000 ) ) ;
#119 = CARTESIAN_POINT ( 'NONE',  ( -0.07873999999999996280, 0.0000000000000000000, 0.4577469066345528637 ) ) ;
#120 = CIRCLE ( 'NONE', #73, 0.07874000000000001831 ) ;
#121 = CIRCLE ( 'NONE', #132, 0.07874000000000001831 ) ;
#122 = EDGE_CURVE ( 'NONE', #227, #49, #74, .T. ) ;
#123 =( GEOMETRIC_REPRESENTATION_CONTEXT ( 3 ) GLOBAL_UNCERTAINTY_ASSIGNED_CONTEXT ( ( #28 ) ) GLOBAL_UNIT_ASSIGNED_CONTEXT ( ( #272, #253, #109 ) ) REPRESENTATION_CONTEXT ( 'NONE', 'WORKASPACE' ) );
#124 = CONICAL_SURFACE ( 'NONE', #171, 0.06374000000000018540, 0.7853981633974528309 ) ;
#125 = LENGTH_MEASURE_WITH_UNIT ( LENGTH_MEASURE( 0.02539999999999999897 ), #103 );
#126 = DIRECTION ( 'NONE',  ( 1.000000000000000000, 0.0000000000000000000, -0.0000000000000000000 ) ) ;
#127 =( CONVERSION_BASED_UNIT ( 'INCH', #37 ) LENGTH_UNIT ( ) NAMED_UNIT ( #203 ) );
#128 = CYLINDRICAL_SURFACE ( 'NONE', #221, 0.07874000000000001831 ) ;
#129 = CARTESIAN_POINT ( 'NONE',  ( 0.03343103549999999757, 4.094121061725653542E-18, -4.094121061725653542E-18 ) ) ;
#130 = DIRECTION ( 'NONE',  ( 0.7071067811865507924, 8.659560562354973534E-17, -0.7071067811865443531 ) ) ;
#131 = ADVANCED_BREP_SHAPE_REPRESENTATION ( 'Micro_AMRM-017-2X', ( #30, #94 ), #123 ) ;
#132 = AXIS2_PLACEMENT_3D ( 'NONE', #252, #225, #298 ) ;
#133 = DIRECTION ( 'NONE',  ( -1.000000000000000000, 0.0000000000000000000, 0.0000000000000000000 ) ) ;
#134 = ORIENTED_EDGE ( 'NONE', *, *, #122, .F. ) ;
#135 = DIRECTION ( 'NONE',  ( -1.000000000000000000, 0.0000000000000000000, 1.224646799147353207E-16 ) ) ;
#136 = EDGE_LOOP ( 'NONE', ( #269, #162, #210, #84 ) ) ;
#137 = DIRECTION ( 'NONE',  ( -0.1736481776669312194, 2.126576849575783625E-17, 0.9848077530122080203 ) ) ;
#138 = ORIENTED_EDGE ( 'NONE', *, *, #220, .F. ) ;
#139 = FACE_OUTER_BOUND ( 'NONE', #271, .T. ) ;
#140 = AXIS2_PLACEMENT_3D ( 'NONE', #34, #45, #208 ) ;
#141 = EDGE_LOOP ( 'NONE', ( #189, #232, #205, #134 ) ) ;
#142 = DIRECTION ( 'NONE',  ( -1.224646799147353207E-16, -0.0000000000000000000, -1.000000000000000000 ) ) ;
#143 = PRODUCT ( 'Micro_AMRM-017-2X', 'Micro_AMRM-017-2X', '', ( #67 ) ) ;
#144 = DIRECTION ( 'NONE',  ( -0.0000000000000000000, -0.0000000000000000000, -1.000000000000000000 ) ) ;
#145 =( GEOMETRIC_REPRESENTATION_CONTEXT ( 3 ) GLOBAL_UNCERTAINTY_ASSIGNED_CONTEXT ( ( #212 ) ) GLOBAL_UNIT_ASSIGNED_CONTEXT ( ( #127, #105, #179 ) ) REPRESENTATION_CONTEXT ( 'NONE', 'WORKASPACE' ) );
#146 = AXIS2_PLACEMENT_3D ( 'NONE', #87, #206, #250 ) ;
#147 = PRESENTATION_LAYER_ASSIGNMENT (  '', '', ( #275 ) ) ;
#148 = DIRECTION ( 'NONE',  ( 1.000000000000000000, 0.0000000000000000000, 0.0000000000000000000 ) ) ;
#149 = VECTOR ( 'NONE', #50, 39.37007874015748143 ) ;
#150 = CARTESIAN_POINT ( 'NONE',  ( 5.605782840296075009E-17, 0.0000000000000000000, 0.4577469066345528637 ) ) ;
#151 = SURFACE_STYLE_USAGE ( .BOTH. , #160 ) ;
#152 = EDGE_CURVE ( 'NONE', #276, #294, #241, .T. ) ;
#153 = DIRECTION ( 'NONE',  ( -1.224646799147353207E-16, -0.0000000000000000000, -1.000000000000000000 ) ) ;
#154 = ADVANCED_FACE ( 'NONE', ( #139 ), #116, .T. ) ;
#155 =( GEOMETRIC_REPRESENTATION_CONTEXT ( 3 ) GLOBAL_UNCERTAINTY_ASSIGNED_CONTEXT ( ( #95 ) ) GLOBAL_UNIT_ASSIGNED_CONTEXT ( ( #172, #218, #53 ) ) REPRESENTATION_CONTEXT ( 'NONE', 'WORKASPACE' ) );
#156 = EDGE_LOOP ( 'NONE', ( #207, #251, #71, #292 ) ) ;
#157 = CARTESIAN_POINT ( 'NONE',  ( 0.07874000000000001831, 9.642868896486260050E-18, 1.968503999999999809 ) ) ;
#158 = ORIENTED_EDGE ( 'NONE', *, *, #22, .T. ) ;
#159 = CARTESIAN_POINT ( 'NONE',  ( 0.07874000000000001831, 9.642868896486260050E-18, 1.953504000000000129 ) ) ;
#160 = SURFACE_SIDE_STYLE ('',( #111 ) ) ;
#161 = APPLICATION_PROTOCOL_DEFINITION ( 'draft international standard', 'automotive_design', 1998, #40 ) ;
#162 = ORIENTED_EDGE ( 'NONE', *, *, #122, .T. ) ;
#163 = VERTEX_POINT ( 'NONE', #191 ) ;
#164 = AXIS2_PLACEMENT_3D ( 'NONE', #118, #181, #291 ) ;
#165 = PRODUCT_DEFINITION_SHAPE ( 'NONE', 'NONE',  #184 ) ;
#166 = DIRECTION ( 'NONE',  ( 0.0000000000000000000, 0.0000000000000000000, -1.000000000000000000 ) ) ;
#167 = ORIENTED_EDGE ( 'NONE', *, *, #265, .F. ) ;
#168 = CARTESIAN_POINT ( 'NONE',  ( 0.0000000000000000000, 0.0000000000000000000, 1.968503999999999809 ) ) ;
#169 = ADVANCED_FACE ( 'NONE', ( #202 ), #64, .T. ) ;
#170 = AXIS2_PLACEMENT_3D ( 'NONE', #96, #26, #192 ) ;
#171 = AXIS2_PLACEMENT_3D ( 'NONE', #39, #166, #133 ) ;
#172 =( CONVERSION_BASED_UNIT ( 'INCH', #125 ) LENGTH_UNIT ( ) NAMED_UNIT ( #13 ) );
#173 = FILL_AREA_STYLE ('',( #239 ) ) ;
#174 = LINE ( 'NONE', #56, #287 ) ;
#175 = EDGE_CURVE ( 'NONE', #183, #15, #42, .T. ) ;
#176 = DIRECTION ( 'NONE',  ( -1.000000000000000000, 0.0000000000000000000, 0.0000000000000000000 ) ) ;
#177 = AXIS2_PLACEMENT_3D ( 'NONE', #285, #153, #7 ) ;
#178 = CARTESIAN_POINT ( 'NONE',  ( 0.06374000000000018540, 7.805898697765251255E-18, 1.968503999999999809 ) ) ;
#179 =( NAMED_UNIT ( * ) SI_UNIT ( $, .STERADIAN. ) SOLID_ANGLE_UNIT ( ) );
#180 = ORIENTED_EDGE ( 'NONE', *, *, #54, .F. ) ;
#181 = DIRECTION ( 'NONE',  ( 0.0000000000000000000, 0.0000000000000000000, 1.000000000000000000 ) ) ;
#182 = DIRECTION ( 'NONE',  ( 1.000000000000000000, 0.0000000000000000000, 0.0000000000000000000 ) ) ;
#183 = VERTEX_POINT ( 'NONE', #277 ) ;
#184 = PRODUCT_DEFINITION ( 'UNKNOWN', '', #27, #278 ) ;
#185 = ORIENTED_EDGE ( 'NONE', *, *, #222, .T. ) ;
#186 = LENGTH_MEASURE_WITH_UNIT ( LENGTH_MEASURE( 0.02539999999999999897 ), #295 );
#187 = ORIENTED_EDGE ( 'NONE', *, *, #152, .F. ) ;
#188 = DIRECTION ( 'NONE',  ( -1.224646799147353207E-16, -0.0000000000000000000, -1.000000000000000000 ) ) ;
#189 = ORIENTED_EDGE ( 'NONE', *, *, #52, .F. ) ;
#190 = MECHANICAL_DESIGN_GEOMETRIC_PRESENTATION_REPRESENTATION (  '', ( #275 ), #155 ) ;
#191 = CARTESIAN_POINT ( 'NONE',  ( 0.07874000000000007382, 9.642868896486266213E-18, 0.4577469066345528637 ) ) ;
#192 = DIRECTION ( 'NONE',  ( 1.000000000000000000, 0.0000000000000000000, 0.0000000000000000000 ) ) ;
#193 = PRESENTATION_LAYER_ASSIGNMENT (  '', '', ( #282 ) ) ;
#194 = CARTESIAN_POINT ( 'NONE',  ( 0.0000000000000000000, 0.0000000000000000000, 1.953504000000000129 ) ) ;
#195 = EDGE_CURVE ( 'NONE', #15, #163, #121, .T. ) ;
#196 = AXIS2_PLACEMENT_3D ( 'NONE', #213, #5, #55 ) ;
#197 = CARTESIAN_POINT ( 'NONE',  ( 0.0000000000000000000, 0.0000000000000000000, 1.968503999999999809 ) ) ;
#198 = VERTEX_POINT ( 'NONE', #228 ) ;
#199 = DIRECTION ( 'NONE',  ( 0.1736481776669314137, 0.0000000000000000000, 0.9848077530122077983 ) ) ;
#200 = EDGE_LOOP ( 'NONE', ( #230, #185, #44, #11 ) ) ;
#201 = ADVANCED_FACE ( 'NONE', ( #233 ), #254, .T. ) ;
#202 = FACE_OUTER_BOUND ( 'NONE', #18, .T. ) ;
#203 = DIMENSIONAL_EXPONENTS ( 1.000000000000000000, 0.0000000000000000000, 0.0000000000000000000, 0.0000000000000000000, 0.0000000000000000000, 0.0000000000000000000, 0.0000000000000000000 ) ;
#204 = AXIS2_PLACEMENT_3D ( 'NONE', #262, #244, #9 ) ;
#205 = ORIENTED_EDGE ( 'NONE', *, *, #209, .T. ) ;
#206 = DIRECTION ( 'NONE',  ( -1.224646799147353207E-16, -0.0000000000000000000, -1.000000000000000000 ) ) ;
#207 = ORIENTED_EDGE ( 'NONE', *, *, #43, .F. ) ;
#208 = DIRECTION ( 'NONE',  ( 1.000000000000000000, 0.0000000000000000000, 0.0000000000000000000 ) ) ;
#209 = EDGE_CURVE ( 'NONE', #62, #49, #108, .T. ) ;
#210 = ORIENTED_EDGE ( 'NONE', *, *, #114, .T. ) ;
#211 = DIRECTION ( 'NONE',  ( -1.000000000000000000, 0.0000000000000000000, 1.224646799147353207E-16 ) ) ;
#212 = UNCERTAINTY_MEASURE_WITH_UNIT (LENGTH_MEASURE( 1.000000000000000082E-05 ), #127, 'distance_accuracy_value', 'NONE');
#213 = CARTESIAN_POINT ( 'NONE',  ( 0.0000000000000000000, 0.0000000000000000000, 1.968503999999999809 ) ) ;
#214 = CLOSED_SHELL ( 'NONE', ( #169, #1, #216, #32, #4, #66, #35, #201, #154, #238 ) ) ;
#215 = CIRCLE ( 'NONE', #177, 0.03343103549999999757 ) ;
#216 = ADVANCED_FACE ( 'NONE', ( #47 ), #124, .T. ) ;
#217 = DIRECTION ( 'NONE',  ( 0.0000000000000000000, 0.0000000000000000000, -1.000000000000000000 ) ) ;
#218 =( NAMED_UNIT ( * ) PLANE_ANGLE_UNIT ( ) SI_UNIT ( $, .RADIAN. ) );
#219 = CARTESIAN_POINT ( 'NONE',  ( -0.07874000000000001831, 0.0000000000000000000, 1.953504000000000129 ) ) ;
#220 = EDGE_CURVE ( 'NONE', #20, #163, #85, .T. ) ;
#221 = AXIS2_PLACEMENT_3D ( 'NONE', #197, #284, #102 ) ;
#222 = EDGE_CURVE ( 'NONE', #227, #163, #231, .T. ) ;
#223 = DIRECTION ( 'NONE',  ( 1.000000000000000000, 0.0000000000000000000, 0.0000000000000000000 ) ) ;
#224 = SURFACE_STYLE_FILL_AREA ( #173 ) ;
#225 = DIRECTION ( 'NONE',  ( -1.224646799147353207E-16, -0.0000000000000000000, -1.000000000000000000 ) ) ;
#226 = DIMENSIONAL_EXPONENTS ( 1.000000000000000000, 0.0000000000000000000, 0.0000000000000000000, 0.0000000000000000000, 0.0000000000000000000, 0.0000000000000000000, 0.0000000000000000000 ) ;
#227 = VERTEX_POINT ( 'NONE', #159 ) ;
#228 = CARTESIAN_POINT ( 'NONE',  ( 0.06374000000000018540, 8.724383797125754882E-18, 1.968503999999999809 ) ) ;
#229 = CIRCLE ( 'NONE', #204, 0.03343103549999999757 ) ;
#230 = ORIENTED_EDGE ( 'NONE', *, *, #99, .T. ) ;
#231 = LINE ( 'NONE', #157, #48 ) ;
#232 = ORIENTED_EDGE ( 'NONE', *, *, #22, .F. ) ;
#233 = FACE_OUTER_BOUND ( 'NONE', #93, .T. ) ;
#234 = CARTESIAN_POINT ( 'NONE',  ( 0.03343103550000002533, 0.0000000000000000000, 0.2007869999999999933 ) ) ;
#235 = AXIS2_PLACEMENT_3D ( 'NONE', #60, #31, #223 ) ;
#236 = COLOUR_RGB ( '',0.7921568627450980005, 0.8196078431372548767, 0.9333333333333333481 ) ;
#237 = VECTOR ( 'NONE', #199, 39.37007874015748143 ) ;
#238 = ADVANCED_FACE ( 'NONE', ( #16 ), #24, .F. ) ;
#239 = FILL_AREA_STYLE_COLOUR ( '', #236 ) ;
#240 = DIRECTION ( 'NONE',  ( 1.000000000000000000, 0.0000000000000000000, 0.0000000000000000000 ) ) ;
#241 = CIRCLE ( 'NONE', #263, 0.03343103549999999757 ) ;
#242 = EDGE_CURVE ( 'NONE', #294, #276, #100, .T. ) ;
#243 = FACE_OUTER_BOUND ( 'NONE', #86, .T. ) ;
#244 = DIRECTION ( 'NONE',  ( -1.224646799147353207E-16, -0.0000000000000000000, -1.000000000000000000 ) ) ;
#245 = DIRECTION ( 'NONE',  ( 1.000000000000000000, 0.0000000000000000000, 0.0000000000000000000 ) ) ;
#246 = CIRCLE ( 'NONE', #196, 0.06374000000000018540 ) ;
#247 = AXIS2_PLACEMENT_3D ( 'NONE', #61, #286, #176 ) ;
#248 = ORIENTED_EDGE ( 'NONE', *, *, #43, .T. ) ;
#249 = CARTESIAN_POINT ( 'NONE',  ( -0.03343103549999999757, 0.0000000000000000000, 8.188242123451307083E-18 ) ) ;
#250 = DIRECTION ( 'NONE',  ( -1.000000000000000000, 0.0000000000000000000, 1.224646799147353207E-16 ) ) ;
#251 = ORIENTED_EDGE ( 'NONE', *, *, #52, .T. ) ;
#252 = CARTESIAN_POINT ( 'NONE',  ( 5.605782840296075009E-17, 0.0000000000000000000, 0.4577469066345528637 ) ) ;
#253 =( NAMED_UNIT ( * ) PLANE_ANGLE_UNIT ( ) SI_UNIT ( $, .RADIAN. ) );
#254 = CONICAL_SURFACE ( 'NONE', #3, 0.03343103549999999757, 0.1745329251994339192 ) ;
#255 = ORIENTED_EDGE ( 'NONE', *, *, #106, .T. ) ;
#256 = DIRECTION ( 'NONE',  ( -1.000000000000000000, 0.0000000000000000000, 1.224646799147353207E-16 ) ) ;
#257 = ORIENTED_EDGE ( 'NONE', *, *, #25, .T. ) ;
#258 = APPLICATION_CONTEXT ( 'automotive_design' ) ;
#259 = CIRCLE ( 'NONE', #10, 0.07874000000000001831 ) ;
#260 = CARTESIAN_POINT ( 'NONE',  ( 0.0000000000000000000, 0.0000000000000000000, 1.968503999999999809 ) ) ;
#261 = SURFACE_SIDE_STYLE ('',( #224 ) ) ;
#262 = CARTESIAN_POINT ( 'NONE',  ( 2.458931568603996074E-17, 0.0000000000000000000, 0.2007869999999999933 ) ) ;
#263 = AXIS2_PLACEMENT_3D ( 'NONE', #21, #142, #211 ) ;
#264 =( LENGTH_UNIT ( ) NAMED_UNIT ( * ) SI_UNIT ( $, .METRE. ) );
#265 = EDGE_CURVE ( 'NONE', #183, #294, #91, .T. ) ;
#266 = PLANE ( 'NONE',  #283 ) ;
#267 = DIRECTION ( 'NONE',  ( -1.224646799147353207E-16, -0.0000000000000000000, -1.000000000000000000 ) ) ;
#268 = CIRCLE ( 'NONE', #235, 0.06374000000000018540 ) ;
#269 = ORIENTED_EDGE ( 'NONE', *, *, #222, .F. ) ;
#270 = CARTESIAN_POINT ( 'NONE',  ( -0.03343103549999999757, 0.0000000000000000000, 4.094121061725653542E-18 ) ) ;
#271 = EDGE_LOOP ( 'NONE', ( #297, #68, #46, #187 ) ) ;
#272 =( CONVERSION_BASED_UNIT ( 'INCH', #186 ) LENGTH_UNIT ( ) NAMED_UNIT ( #226 ) );
#273 = ORIENTED_EDGE ( 'NONE', *, *, #106, .F. ) ;
#274 = CARTESIAN_POINT ( 'NONE',  ( 0.0000000000000000000, 0.0000000000000000000, 0.0000000000000000000 ) ) ;
#275 = STYLED_ITEM ( 'NONE', ( #281 ), #131 ) ;
#276 = VERTEX_POINT ( 'NONE', #2 ) ;
#277 = CARTESIAN_POINT ( 'NONE',  ( -0.03343103549999996982, 6.868494979105956796E-18, 0.2007869999999999933 ) ) ;
#278 = PRODUCT_DEFINITION_CONTEXT ( 'detailed design', #258, 'design' ) ;
#279 = FACE_OUTER_BOUND ( 'NONE', #136, .T. ) ;
#280 = VECTOR ( 'NONE', #137, 39.37007874015747433 ) ;
#281 = PRESENTATION_STYLE_ASSIGNMENT (( #151 ) ) ;
#282 = STYLED_ITEM ( 'NONE', ( #36 ), #30 ) ;
#283 = AXIS2_PLACEMENT_3D ( 'NONE', #260, #59, #126 ) ;
#284 = DIRECTION ( 'NONE',  ( -0.0000000000000000000, -0.0000000000000000000, -1.000000000000000000 ) ) ;
#285 = CARTESIAN_POINT ( 'NONE',  ( 2.458931568603996074E-17, 0.0000000000000000000, 0.2007869999999999933 ) ) ;
#286 = DIRECTION ( 'NONE',  ( 0.0000000000000000000, 0.0000000000000000000, -1.000000000000000000 ) ) ;
#287 = VECTOR ( 'NONE', #98, 39.37007874015748143 ) ;
#288 = CARTESIAN_POINT ( 'NONE',  ( -0.06374000000000018540, 0.0000000000000000000, 1.968503999999999809 ) ) ;
#289 = DIRECTION ( 'NONE',  ( 0.0000000000000000000, 0.0000000000000000000, 1.000000000000000000 ) ) ;
#290 = EDGE_LOOP ( 'NONE', ( #273, #41, #117, #138 ) ) ;
#291 = DIRECTION ( 'NONE',  ( 1.000000000000000000, 0.0000000000000000000, -0.0000000000000000000 ) ) ;
#292 = ORIENTED_EDGE ( 'NONE', *, *, #209, .F. ) ;
#293 = CARTESIAN_POINT ( 'NONE',  ( 0.0000000000000000000, 0.0000000000000000000, 0.0000000000000000000 ) ) ;
#294 = VERTEX_POINT ( 'NONE', #249 ) ;
#295 =( LENGTH_UNIT ( ) NAMED_UNIT ( * ) SI_UNIT ( $, .METRE. ) );
#296 = SHAPE_DEFINITION_REPRESENTATION ( #165, #131 ) ;
#297 = ORIENTED_EDGE ( 'NONE', *, *, #78, .F. ) ;
#298 = DIRECTION ( 'NONE',  ( 1.000000000000000000, 0.0000000000000000000, 0.0000000000000000000 ) ) ;
#299 = ORIENTED_EDGE ( 'NONE', *, *, #175, .F. ) ;
ENDSEC;
END-ISO-10303-21;
