ISO-10303-21;
HEADER;
FILE_DESCRIPTION (( 'STEP AP214' ),
    '1' );
FILE_NAME ('Micro_EMS-500-2.STEP',
    '2021-09-01T17:58:55',
    ( '' ),
    ( '' ),
    'SwSTEP 2.0',
    'SolidWorks 2020',
    '' );
FILE_SCHEMA (( 'AUTOMOTIVE_DESIGN' ));
ENDSEC;

DATA;
#1 = EDGE_LOOP ( 'NONE', ( #161, #80 ) ) ;
#2 = CARTESIAN_POINT ( 'NONE',  ( -0.2499999999999998612, 0.0000000000000000000, 1.001417820454904462 ) ) ;
#3 = PRESENTATION_STYLE_ASSIGNMENT (( #256 ) ) ;
#4 = CLOSED_SHELL ( 'NONE', ( #16, #62, #78, #88, #74, #272, #120, #171, #97, #297 ) ) ;
#5 = DIRECTION ( 'NONE',  ( -1.224646799147353454E-16, -0.0000000000000000000, -1.000000000000000000 ) ) ;
#6 =( NAMED_UNIT ( * ) SI_UNIT ( $, .STERADIAN. ) SOLID_ANGLE_UNIT ( ) );
#7 = EDGE_CURVE ( 'NONE', #278, #60, #205, .T. ) ;
#8 = MECHANICAL_DESIGN_GEOMETRIC_PRESENTATION_REPRESENTATION (  '', ( #136 ), #53 ) ;
#9 = ORIENTED_EDGE ( 'NONE', *, *, #164, .F. ) ;
#10 = VERTEX_POINT ( 'NONE', #73 ) ;
#11 =( LENGTH_UNIT ( ) NAMED_UNIT ( * ) SI_UNIT ( $, .METRE. ) );
#12 = DIRECTION ( 'NONE',  ( 0.0000000000000000000, 0.0000000000000000000, 1.000000000000000000 ) ) ;
#13 = AXIS2_PLACEMENT_3D ( 'NONE', #293, #87, #177 ) ;
#14 = LINE ( 'NONE', #167, #220 ) ;
#15 = FACE_OUTER_BOUND ( 'NONE', #241, .T. ) ;
#16 = ADVANCED_FACE ( 'NONE', ( #154 ), #174, .T. ) ;
#17 =( NAMED_UNIT ( * ) SI_UNIT ( $, .STERADIAN. ) SOLID_ANGLE_UNIT ( ) );
#18 = DIRECTION ( 'NONE',  ( 0.0000000000000000000, 0.0000000000000000000, -1.000000000000000000 ) ) ;
#19 = LINE ( 'NONE', #63, #231 ) ;
#20 = UNCERTAINTY_MEASURE_WITH_UNIT (LENGTH_MEASURE( 1.000000000000000082E-05 ), #234, 'distance_accuracy_value', 'NONE');
#21 = CARTESIAN_POINT ( 'NONE',  ( 0.0000000000000000000, 0.0000000000000000000, 2.985000000000001208 ) ) ;
#22 = AXIS2_PLACEMENT_3D ( 'NONE', #274, #68, #69 ) ;
#23 = MECHANICAL_DESIGN_GEOMETRIC_PRESENTATION_REPRESENTATION (  '', ( #202 ), #132 ) ;
#24 = FACE_OUTER_BOUND ( 'NONE', #207, .T. ) ;
#25 = CARTESIAN_POINT ( 'NONE',  ( 0.0000000000000000000, 0.0000000000000000000, 3.000000000000000444 ) ) ;
#26 = FILL_AREA_STYLE_COLOUR ( '', #27 ) ;
#27 = COLOUR_RGB ( '',0.7921568627450980005, 0.8196078431372548767, 0.9333333333333333481 ) ;
#28 = CARTESIAN_POINT ( 'NONE',  ( 1.224646799147353454E-16, 0.0000000000000000000, 1.000000000000000000 ) ) ;
#29 = CARTESIAN_POINT ( 'NONE',  ( -0.2497499999999998888, 3.058555380870514950E-17, 1.000000000000000000 ) ) ;
#30 = CARTESIAN_POINT ( 'NONE',  ( 1.224646799147353454E-16, 0.0000000000000000000, 1.000000000000000000 ) ) ;
#31 = EDGE_CURVE ( 'NONE', #162, #145, #273, .T. ) ;
#32 = AXIS2_PLACEMENT_3D ( 'NONE', #156, #134, #102 ) ;
#33 = DIRECTION ( 'NONE',  ( 1.000000000000000000, 0.0000000000000000000, 0.0000000000000000000 ) ) ;
#34 = ORIENTED_EDGE ( 'NONE', *, *, #70, .F. ) ;
#35 = DIMENSIONAL_EXPONENTS ( 1.000000000000000000, 0.0000000000000000000, 0.0000000000000000000, 0.0000000000000000000, 0.0000000000000000000, 0.0000000000000000000, 0.0000000000000000000 ) ;
#36 = CIRCLE ( 'NONE', #281, 0.2350000000000011524 ) ;
#37 = ORIENTED_EDGE ( 'NONE', *, *, #142, .F. ) ;
#38 =( CONVERSION_BASED_UNIT ( 'INCH', #267 ) LENGTH_UNIT ( ) NAMED_UNIT ( #35 ) );
#39 = ORIENTED_EDGE ( 'NONE', *, *, #284, .T. ) ;
#40 = DIRECTION ( 'NONE',  ( 1.000000000000000000, 0.0000000000000000000, 0.0000000000000000000 ) ) ;
#41 = ORIENTED_EDGE ( 'NONE', *, *, #7, .F. ) ;
#42 = CONICAL_SURFACE ( 'NONE', #188, 0.2497499999999999998, 0.1745329251994339192 ) ;
#43 = EDGE_LOOP ( 'NONE', ( #111, #204, #239, #9 ) ) ;
#44 = DIRECTION ( 'NONE',  ( -1.224646799147353454E-16, -0.0000000000000000000, -1.000000000000000000 ) ) ;
#45 = CARTESIAN_POINT ( 'NONE',  ( -0.2497499999999998888, 3.060086189369449292E-17, 1.000000000000000000 ) ) ;
#46 = VECTOR ( 'NONE', #125, 39.37007874015748143 ) ;
#47 = CARTESIAN_POINT ( 'NONE',  ( 0.2497499999999999998, 3.058555380870514950E-17, -3.058555380870515566E-17 ) ) ;
#48 = DIRECTION ( 'NONE',  ( -0.7071067811865402453, 0.0000000000000000000, -0.7071067811865546782 ) ) ;
#49 = ORIENTED_EDGE ( 'NONE', *, *, #179, .F. ) ;
#50 = DIRECTION ( 'NONE',  ( 1.000000000000000000, 0.0000000000000000000, 0.0000000000000000000 ) ) ;
#51 = EDGE_CURVE ( 'NONE', #10, #145, #103, .T. ) ;
#52 = VECTOR ( 'NONE', #56, 39.37007874015747433 ) ;
#53 =( GEOMETRIC_REPRESENTATION_CONTEXT ( 3 ) GLOBAL_UNCERTAINTY_ASSIGNED_CONTEXT ( ( #203 ) ) GLOBAL_UNIT_ASSIGNED_CONTEXT ( ( #38, #172, #126 ) ) REPRESENTATION_CONTEXT ( 'NONE', 'WORKASPACE' ) );
#54 = SURFACE_STYLE_FILL_AREA ( #135 ) ;
#55 = DIRECTION ( 'NONE',  ( 0.7071067811865402453, 8.659560562354845344E-17, -0.7071067811865546782 ) ) ;
#56 = DIRECTION ( 'NONE',  ( -0.1736481776669312194, 2.126576849575783625E-17, 0.9848077530122080203 ) ) ;
#57 = AXIS2_PLACEMENT_3D ( 'NONE', #232, #76, #288 ) ;
#58 = ORIENTED_EDGE ( 'NONE', *, *, #254, .F. ) ;
#59 =( LENGTH_UNIT ( ) NAMED_UNIT ( * ) SI_UNIT ( $, .METRE. ) );
#60 = VERTEX_POINT ( 'NONE', #222 ) ;
#61 = ORIENTED_EDGE ( 'NONE', *, *, #70, .T. ) ;
#62 = ADVANCED_FACE ( 'NONE', ( #66 ), #42, .T. ) ;
#63 = CARTESIAN_POINT ( 'NONE',  ( -0.2500000000000000000, 0.0000000000000000000, 3.000000000000000444 ) ) ;
#64 = ORIENTED_EDGE ( 'NONE', *, *, #249, .T. ) ;
#65 = AXIS2_PLACEMENT_3D ( 'NONE', #95, #5, #96 ) ;
#66 = FACE_OUTER_BOUND ( 'NONE', #141, .T. ) ;
#67 = DIRECTION ( 'NONE',  ( 1.000000000000000000, 0.0000000000000000000, -0.0000000000000000000 ) ) ;
#68 = DIRECTION ( 'NONE',  ( 0.0000000000000000000, 0.0000000000000000000, -1.000000000000000000 ) ) ;
#69 = DIRECTION ( 'NONE',  ( 1.000000000000000000, 0.0000000000000000000, 0.0000000000000000000 ) ) ;
#70 = EDGE_CURVE ( 'NONE', #145, #10, #147, .T. ) ;
#71 = DIRECTION ( 'NONE',  ( 0.0000000000000000000, 0.0000000000000000000, -1.000000000000000000 ) ) ;
#72 = CONICAL_SURFACE ( 'NONE', #191, 0.2497499999999999998, 0.1745329251994339192 ) ;
#73 = CARTESIAN_POINT ( 'NONE',  ( 0.2500000000000000000, 3.061616997868382402E-17, 2.985000000000001208 ) ) ;
#74 = ADVANCED_FACE ( 'NONE', ( #24 ), #184, .T. ) ;
#75 = CARTESIAN_POINT ( 'NONE',  ( 0.2350000000000011524, 2.969768487932338510E-17, 3.000000000000000444 ) ) ;
#76 = DIRECTION ( 'NONE',  ( -1.224646799147353454E-16, -0.0000000000000000000, -1.000000000000000000 ) ) ;
#77 = CARTESIAN_POINT ( 'NONE',  ( 0.2497500000000001386, 0.0000000000000000000, 1.000000000000000000 ) ) ;
#78 = ADVANCED_FACE ( 'NONE', ( #15 ), #285, .T. ) ;
#79 = AXIS2_PLACEMENT_3D ( 'NONE', #275, #292, #110 ) ;
#80 = ORIENTED_EDGE ( 'NONE', *, *, #218, .T. ) ;
#81 = ORIENTED_EDGE ( 'NONE', *, *, #94, .T. ) ;
#82 = DIRECTION ( 'NONE',  ( -1.224646799147353454E-16, -0.0000000000000000000, -1.000000000000000000 ) ) ;
#83 = SURFACE_STYLE_USAGE ( .BOTH. , #196 ) ;
#84 = ORIENTED_EDGE ( 'NONE', *, *, #284, .F. ) ;
#85 = ADVANCED_BREP_SHAPE_REPRESENTATION ( 'Micro_EMS-500-2', ( #270, #160 ), #143 ) ;
#86 = CIRCLE ( 'NONE', #158, 0.2500000000000000000 ) ;
#87 = DIRECTION ( 'NONE',  ( -1.224646799147353454E-16, -0.0000000000000000000, -1.000000000000000000 ) ) ;
#88 = ADVANCED_FACE ( 'NONE', ( #150 ), #155, .T. ) ;
#89 = UNCERTAINTY_MEASURE_WITH_UNIT (LENGTH_MEASURE( 1.000000000000000082E-05 ), #175, 'distance_accuracy_value', 'NONE');
#90 = ORIENTED_EDGE ( 'NONE', *, *, #254, .T. ) ;
#91 = CARTESIAN_POINT ( 'NONE',  ( 0.0000000000000000000, 0.0000000000000000000, 0.0000000000000000000 ) ) ;
#92 = FACE_OUTER_BOUND ( 'NONE', #219, .T. ) ;
#93 = ORIENTED_EDGE ( 'NONE', *, *, #31, .F. ) ;
#94 = EDGE_CURVE ( 'NONE', #190, #295, #246, .T. ) ;
#95 = CARTESIAN_POINT ( 'NONE',  ( 3.745650057197990990E-33, 0.0000000000000000000, 3.058555380870515566E-17 ) ) ;
#96 = DIRECTION ( 'NONE',  ( -1.000000000000000000, 0.0000000000000000000, 1.224646799147353700E-16 ) ) ;
#97 = ADVANCED_FACE ( 'NONE', ( #152 ), #107, .T. ) ;
#98 = CARTESIAN_POINT ( 'NONE',  ( 0.2350000000000011524, 2.877919977996294002E-17, 3.000000000000000444 ) ) ;
#99 = DIRECTION ( 'NONE',  ( -1.224646799147353454E-16, -0.0000000000000000000, -1.000000000000000000 ) ) ;
#100 = CIRCLE ( 'NONE', #236, 0.2350000000000011524 ) ;
#101 = EDGE_LOOP ( 'NONE', ( #61, #119, #237, #84 ) ) ;
#102 = DIRECTION ( 'NONE',  ( -1.000000000000000000, 0.0000000000000000000, 0.0000000000000000000 ) ) ;
#103 = CIRCLE ( 'NONE', #176, 0.2500000000000000000 ) ;
#104 = APPLICATION_CONTEXT ( 'automotive_design' ) ;
#105 = CARTESIAN_POINT ( 'NONE',  ( 0.2497499999999999998, 3.058555380870514950E-17, 0.0000000000000000000 ) ) ;
#106 = ORIENTED_EDGE ( 'NONE', *, *, #179, .T. ) ;
#107 = CYLINDRICAL_SURFACE ( 'NONE', #13, 0.2497499999999999998 ) ;
#108 = CARTESIAN_POINT ( 'NONE',  ( 0.0000000000000000000, 0.0000000000000000000, 0.0000000000000000000 ) ) ;
#109 = CARTESIAN_POINT ( 'NONE',  ( 0.2500000000000000000, 3.061616997868382402E-17, 3.000000000000000444 ) ) ;
#110 = DIRECTION ( 'NONE',  ( -1.000000000000000000, 0.0000000000000000000, 0.0000000000000000000 ) ) ;
#111 = ORIENTED_EDGE ( 'NONE', *, *, #94, .F. ) ;
#112 = DIRECTION ( 'NONE',  ( 1.000000000000000000, 0.0000000000000000000, 0.0000000000000000000 ) ) ;
#113 = FACE_OUTER_BOUND ( 'NONE', #262, .T. ) ;
#114 = EDGE_CURVE ( 'NONE', #10, #268, #129, .T. ) ;
#115 = CIRCLE ( 'NONE', #32, 0.2497499999999999998 ) ;
#116 = PLANE ( 'NONE',  #258 ) ;
#117 = PRODUCT_RELATED_PRODUCT_CATEGORY ( 'part', '', ( #298 ) ) ;
#118 = ORIENTED_EDGE ( 'NONE', *, *, #164, .T. ) ;
#119 = ORIENTED_EDGE ( 'NONE', *, *, #114, .T. ) ;
#120 = ADVANCED_FACE ( 'NONE', ( #92 ), #201, .T. ) ;
#121 = LENGTH_MEASURE_WITH_UNIT ( LENGTH_MEASURE( 0.02539999999999999897 ), #11 );
#122 = ORIENTED_EDGE ( 'NONE', *, *, #265, .T. ) ;
#123 = EDGE_LOOP ( 'NONE', ( #122, #81, #49, #41 ) ) ;
#124 = AXIS2_PLACEMENT_3D ( 'NONE', #30, #99, #282 ) ;
#125 = DIRECTION ( 'NONE',  ( -1.224646799147353454E-16, -0.0000000000000000000, -1.000000000000000000 ) ) ;
#126 =( NAMED_UNIT ( * ) SI_UNIT ( $, .STERADIAN. ) SOLID_ANGLE_UNIT ( ) );
#127 = ORIENTED_EDGE ( 'NONE', *, *, #276, .F. ) ;
#128 = APPLICATION_PROTOCOL_DEFINITION ( 'draft international standard', 'automotive_design', 1998, #130 ) ;
#129 = LINE ( 'NONE', #109, #212 ) ;
#130 = APPLICATION_CONTEXT ( 'automotive_design' ) ;
#131 = DIRECTION ( 'NONE',  ( 1.000000000000000000, 0.0000000000000000000, 0.0000000000000000000 ) ) ;
#132 =( GEOMETRIC_REPRESENTATION_CONTEXT ( 3 ) GLOBAL_UNCERTAINTY_ASSIGNED_CONTEXT ( ( #20 ) ) GLOBAL_UNIT_ASSIGNED_CONTEXT ( ( #234, #213, #6 ) ) REPRESENTATION_CONTEXT ( 'NONE', 'WORKASPACE' ) );
#133 = CARTESIAN_POINT ( 'NONE',  ( 0.0000000000000000000, 0.0000000000000000000, 0.0000000000000000000 ) ) ;
#134 = DIRECTION ( 'NONE',  ( -1.224646799147353454E-16, -0.0000000000000000000, -1.000000000000000000 ) ) ;
#135 = FILL_AREA_STYLE ('',( #26 ) ) ;
#136 = STYLED_ITEM ( 'NONE', ( #263 ), #85 ) ;
#137 =( LENGTH_UNIT ( ) NAMED_UNIT ( * ) SI_UNIT ( $, .METRE. ) );
#138 = CARTESIAN_POINT ( 'NONE',  ( 0.0000000000000000000, 0.0000000000000000000, 3.000000000000000444 ) ) ;
#139 = AXIS2_PLACEMENT_3D ( 'NONE', #25, #71, #199 ) ;
#140 = AXIS2_PLACEMENT_3D ( 'NONE', #108, #240, #67 ) ;
#141 = EDGE_LOOP ( 'NONE', ( #168, #214, #64, #287 ) ) ;
#142 = EDGE_CURVE ( 'NONE', #190, #278, #195, .T. ) ;
#143 =( GEOMETRIC_REPRESENTATION_CONTEXT ( 3 ) GLOBAL_UNCERTAINTY_ASSIGNED_CONTEXT ( ( #89 ) ) GLOBAL_UNIT_ASSIGNED_CONTEXT ( ( #175, #169, #17 ) ) REPRESENTATION_CONTEXT ( 'NONE', 'WORKASPACE' ) );
#144 = ORIENTED_EDGE ( 'NONE', *, *, #225, .F. ) ;
#145 = VERTEX_POINT ( 'NONE', #208 ) ;
#146 = DIRECTION ( 'NONE',  ( 1.000000000000000000, 0.0000000000000000000, -0.0000000000000000000 ) ) ;
#147 = CIRCLE ( 'NONE', #22, 0.2500000000000000000 ) ;
#148 = DIRECTION ( 'NONE',  ( -0.0000000000000000000, -0.0000000000000000000, -1.000000000000000000 ) ) ;
#149 = FILL_AREA_STYLE ('',( #271 ) ) ;
#150 = FACE_OUTER_BOUND ( 'NONE', #101, .T. ) ;
#151 = DIMENSIONAL_EXPONENTS ( 1.000000000000000000, 0.0000000000000000000, 0.0000000000000000000, 0.0000000000000000000, 0.0000000000000000000, 0.0000000000000000000, 0.0000000000000000000 ) ;
#152 = FACE_OUTER_BOUND ( 'NONE', #43, .T. ) ;
#153 = AXIS2_PLACEMENT_3D ( 'NONE', #186, #187, #260 ) ;
#154 = FACE_OUTER_BOUND ( 'NONE', #123, .T. ) ;
#155 = CYLINDRICAL_SURFACE ( 'NONE', #226, 0.2500000000000000000 ) ;
#156 = CARTESIAN_POINT ( 'NONE',  ( 1.224646799147353454E-16, 0.0000000000000000000, 1.000000000000000000 ) ) ;
#157 = DIRECTION ( 'NONE',  ( 1.000000000000000000, 0.0000000000000000000, 0.0000000000000000000 ) ) ;
#158 = AXIS2_PLACEMENT_3D ( 'NONE', #193, #255, #50 ) ;
#159 = LENGTH_MEASURE_WITH_UNIT ( LENGTH_MEASURE( 0.02539999999999999897 ), #137 );
#160 = AXIS2_PLACEMENT_3D ( 'NONE', #91, #180, #182 ) ;
#161 = ORIENTED_EDGE ( 'NONE', *, *, #276, .T. ) ;
#162 = VERTEX_POINT ( 'NONE', #185 ) ;
#163 = PLANE ( 'NONE',  #140 ) ;
#164 = EDGE_CURVE ( 'NONE', #295, #60, #264, .T. ) ;
#165 = VERTEX_POINT ( 'NONE', #2 ) ;
#166 = VECTOR ( 'NONE', #55, 39.37007874015748854 ) ;
#167 = CARTESIAN_POINT ( 'NONE',  ( 0.2497500000000001386, 0.0000000000000000000, 1.000000000000000000 ) ) ;
#168 = ORIENTED_EDGE ( 'NONE', *, *, #265, .F. ) ;
#169 =( NAMED_UNIT ( * ) PLANE_ANGLE_UNIT ( ) SI_UNIT ( $, .RADIAN. ) );
#170 = ORIENTED_EDGE ( 'NONE', *, *, #51, .T. ) ;
#171 = ADVANCED_FACE ( 'NONE', ( #113 ), #72, .T. ) ;
#172 =( NAMED_UNIT ( * ) PLANE_ANGLE_UNIT ( ) SI_UNIT ( $, .RADIAN. ) );
#173 = PRODUCT_DEFINITION_CONTEXT ( 'detailed design', #104, 'design' ) ;
#174 = CYLINDRICAL_SURFACE ( 'NONE', #290, 0.2497499999999999998 ) ;
#175 =( CONVERSION_BASED_UNIT ( 'INCH', #121 ) LENGTH_UNIT ( ) NAMED_UNIT ( #151 ) );
#176 = AXIS2_PLACEMENT_3D ( 'NONE', #21, #18, #178 ) ;
#177 = DIRECTION ( 'NONE',  ( -1.000000000000000000, 0.0000000000000000000, 1.224646799147353700E-16 ) ) ;
#178 = DIRECTION ( 'NONE',  ( 1.000000000000000000, 0.0000000000000000000, 0.0000000000000000000 ) ) ;
#179 = EDGE_CURVE ( 'NONE', #60, #295, #244, .T. ) ;
#180 = DIRECTION ( 'NONE',  ( 0.0000000000000000000, 0.0000000000000000000, 1.000000000000000000 ) ) ;
#181 = ORIENTED_EDGE ( 'NONE', *, *, #51, .F. ) ;
#182 = DIRECTION ( 'NONE',  ( 1.000000000000000000, 0.0000000000000000000, 0.0000000000000000000 ) ) ;
#183 = VECTOR ( 'NONE', #48, 39.37007874015748854 ) ;
#184 = CYLINDRICAL_SURFACE ( 'NONE', #79, 0.2500000000000000000 ) ;
#185 = CARTESIAN_POINT ( 'NONE',  ( -0.2350000000000011524, 0.0000000000000000000, 3.000000000000000444 ) ) ;
#186 = CARTESIAN_POINT ( 'NONE',  ( 0.0000000000000000000, 0.0000000000000000000, 3.000000000000000444 ) ) ;
#187 = DIRECTION ( 'NONE',  ( 0.0000000000000000000, 0.0000000000000000000, -1.000000000000000000 ) ) ;
#188 = AXIS2_PLACEMENT_3D ( 'NONE', #248, #227, #131 ) ;
#189 = COLOUR_RGB ( '',0.7921568627450980005, 0.8196078431372548767, 0.9333333333333333481 ) ;
#190 = VERTEX_POINT ( 'NONE', #77 ) ;
#191 = AXIS2_PLACEMENT_3D ( 'NONE', #28, #283, #112 ) ;
#192 = ORIENTED_EDGE ( 'NONE', *, *, #209, .F. ) ;
#193 = CARTESIAN_POINT ( 'NONE',  ( 1.226383128429217700E-16, 0.0000000000000000000, 1.001417820454904462 ) ) ;
#194 = EDGE_LOOP ( 'NONE', ( #106, #118 ) ) ;
#195 = CIRCLE ( 'NONE', #124, 0.2497499999999999998 ) ;
#196 = SURFACE_SIDE_STYLE ('',( #198 ) ) ;
#197 = PRESENTATION_LAYER_ASSIGNMENT (  '', '', ( #202 ) ) ;
#198 = SURFACE_STYLE_FILL_AREA ( #149 ) ;
#199 = DIRECTION ( 'NONE',  ( -1.000000000000000000, 0.0000000000000000000, 0.0000000000000000000 ) ) ;
#200 = DIRECTION ( 'NONE',  ( -1.000000000000000000, 0.0000000000000000000, 1.224646799147353700E-16 ) ) ;
#201 = CONICAL_SURFACE ( 'NONE', #153, 0.2350000000000011524, 0.7853981633974380649 ) ;
#202 = STYLED_ITEM ( 'NONE', ( #3 ), #270 ) ;
#203 = UNCERTAINTY_MEASURE_WITH_UNIT (LENGTH_MEASURE( 1.000000000000000082E-05 ), #38, 'distance_accuracy_value', 'NONE');
#204 = ORIENTED_EDGE ( 'NONE', *, *, #142, .T. ) ;
#205 = LINE ( 'NONE', #223, #46 ) ;
#206 = APPLICATION_PROTOCOL_DEFINITION ( 'draft international standard', 'automotive_design', 1998, #104 ) ;
#207 = EDGE_LOOP ( 'NONE', ( #215, #170, #39, #144 ) ) ;
#208 = CARTESIAN_POINT ( 'NONE',  ( -0.2500000000000000000, 0.0000000000000000000, 2.985000000000001208 ) ) ;
#209 = EDGE_CURVE ( 'NONE', #278, #165, #211, .T. ) ;
#210 = SURFACE_SIDE_STYLE ('',( #54 ) ) ;
#211 = LINE ( 'NONE', #29, #52 ) ;
#212 = VECTOR ( 'NONE', #296, 39.37007874015748143 ) ;
#213 =( NAMED_UNIT ( * ) PLANE_ANGLE_UNIT ( ) SI_UNIT ( $, .RADIAN. ) );
#214 = ORIENTED_EDGE ( 'NONE', *, *, #209, .T. ) ;
#215 = ORIENTED_EDGE ( 'NONE', *, *, #114, .F. ) ;
#216 = AXIS2_PLACEMENT_3D ( 'NONE', #279, #82, #33 ) ;
#217 = ORIENTED_EDGE ( 'NONE', *, *, #31, .T. ) ;
#218 = EDGE_CURVE ( 'NONE', #253, #162, #100, .T. ) ;
#219 = EDGE_LOOP ( 'NONE', ( #58, #127, #217, #181 ) ) ;
#220 = VECTOR ( 'NONE', #247, 39.37007874015748143 ) ;
#221 = CARTESIAN_POINT ( 'NONE',  ( 0.0000000000000000000, 0.0000000000000000000, 3.000000000000000444 ) ) ;
#222 = CARTESIAN_POINT ( 'NONE',  ( -0.2497499999999999998, 0.0000000000000000000, 6.117110761741031132E-17 ) ) ;
#223 = CARTESIAN_POINT ( 'NONE',  ( -0.2497499999999999998, 0.0000000000000000000, 3.058555380870515566E-17 ) ) ;
#224 = DIRECTION ( 'NONE',  ( -1.224646799147353454E-16, -0.0000000000000000000, -1.000000000000000000 ) ) ;
#225 = EDGE_CURVE ( 'NONE', #268, #165, #252, .T. ) ;
#226 = AXIS2_PLACEMENT_3D ( 'NONE', #269, #148, #251 ) ;
#227 = DIRECTION ( 'NONE',  ( 1.224646799147353454E-16, 0.0000000000000000000, 1.000000000000000000 ) ) ;
#228 = CARTESIAN_POINT ( 'NONE',  ( -0.2350000000000011524, 0.0000000000000000000, 3.000000000000000444 ) ) ;
#229 = PRODUCT_DEFINITION_SHAPE ( 'NONE', 'NONE',  #233 ) ;
#230 = CARTESIAN_POINT ( 'NONE',  ( 0.2500000000000001110, 3.061616997868383634E-17, 1.001417820454904462 ) ) ;
#231 = VECTOR ( 'NONE', #245, 39.37007874015748143 ) ;
#232 = CARTESIAN_POINT ( 'NONE',  ( 3.745650057197990990E-33, 0.0000000000000000000, 3.058555380870515566E-17 ) ) ;
#233 = PRODUCT_DEFINITION ( 'UNKNOWN', '', #266, #173 ) ;
#234 =( CONVERSION_BASED_UNIT ( 'INCH', #159 ) LENGTH_UNIT ( ) NAMED_UNIT ( #250 ) );
#235 = FACE_OUTER_BOUND ( 'NONE', #1, .T. ) ;
#236 = AXIS2_PLACEMENT_3D ( 'NONE', #138, #261, #157 ) ;
#237 = ORIENTED_EDGE ( 'NONE', *, *, #249, .F. ) ;
#238 = ORIENTED_EDGE ( 'NONE', *, *, #218, .F. ) ;
#239 = ORIENTED_EDGE ( 'NONE', *, *, #7, .T. ) ;
#240 = DIRECTION ( 'NONE',  ( 0.0000000000000000000, 0.0000000000000000000, 1.000000000000000000 ) ) ;
#241 = EDGE_LOOP ( 'NONE', ( #238, #90, #34, #93 ) ) ;
#242 = FACE_OUTER_BOUND ( 'NONE', #194, .T. ) ;
#243 = ORIENTED_EDGE ( 'NONE', *, *, #289, .T. ) ;
#244 = CIRCLE ( 'NONE', #65, 0.2497499999999999998 ) ;
#245 = DIRECTION ( 'NONE',  ( -0.0000000000000000000, -0.0000000000000000000, -1.000000000000000000 ) ) ;
#246 = LINE ( 'NONE', #47, #257 ) ;
#247 = DIRECTION ( 'NONE',  ( 0.1736481776669314137, 0.0000000000000000000, 0.9848077530122077983 ) ) ;
#248 = CARTESIAN_POINT ( 'NONE',  ( 1.224646799147353454E-16, 0.0000000000000000000, 1.000000000000000000 ) ) ;
#249 = EDGE_CURVE ( 'NONE', #165, #268, #86, .T. ) ;
#250 = DIMENSIONAL_EXPONENTS ( 1.000000000000000000, 0.0000000000000000000, 0.0000000000000000000, 0.0000000000000000000, 0.0000000000000000000, 0.0000000000000000000, 0.0000000000000000000 ) ;
#251 = DIRECTION ( 'NONE',  ( -1.000000000000000000, 0.0000000000000000000, 0.0000000000000000000 ) ) ;
#252 = CIRCLE ( 'NONE', #216, 0.2500000000000000000 ) ;
#253 = VERTEX_POINT ( 'NONE', #75 ) ;
#254 = EDGE_CURVE ( 'NONE', #253, #10, #259, .T. ) ;
#255 = DIRECTION ( 'NONE',  ( -1.224646799147353454E-16, -0.0000000000000000000, -1.000000000000000000 ) ) ;
#256 = SURFACE_STYLE_USAGE ( .BOTH. , #210 ) ;
#257 = VECTOR ( 'NONE', #44, 39.37007874015748143 ) ;
#258 = AXIS2_PLACEMENT_3D ( 'NONE', #221, #12, #146 ) ;
#259 = LINE ( 'NONE', #98, #166 ) ;
#260 = DIRECTION ( 'NONE',  ( -1.000000000000000000, 0.0000000000000000000, 0.0000000000000000000 ) ) ;
#261 = DIRECTION ( 'NONE',  ( 0.0000000000000000000, 0.0000000000000000000, 1.000000000000000000 ) ) ;
#262 = EDGE_LOOP ( 'NONE', ( #192, #37, #243, #286 ) ) ;
#263 = PRESENTATION_STYLE_ASSIGNMENT (( #83 ) ) ;
#264 = CIRCLE ( 'NONE', #57, 0.2497499999999999998 ) ;
#265 = EDGE_CURVE ( 'NONE', #278, #190, #115, .T. ) ;
#266 = PRODUCT_DEFINITION_FORMATION_WITH_SPECIFIED_SOURCE ( 'ANY', '', #298, .NOT_KNOWN. ) ;
#267 = LENGTH_MEASURE_WITH_UNIT ( LENGTH_MEASURE( 0.02539999999999999897 ), #59 );
#268 = VERTEX_POINT ( 'NONE', #230 ) ;
#269 = CARTESIAN_POINT ( 'NONE',  ( 0.0000000000000000000, 0.0000000000000000000, 3.000000000000000444 ) ) ;
#270 = MANIFOLD_SOLID_BREP ( 'Cut-Revolve1', #4 ) ;
#271 = FILL_AREA_STYLE_COLOUR ( '', #189 ) ;
#272 = ADVANCED_FACE ( 'NONE', ( #235 ), #116, .T. ) ;
#273 = LINE ( 'NONE', #228, #183 ) ;
#274 = CARTESIAN_POINT ( 'NONE',  ( 0.0000000000000000000, 0.0000000000000000000, 2.985000000000001208 ) ) ;
#275 = CARTESIAN_POINT ( 'NONE',  ( 0.0000000000000000000, 0.0000000000000000000, 3.000000000000000444 ) ) ;
#276 = EDGE_CURVE ( 'NONE', #162, #253, #36, .T. ) ;
#277 = PRESENTATION_LAYER_ASSIGNMENT (  '', '', ( #136 ) ) ;
#278 = VERTEX_POINT ( 'NONE', #45 ) ;
#279 = CARTESIAN_POINT ( 'NONE',  ( 1.226383128429217700E-16, 0.0000000000000000000, 1.001417820454904462 ) ) ;
#280 = SHAPE_DEFINITION_REPRESENTATION ( #229, #85 ) ;
#281 = AXIS2_PLACEMENT_3D ( 'NONE', #291, #294, #40 ) ;
#282 = DIRECTION ( 'NONE',  ( -1.000000000000000000, 0.0000000000000000000, 0.0000000000000000000 ) ) ;
#283 = DIRECTION ( 'NONE',  ( 1.224646799147353454E-16, 0.0000000000000000000, 1.000000000000000000 ) ) ;
#284 = EDGE_CURVE ( 'NONE', #145, #165, #19, .T. ) ;
#285 = CONICAL_SURFACE ( 'NONE', #139, 0.2350000000000011524, 0.7853981633974380649 ) ;
#286 = ORIENTED_EDGE ( 'NONE', *, *, #225, .T. ) ;
#287 = ORIENTED_EDGE ( 'NONE', *, *, #289, .F. ) ;
#288 = DIRECTION ( 'NONE',  ( -1.000000000000000000, 0.0000000000000000000, 1.224646799147353700E-16 ) ) ;
#289 = EDGE_CURVE ( 'NONE', #190, #268, #14, .T. ) ;
#290 = AXIS2_PLACEMENT_3D ( 'NONE', #133, #224, #200 ) ;
#291 = CARTESIAN_POINT ( 'NONE',  ( 0.0000000000000000000, 0.0000000000000000000, 3.000000000000000444 ) ) ;
#292 = DIRECTION ( 'NONE',  ( -0.0000000000000000000, -0.0000000000000000000, -1.000000000000000000 ) ) ;
#293 = CARTESIAN_POINT ( 'NONE',  ( 0.0000000000000000000, 0.0000000000000000000, 0.0000000000000000000 ) ) ;
#294 = DIRECTION ( 'NONE',  ( 0.0000000000000000000, 0.0000000000000000000, 1.000000000000000000 ) ) ;
#295 = VERTEX_POINT ( 'NONE', #105 ) ;
#296 = DIRECTION ( 'NONE',  ( -0.0000000000000000000, -0.0000000000000000000, -1.000000000000000000 ) ) ;
#297 = ADVANCED_FACE ( 'NONE', ( #242 ), #163, .F. ) ;
#298 = PRODUCT ( 'Micro_EMS-500-2', 'Micro_EMS-500-2', '', ( #299 ) ) ;
#299 = PRODUCT_CONTEXT ( 'NONE', #130, 'mechanical' ) ;
ENDSEC;
END-ISO-10303-21;
