ISO-10303-21;
HEADER;
FILE_DESCRIPTION (( 'STEP AP214' ),
    '1' );
FILE_NAME ('84761.STEP',
    '2023-06-30T23:48:31',
    ( '' ),
    ( '' ),
    'SwSTEP 2.0',
    'SolidWorks 2023',
    '' );
FILE_SCHEMA (( 'AUTOMOTIVE_DESIGN' ));
ENDSEC;

DATA;
#1 = SURFACE_SIDE_STYLE ('',( #369 ) ) ;
#2 = CLOSED_SHELL ( 'NONE', ( #293, #60, #215, #358 ) ) ;
#3 = STYLED_ITEM ( 'NONE', ( #367 ), #187 ) ;
#4 = SURFACE_STYLE_FILL_AREA ( #283 ) ;
#5 = SURFACE_STYLE_FILL_AREA ( #33 ) ;
#6 = ORIENTED_EDGE ( 'NONE', *, *, #322, .T. ) ;
#7 = CARTESIAN_POINT ( 'NONE',  ( -0.1874999999999995004, 3.000000000000000444, 0.000000000000000000 ) ) ;
#8 =( CONVERSION_BASED_UNIT ( 'INCH', #353 ) LENGTH_UNIT ( ) NAMED_UNIT ( #226 ) );
#9 = CARTESIAN_POINT ( 'NONE',  ( 3.067472995370340001E-16, 1.500000000000000222, 0.000000000000000000 ) ) ;
#10 = EDGE_CURVE ( 'NONE', #29, #371, #343, .T. ) ;
#11 = PRODUCT_CONTEXT ( 'NONE', #313, 'mechanical' ) ;
#12 = VERTEX_POINT ( 'NONE', #7 ) ;
#13 = CARTESIAN_POINT ( 'NONE',  ( -2.296212748401287726E-17, 0.1875000000000000278, 0.000000000000000000 ) ) ;
#14 = DIRECTION ( 'NONE',  ( 0.000000000000000000, 0.000000000000000000, -1.000000000000000000 ) ) ;
#15 = COLOUR_RGB ( '',1.000000000000000000, 0.000000000000000000, 0.000000000000000000 ) ;
#16 = CIRCLE ( 'NONE', #30, 0.1874999999999999722 ) ;
#17 =( NAMED_UNIT ( * ) PLANE_ANGLE_UNIT ( ) SI_UNIT ( $, .RADIAN. ) );
#18 =( GEOMETRIC_REPRESENTATION_CONTEXT ( 3 ) GLOBAL_UNCERTAINTY_ASSIGNED_CONTEXT ( ( #252 ) ) GLOBAL_UNIT_ASSIGNED_CONTEXT ( ( #327, #362, #195 ) ) REPRESENTATION_CONTEXT ( 'NONE', 'WORKASPACE' ) );
#19 = CARTESIAN_POINT ( 'NONE',  ( 2.296212748401285877E-17, 1.500000000000000222, 0.1874999999999998057 ) ) ;
#20 = FACE_OUTER_BOUND ( 'NONE', #149, .T. ) ;
#21 = DIRECTION ( 'NONE',  ( 0.000000000000000000, 0.000000000000000000, 1.000000000000000000 ) ) ;
#22 = UNCERTAINTY_MEASURE_WITH_UNIT (LENGTH_MEASURE( 1.000000000000000082E-05 ), #239, 'distance_accuracy_value', 'NONE');
#23 = FACE_OUTER_BOUND ( 'NONE', #94, .T. ) ;
#24 = EDGE_CURVE ( 'NONE', #282, #345, #314, .T. ) ;
#25 = CARTESIAN_POINT ( 'NONE',  ( 0.1874999999999999722, 0.1875000000000000555, 0.000000000000000000 ) ) ;
#26 = MECHANICAL_DESIGN_GEOMETRIC_PRESENTATION_REPRESENTATION (  '', ( #242 ), #233 ) ;
#27 =( LENGTH_UNIT ( ) NAMED_UNIT ( * ) SI_UNIT ( $, .METRE. ) );
#28 = EDGE_LOOP ( 'NONE', ( #286, #181, #82, #204, #297 ) ) ;
#29 = VERTEX_POINT ( 'NONE', #151 ) ;
#30 = AXIS2_PLACEMENT_3D ( 'NONE', #59, #103, #108 ) ;
#31 = COLOUR_RGB ( '',1.000000000000000000, 0.000000000000000000, 0.000000000000000000 ) ;
#32 = DIMENSIONAL_EXPONENTS ( 1.000000000000000000, 0.000000000000000000, 0.000000000000000000, 0.000000000000000000, 0.000000000000000000, 0.000000000000000000, 0.000000000000000000 ) ;
#33 = FILL_AREA_STYLE ('',( #220 ) ) ;
#34 = EDGE_CURVE ( 'NONE', #177, #12, #127, .T. ) ;
#35 =( NAMED_UNIT ( * ) SI_UNIT ( $, .STERADIAN. ) SOLID_ANGLE_UNIT ( ) );
#36 = VERTEX_POINT ( 'NONE', #75 ) ;
#37 = MECHANICAL_DESIGN_GEOMETRIC_PRESENTATION_REPRESENTATION (  '', ( #338 ), #245 ) ;
#38 = CIRCLE ( 'NONE', #318, 0.1874999999999999722 ) ;
#39 =( NAMED_UNIT ( * ) SI_UNIT ( $, .STERADIAN. ) SOLID_ANGLE_UNIT ( ) );
#40 = LENGTH_MEASURE_WITH_UNIT ( LENGTH_MEASURE( 0.02539999999999999897 ), #63 );
#41 =( CONVERSION_BASED_UNIT ( 'INCH', #237 ) LENGTH_UNIT ( ) NAMED_UNIT ( #106 ) );
#42 = VERTEX_POINT ( 'NONE', #328 ) ;
#43 = DIRECTION ( 'NONE',  ( 1.000000000000000000, 0.000000000000000000, 0.000000000000000000 ) ) ;
#44 =( CONVERSION_BASED_UNIT ( 'INCH', #296 ) LENGTH_UNIT ( ) NAMED_UNIT ( #32 ) );
#45 = CARTESIAN_POINT ( 'NONE',  ( -2.296212748401287726E-17, 0.1875000000000000278, 0.000000000000000000 ) ) ;
#46 = CARTESIAN_POINT ( 'NONE',  ( 0.000000000000000000, 1.500000000000000222, 0.000000000000000000 ) ) ;
#47 = EDGE_LOOP ( 'NONE', ( #290, #264, #184, #65 ) ) ;
#48 = CARTESIAN_POINT ( 'NONE',  ( 0.1874999999999998057, 1.500000000000000222, 2.296212748401282179E-17 ) ) ;
#49 = CARTESIAN_POINT ( 'NONE',  ( -1.148106374200643863E-17, 0.000000000000000000, 0.000000000000000000 ) ) ;
#50 = LINE ( 'NONE', #130, #291 ) ;
#51 = DIRECTION ( 'NONE',  ( -1.228550797481991607E-16, 1.000000000000000000, -0.000000000000000000 ) ) ;
#52 = FACE_OUTER_BOUND ( 'NONE', #28, .T. ) ;
#53 = DIRECTION ( 'NONE',  ( 0.000000000000000000, -0.000000000000000000, 1.000000000000000000 ) ) ;
#54 = FILL_AREA_STYLE_COLOUR ( '', #15 ) ;
#55 = LENGTH_MEASURE_WITH_UNIT ( LENGTH_MEASURE( 0.02539999999999999897 ), #311 );
#56 =( NAMED_UNIT ( * ) SI_UNIT ( $, .STERADIAN. ) SOLID_ANGLE_UNIT ( ) );
#57 = ORIENTED_EDGE ( 'NONE', *, *, #10, .T. ) ;
#58 = MECHANICAL_DESIGN_GEOMETRIC_PRESENTATION_REPRESENTATION (  '', ( #323 ), #185 ) ;
#59 = CARTESIAN_POINT ( 'NONE',  ( 0.000000000000000000, 0.1875000000000000555, 0.000000000000000000 ) ) ;
#60 = ADVANCED_FACE ( 'NONE', ( #249 ), #360, .F. ) ;
#61 = PRESENTATION_STYLE_ASSIGNMENT (( #111 ) ) ;
#62 = ORIENTED_EDGE ( 'NONE', *, *, #140, .F. ) ;
#63 =( LENGTH_UNIT ( ) NAMED_UNIT ( * ) SI_UNIT ( $, .METRE. ) );
#64 = LENGTH_MEASURE_WITH_UNIT ( LENGTH_MEASURE( 0.02539999999999999897 ), #315 );
#65 = ORIENTED_EDGE ( 'NONE', *, *, #153, .T. ) ;
#66 = APPLICATION_CONTEXT ( 'automotive_design' ) ;
#67 = PRESENTATION_LAYER_ASSIGNMENT (  '', '', ( #242 ) ) ;
#68 = PRESENTATION_LAYER_ASSIGNMENT (  '', '', ( #120 ) ) ;
#69 = ORIENTED_EDGE ( 'NONE', *, *, #123, .F. ) ;
#70 = DIRECTION ( 'NONE',  ( 0.000000000000000000, 0.000000000000000000, -1.000000000000000000 ) ) ;
#71 = PRESENTATION_STYLE_ASSIGNMENT (( #354 ) ) ;
#72 =( LENGTH_UNIT ( ) NAMED_UNIT ( * ) SI_UNIT ( $, .METRE. ) );
#73 = CYLINDRICAL_SURFACE ( 'NONE', #192, 0.1874999999999999167 ) ;
#74 = AXIS2_PLACEMENT_3D ( 'NONE', #267, #122, #243 ) ;
#75 = CARTESIAN_POINT ( 'NONE',  ( 0.000000000000000000, 1.500000000000000222, -0.1874999999999998057 ) ) ;
#76 = EDGE_CURVE ( 'NONE', #36, #171, #50, .T. ) ;
#77 = PRODUCT_DEFINITION_FORMATION_WITH_SPECIFIED_SOURCE ( 'ANY', '', #179, .NOT_KNOWN. ) ;
#78 =( NAMED_UNIT ( * ) SI_UNIT ( $, .STERADIAN. ) SOLID_ANGLE_UNIT ( ) );
#79 =( NAMED_UNIT ( * ) SI_UNIT ( $, .STERADIAN. ) SOLID_ANGLE_UNIT ( ) );
#80 = DIRECTION ( 'NONE',  ( -1.000000000000000000, 0.000000000000000000, 0.000000000000000000 ) ) ;
#81 = DIRECTION ( 'NONE',  ( 0.000000000000000000, 0.000000000000000000, 1.000000000000000000 ) ) ;
#82 = ORIENTED_EDGE ( 'NONE', *, *, #24, .F. ) ;
#83 = DIRECTION ( 'NONE',  ( 1.000000000000000000, 0.000000000000000000, 0.000000000000000000 ) ) ;
#84 = ORIENTED_EDGE ( 'NONE', *, *, #298, .T. ) ;
#85 = SURFACE_SIDE_STYLE ('',( #5 ) ) ;
#86 = EDGE_LOOP ( 'NONE', ( #319, #210, #271, #69, #337 ) ) ;
#87 = CIRCLE ( 'NONE', #157, 0.1874999999999996392 ) ;
#88 = SURFACE_STYLE_USAGE ( .BOTH. , #208 ) ;
#89 = VERTEX_POINT ( 'NONE', #19 ) ;
#90 =( NAMED_UNIT ( * ) PLANE_ANGLE_UNIT ( ) SI_UNIT ( $, .RADIAN. ) );
#91 = AXIS2_PLACEMENT_3D ( 'NONE', #193, #304, #101 ) ;
#92 = AXIS2_PLACEMENT_3D ( 'NONE', #46, #276, #53 ) ;
#93 = CARTESIAN_POINT ( 'NONE',  ( 3.067472995370340001E-16, 1.500000000000000222, 0.000000000000000000 ) ) ;
#94 = EDGE_LOOP ( 'NONE', ( #351, #202 ) ) ;
#95 = MANIFOLD_SOLID_BREP ( 'Revolve - Tool Body (Straight Shanked)', #2 ) ;
#96 = ADVANCED_BREP_SHAPE_REPRESENTATION ( '84761', ( #347, #95, #357 ), #372 ) ;
#97 = DIRECTION ( 'NONE',  ( 0.000000000000000000, 0.000000000000000000, -1.000000000000000000 ) ) ;
#98 = ADVANCED_FACE ( 'NONE', ( #117 ), #125, .T. ) ;
#99 = AXIS2_PLACEMENT_3D ( 'NONE', #45, #21, #251 ) ;
#100 =( NAMED_UNIT ( * ) PLANE_ANGLE_UNIT ( ) SI_UNIT ( $, .RADIAN. ) );
#101 = DIRECTION ( 'NONE',  ( -1.000000000000000000, -1.228550797481991607E-16, 0.000000000000000000 ) ) ;
#102 = CARTESIAN_POINT ( 'NONE',  ( 0.1874999999999997780, 3.000000000000000444, 0.000000000000000000 ) ) ;
#103 = DIRECTION ( 'NONE',  ( -0.000000000000000000, -1.000000000000000000, -0.000000000000000000 ) ) ;
#104 = MECHANICAL_DESIGN_GEOMETRIC_PRESENTATION_REPRESENTATION (  '', ( #3 ), #324 ) ;
#105 = CARTESIAN_POINT ( 'NONE',  ( 1.224646799147352714E-16, 3.000000000000000444, 0.000000000000000000 ) ) ;
#106 = DIMENSIONAL_EXPONENTS ( 1.000000000000000000, 0.000000000000000000, 0.000000000000000000, 0.000000000000000000, 0.000000000000000000, 0.000000000000000000, 0.000000000000000000 ) ;
#107 = STYLED_ITEM ( 'NONE', ( #164 ), #168 ) ;
#108 = DIRECTION ( 'NONE',  ( 0.000000000000000000, 0.000000000000000000, -1.000000000000000000 ) ) ;
#109 = ORIENTED_EDGE ( 'NONE', *, *, #155, .T. ) ;
#110 =( NAMED_UNIT ( * ) PLANE_ANGLE_UNIT ( ) SI_UNIT ( $, .RADIAN. ) );
#111 = SURFACE_STYLE_USAGE ( .BOTH. , #1 ) ;
#112 =( LENGTH_UNIT ( ) NAMED_UNIT ( * ) SI_UNIT ( $, .METRE. ) );
#113 = ORIENTED_EDGE ( 'NONE', *, *, #10, .F. ) ;
#114 = CIRCLE ( 'NONE', #227, 0.1875000000000000278 ) ;
#115 = ORIENTED_EDGE ( 'NONE', *, *, #322, .F. ) ;
#116 = APPLICATION_PROTOCOL_DEFINITION ( 'draft international standard', 'automotive_design', 1998, #66 ) ;
#117 = FACE_OUTER_BOUND ( 'NONE', #238, .T. ) ;
#118 =( NAMED_UNIT ( * ) PLANE_ANGLE_UNIT ( ) SI_UNIT ( $, .RADIAN. ) );
#119 =( GEOMETRIC_REPRESENTATION_CONTEXT ( 3 ) GLOBAL_UNCERTAINTY_ASSIGNED_CONTEXT ( ( #141 ) ) GLOBAL_UNIT_ASSIGNED_CONTEXT ( ( #41, #110, #35 ) ) REPRESENTATION_CONTEXT ( 'NONE', 'WORKASPACE' ) );
#120 = STYLED_ITEM ( 'NONE', ( #180 ), #223 ) ;
#121 = DIRECTION ( 'NONE',  ( -0.000000000000000000, -1.000000000000000000, -0.000000000000000000 ) ) ;
#122 = DIRECTION ( 'NONE',  ( -1.228550797481991607E-16, 1.000000000000000000, -0.000000000000000000 ) ) ;
#123 = EDGE_CURVE ( 'NONE', #42, #171, #16, .T. ) ;
#124 = FACE_OUTER_BOUND ( 'NONE', #241, .T. ) ;
#125 = SPHERICAL_SURFACE ( 'NONE', #270, 0.1875000000000000278 ) ;
#126 = SURFACE_STYLE_FILL_AREA ( #159 ) ;
#127 = CIRCLE ( 'NONE', #74, 0.1874999999999996392 ) ;
#128 = LINE ( 'NONE', #190, #344 ) ;
#129 = SURFACE_SIDE_STYLE ('',( #132 ) ) ;
#130 = CARTESIAN_POINT ( 'NONE',  ( 0.000000000000000000, 0.000000000000000000, -0.1874999999999999167 ) ) ;
#131 = LENGTH_MEASURE_WITH_UNIT ( LENGTH_MEASURE( 0.02539999999999999897 ), #27 );
#132 = SURFACE_STYLE_FILL_AREA ( #207 ) ;
#133 = DIMENSIONAL_EXPONENTS ( 1.000000000000000000, 0.000000000000000000, 0.000000000000000000, 0.000000000000000000, 0.000000000000000000, 0.000000000000000000, 0.000000000000000000 ) ;
#134 = DIRECTION ( 'NONE',  ( 1.224646799147353207E-16, -0.000000000000000000, 1.000000000000000000 ) ) ;
#135 =( NAMED_UNIT ( * ) PLANE_ANGLE_UNIT ( ) SI_UNIT ( $, .RADIAN. ) );
#136 = CYLINDRICAL_SURFACE ( 'NONE', #292, 0.1874999999999995837 ) ;
#137 = AXIS2_PLACEMENT_3D ( 'NONE', #13, #294, #321 ) ;
#138 = COLOUR_RGB ( '',1.000000000000000000, 0.000000000000000000, 0.000000000000000000 ) ;
#139 = UNCERTAINTY_MEASURE_WITH_UNIT (LENGTH_MEASURE( 1.000000000000000082E-05 ), #148, 'distance_accuracy_value', 'NONE');
#140 = EDGE_CURVE ( 'NONE', #36, #89, #330, .T. ) ;
#141 = UNCERTAINTY_MEASURE_WITH_UNIT (LENGTH_MEASURE( 1.000000000000000082E-05 ), #41, 'distance_accuracy_value', 'NONE');
#142 = SURFACE_STYLE_USAGE ( .BOTH. , #85 ) ;
#143 = FACE_OUTER_BOUND ( 'NONE', #86, .T. ) ;
#144 = ADVANCED_FACE ( 'NONE', ( #52 ), #166, .T. ) ;
#145 = ORIENTED_EDGE ( 'NONE', *, *, #34, .F. ) ;
#146 = AXIS2_PLACEMENT_3D ( 'NONE', #93, #154, #268 ) ;
#147 = COLOUR_RGB ( '',0.7921568627450980005, 0.8196078431372548767, 0.9333333333333333481 ) ;
#148 =( CONVERSION_BASED_UNIT ( 'INCH', #40 ) LENGTH_UNIT ( ) NAMED_UNIT ( #236 ) );
#149 = EDGE_LOOP ( 'NONE', ( #115, #109, #158, #145 ) ) ;
#150 = EDGE_LOOP ( 'NONE', ( #57, #6, #235, #349 ) ) ;
#151 = CARTESIAN_POINT ( 'NONE',  ( -0.1874999999999991951, 1.500000000000000222, 0.000000000000000000 ) ) ;
#152 = AXIS2_PLACEMENT_3D ( 'NONE', #265, #121, #350 ) ;
#153 = EDGE_CURVE ( 'NONE', #282, #189, #259, .T. ) ;
#154 = DIRECTION ( 'NONE',  ( -1.228550797481991607E-16, 1.000000000000000000, -0.000000000000000000 ) ) ;
#155 = EDGE_CURVE ( 'NONE', #371, #29, #309, .T. ) ;
#156 = STYLED_ITEM ( 'NONE', ( #61 ), #95 ) ;
#157 = AXIS2_PLACEMENT_3D ( 'NONE', #160, #331, #272 ) ;
#158 = ORIENTED_EDGE ( 'NONE', *, *, #316, .T. ) ;
#159 = FILL_AREA_STYLE ('',( #244 ) ) ;
#160 = CARTESIAN_POINT ( 'NONE',  ( 1.224646799147352714E-16, 3.000000000000000444, 0.000000000000000000 ) ) ;
#161 = DIRECTION ( 'NONE',  ( -0.000000000000000000, -1.000000000000000000, -0.000000000000000000 ) ) ;
#162 = CARTESIAN_POINT ( 'NONE',  ( 1.224646799147352714E-16, 3.000000000000000444, 0.000000000000000000 ) ) ;
#163 = DIRECTION ( 'NONE',  ( 0.000000000000000000, 0.000000000000000000, -1.000000000000000000 ) ) ;
#164 = PRESENTATION_STYLE_ASSIGNMENT (( #273 ) ) ;
#165 = DIRECTION ( 'NONE',  ( -0.000000000000000000, -1.000000000000000000, -0.000000000000000000 ) ) ;
#166 = CYLINDRICAL_SURFACE ( 'NONE', #152, 0.1874999999999999167 ) ;
#167 = DIRECTION ( 'NONE',  ( -0.000000000000000000, -1.000000000000000000, -0.000000000000000000 ) ) ;
#168 = ADVANCED_FACE ( 'NONE', ( #124 ), #188, .T. ) ;
#169 = COLOUR_RGB ( '',1.000000000000000000, 0.000000000000000000, 0.000000000000000000 ) ;
#170 = CARTESIAN_POINT ( 'NONE',  ( 0.000000000000000000, 0.1875000000000000555, -0.1874999999999999722 ) ) ;
#171 = VERTEX_POINT ( 'NONE', #170 ) ;
#172 = FILL_AREA_STYLE_COLOUR ( '', #31 ) ;
#173 = DIMENSIONAL_EXPONENTS ( 1.000000000000000000, 0.000000000000000000, 0.000000000000000000, 0.000000000000000000, 0.000000000000000000, 0.000000000000000000, 0.000000000000000000 ) ;
#174 =( CONVERSION_BASED_UNIT ( 'INCH', #55 ) LENGTH_UNIT ( ) NAMED_UNIT ( #230 ) );
#175 = PRESENTATION_STYLE_ASSIGNMENT (( #281 ) ) ;
#176 = CIRCLE ( 'NONE', #201, 0.1874999999999998057 ) ;
#177 = VERTEX_POINT ( 'NONE', #225 ) ;
#178 = ORIENTED_EDGE ( 'NONE', *, *, #326, .F. ) ;
#179 = PRODUCT ( '84761', '84761', '', ( #11 ) ) ;
#180 = PRESENTATION_STYLE_ASSIGNMENT (( #88 ) ) ;
#181 = ORIENTED_EDGE ( 'NONE', *, *, #280, .T. ) ;
#182 = MECHANICAL_DESIGN_GEOMETRIC_PRESENTATION_REPRESENTATION (  '', ( #156 ), #119 ) ;
#183 = EDGE_LOOP ( 'NONE', ( #113, #213 ) ) ;
#184 = ORIENTED_EDGE ( 'NONE', *, *, #352, .T. ) ;
#185 =( GEOMETRIC_REPRESENTATION_CONTEXT ( 3 ) GLOBAL_UNCERTAINTY_ASSIGNED_CONTEXT ( ( #256 ) ) GLOBAL_UNIT_ASSIGNED_CONTEXT ( ( #8, #118, #217 ) ) REPRESENTATION_CONTEXT ( 'NONE', 'WORKASPACE' ) );
#186 = AXIS2_PLACEMENT_3D ( 'NONE', #341, #167, #247 ) ;
#187 = ADVANCED_FACE ( 'NONE', ( #143 ), #73, .T. ) ;
#188 = PLANE ( 'NONE',  #92 ) ;
#189 = VERTEX_POINT ( 'NONE', #49 ) ;
#190 = CARTESIAN_POINT ( 'NONE',  ( 0.1874999999999996947, 3.000000000000000444, 2.296212748401281871E-17 ) ) ;
#191 = DIRECTION ( 'NONE',  ( -0.000000000000000000, -1.000000000000000000, -0.000000000000000000 ) ) ;
#192 = AXIS2_PLACEMENT_3D ( 'NONE', #253, #191, #300 ) ;
#193 = CARTESIAN_POINT ( 'NONE',  ( 3.067472995370340001E-16, 1.500000000000000222, 0.000000000000000000 ) ) ;
#194 = UNCERTAINTY_MEASURE_WITH_UNIT (LENGTH_MEASURE( 1.000000000000000082E-05 ), #325, 'distance_accuracy_value', 'NONE');
#195 =( NAMED_UNIT ( * ) SI_UNIT ( $, .STERADIAN. ) SOLID_ANGLE_UNIT ( ) );
#196 = DIRECTION ( 'NONE',  ( 1.000000000000000000, 0.000000000000000000, -1.224646799147353207E-16 ) ) ;
#197 =( NAMED_UNIT ( * ) SI_UNIT ( $, .STERADIAN. ) SOLID_ANGLE_UNIT ( ) );
#198 = EDGE_CURVE ( 'NONE', #12, #177, #87, .T. ) ;
#199 = FILL_AREA_STYLE ('',( #54 ) ) ;
#200 = PRODUCT_DEFINITION_CONTEXT ( 'detailed design', #66, 'design' ) ;
#201 = AXIS2_PLACEMENT_3D ( 'NONE', #363, #269, #14 ) ;
#202 = ORIENTED_EDGE ( 'NONE', *, *, #34, .T. ) ;
#203 = DIMENSIONAL_EXPONENTS ( 1.000000000000000000, 0.000000000000000000, 0.000000000000000000, 0.000000000000000000, 0.000000000000000000, 0.000000000000000000, 0.000000000000000000 ) ;
#204 = ORIENTED_EDGE ( 'NONE', *, *, #352, .F. ) ;
#205 = DIRECTION ( 'NONE',  ( -1.000000000000000000, 0.000000000000000000, 0.000000000000000000 ) ) ;
#206 = ORIENTED_EDGE ( 'NONE', *, *, #232, .T. ) ;
#207 = FILL_AREA_STYLE ('',( #373 ) ) ;
#208 = SURFACE_SIDE_STYLE ('',( #4 ) ) ;
#209 = FILL_AREA_STYLE ('',( #288 ) ) ;
#210 = ORIENTED_EDGE ( 'NONE', *, *, #326, .T. ) ;
#211 = PRESENTATION_LAYER_ASSIGNMENT (  '', '', ( #323 ) ) ;
#212 = PRESENTATION_STYLE_ASSIGNMENT (( #142 ) ) ;
#213 = ORIENTED_EDGE ( 'NONE', *, *, #155, .F. ) ;
#214 = AXIS2_PLACEMENT_3D ( 'NONE', #102, #219, #299 ) ;
#215 = ADVANCED_FACE ( 'NONE', ( #20 ), #364, .T. ) ;
#216 = CARTESIAN_POINT ( 'NONE',  ( 0.000000000000000000, 0.000000000000000000, 0.000000000000000000 ) ) ;
#217 =( NAMED_UNIT ( * ) SI_UNIT ( $, .STERADIAN. ) SOLID_ANGLE_UNIT ( ) );
#218 = CARTESIAN_POINT ( 'NONE',  ( 0.000000000000000000, 0.1875000000000000555, 0.000000000000000000 ) ) ;
#219 = DIRECTION ( 'NONE',  ( 1.228550797481991607E-16, -1.000000000000000000, 0.000000000000000000 ) ) ;
#220 = FILL_AREA_STYLE_COLOUR ( '', #169 ) ;
#221 = CARTESIAN_POINT ( 'NONE',  ( -2.296212748401287726E-17, 0.1875000000000000278, 0.000000000000000000 ) ) ;
#222 = CARTESIAN_POINT ( 'NONE',  ( 0.000000000000000000, 1.500000000000000222, 0.000000000000000000 ) ) ;
#223 = ADVANCED_FACE ( 'NONE', ( #229 ), #254, .T. ) ;
#224 = DIRECTION ( 'NONE',  ( -1.228550797481991607E-16, 1.000000000000000000, -0.000000000000000000 ) ) ;
#225 = CARTESIAN_POINT ( 'NONE',  ( 0.1874999999999997780, 3.000000000000000444, 2.296212748401282179E-17 ) ) ;
#226 = DIMENSIONAL_EXPONENTS ( 1.000000000000000000, 0.000000000000000000, 0.000000000000000000, 0.000000000000000000, 0.000000000000000000, 0.000000000000000000, 0.000000000000000000 ) ;
#227 = AXIS2_PLACEMENT_3D ( 'NONE', #221, #134, #196 ) ;
#228 =( GEOMETRIC_REPRESENTATION_CONTEXT ( 3 ) GLOBAL_UNCERTAINTY_ASSIGNED_CONTEXT ( ( #139 ) ) GLOBAL_UNIT_ASSIGNED_CONTEXT ( ( #148, #348, #79 ) ) REPRESENTATION_CONTEXT ( 'NONE', 'WORKASPACE' ) );
#229 = FACE_OUTER_BOUND ( 'NONE', #47, .T. ) ;
#230 = DIMENSIONAL_EXPONENTS ( 1.000000000000000000, 0.000000000000000000, 0.000000000000000000, 0.000000000000000000, 0.000000000000000000, 0.000000000000000000, 0.000000000000000000 ) ;
#231 = PRESENTATION_LAYER_ASSIGNMENT (  '', '', ( #156 ) ) ;
#232 = EDGE_CURVE ( 'NONE', #345, #42, #284, .T. ) ;
#233 =( GEOMETRIC_REPRESENTATION_CONTEXT ( 3 ) GLOBAL_UNCERTAINTY_ASSIGNED_CONTEXT ( ( #334 ) ) GLOBAL_UNIT_ASSIGNED_CONTEXT ( ( #44, #17, #78 ) ) REPRESENTATION_CONTEXT ( 'NONE', 'WORKASPACE' ) );
#234 = FACE_OUTER_BOUND ( 'NONE', #150, .T. ) ;
#235 = ORIENTED_EDGE ( 'NONE', *, *, #198, .F. ) ;
#236 = DIMENSIONAL_EXPONENTS ( 1.000000000000000000, 0.000000000000000000, 0.000000000000000000, 0.000000000000000000, 0.000000000000000000, 0.000000000000000000, 0.000000000000000000 ) ;
#237 = LENGTH_MEASURE_WITH_UNIT ( LENGTH_MEASURE( 0.02539999999999999897 ), #112 );
#238 = EDGE_LOOP ( 'NONE', ( #206, #84, #340, #312 ) ) ;
#239 =( CONVERSION_BASED_UNIT ( 'INCH', #64 ) LENGTH_UNIT ( ) NAMED_UNIT ( #133 ) );
#240 = AXIS2_PLACEMENT_3D ( 'NONE', #9, #289, #263 ) ;
#241 = EDGE_LOOP ( 'NONE', ( #62, #178 ) ) ;
#242 = STYLED_ITEM ( 'NONE', ( #71 ), #347 ) ;
#243 = DIRECTION ( 'NONE',  ( -1.000000000000000000, 0.000000000000000000, 0.000000000000000000 ) ) ;
#244 = FILL_AREA_STYLE_COLOUR ( '', #147 ) ;
#245 =( GEOMETRIC_REPRESENTATION_CONTEXT ( 3 ) GLOBAL_UNCERTAINTY_ASSIGNED_CONTEXT ( ( #22 ) ) GLOBAL_UNIT_ASSIGNED_CONTEXT ( ( #239, #90, #56 ) ) REPRESENTATION_CONTEXT ( 'NONE', 'WORKASPACE' ) );
#246 = CARTESIAN_POINT ( 'NONE',  ( 0.000000000000000000, 0.1875000000000000555, 0.000000000000000000 ) ) ;
#247 = DIRECTION ( 'NONE',  ( 0.000000000000000000, 0.000000000000000000, -1.000000000000000000 ) ) ;
#248 = SURFACE_SIDE_STYLE ('',( #336 ) ) ;
#249 = FACE_OUTER_BOUND ( 'NONE', #183, .T. ) ;
#250 = DIRECTION ( 'NONE',  ( -1.228550797481991607E-16, 1.000000000000000000, -0.000000000000000000 ) ) ;
#251 = DIRECTION ( 'NONE',  ( 1.000000000000000000, 0.000000000000000000, 0.000000000000000000 ) ) ;
#252 = UNCERTAINTY_MEASURE_WITH_UNIT (LENGTH_MEASURE( 1.000000000000000082E-05 ), #327, 'distance_accuracy_value', 'NONE');
#253 = CARTESIAN_POINT ( 'NONE',  ( 0.000000000000000000, 0.000000000000000000, 0.000000000000000000 ) ) ;
#254 = SPHERICAL_SURFACE ( 'NONE', #99, 0.1875000000000000278 ) ;
#255 = PRESENTATION_LAYER_ASSIGNMENT (  '', '', ( #3 ) ) ;
#256 = UNCERTAINTY_MEASURE_WITH_UNIT (LENGTH_MEASURE( 1.000000000000000082E-05 ), #8, 'distance_accuracy_value', 'NONE');
#257 = SURFACE_STYLE_FILL_AREA ( #199 ) ;
#258 = FILL_AREA_STYLE_COLOUR ( '', #365 ) ;
#259 = CIRCLE ( 'NONE', #137, 0.1875000000000000278 ) ;
#260 = MECHANICAL_DESIGN_GEOMETRIC_PRESENTATION_REPRESENTATION (  '', ( #107 ), #18 ) ;
#261 = DIRECTION ( 'NONE',  ( 0.000000000000000000, 0.000000000000000000, 1.000000000000000000 ) ) ;
#262 = MECHANICAL_DESIGN_GEOMETRIC_PRESENTATION_REPRESENTATION (  '', ( #120 ), #228 ) ;
#263 = DIRECTION ( 'NONE',  ( -1.000000000000000000, 0.000000000000000000, 0.000000000000000000 ) ) ;
#264 = ORIENTED_EDGE ( 'NONE', *, *, #123, .T. ) ;
#265 = CARTESIAN_POINT ( 'NONE',  ( 0.000000000000000000, 0.000000000000000000, 0.000000000000000000 ) ) ;
#266 = PRESENTATION_LAYER_ASSIGNMENT (  '', '', ( #107 ) ) ;
#267 = CARTESIAN_POINT ( 'NONE',  ( 1.224646799147352714E-16, 3.000000000000000444, 0.000000000000000000 ) ) ;
#268 = DIRECTION ( 'NONE',  ( -1.000000000000000000, 0.000000000000000000, 0.000000000000000000 ) ) ;
#269 = DIRECTION ( 'NONE',  ( -0.000000000000000000, -1.000000000000000000, -0.000000000000000000 ) ) ;
#270 = AXIS2_PLACEMENT_3D ( 'NONE', #332, #81, #83 ) ;
#271 = ORIENTED_EDGE ( 'NONE', *, *, #76, .T. ) ;
#272 = DIRECTION ( 'NONE',  ( -1.000000000000000000, 0.000000000000000000, 0.000000000000000000 ) ) ;
#273 = SURFACE_STYLE_USAGE ( .BOTH. , #248 ) ;
#274 = LINE ( 'NONE', #356, #339 ) ;
#275 =( LENGTH_UNIT ( ) NAMED_UNIT ( * ) SI_UNIT ( $, .METRE. ) );
#276 = DIRECTION ( 'NONE',  ( 0.000000000000000000, 1.000000000000000000, 0.000000000000000000 ) ) ;
#277 = DIRECTION ( 'NONE',  ( -0.000000000000000000, -1.000000000000000000, -0.000000000000000000 ) ) ;
#278 = AXIS2_PLACEMENT_3D ( 'NONE', #222, #306, #163 ) ;
#279 = AXIS2_PLACEMENT_3D ( 'NONE', #105, #224, #205 ) ;
#280 = EDGE_CURVE ( 'NONE', #89, #345, #366, .T. ) ;
#281 = SURFACE_STYLE_USAGE ( .BOTH. , #370 ) ;
#282 = VERTEX_POINT ( 'NONE', #25 ) ;
#283 = FILL_AREA_STYLE ('',( #172 ) ) ;
#284 = CIRCLE ( 'NONE', #186, 0.1874999999999999722 ) ;
#285 = APPLICATION_PROTOCOL_DEFINITION ( 'draft international standard', 'automotive_design', 1998, #313 ) ;
#286 = ORIENTED_EDGE ( 'NONE', *, *, #140, .T. ) ;
#287 = CLOSED_SHELL ( 'NONE', ( #98, #144, #168, #187, #223 ) ) ;
#288 = FILL_AREA_STYLE_COLOUR ( '', #317 ) ;
#289 = DIRECTION ( 'NONE',  ( -1.228550797481991607E-16, 1.000000000000000000, -0.000000000000000000 ) ) ;
#290 = ORIENTED_EDGE ( 'NONE', *, *, #298, .F. ) ;
#291 = VECTOR ( 'NONE', #161, 39.37007874015748143 ) ;
#292 = AXIS2_PLACEMENT_3D ( 'NONE', #162, #305, #80 ) ;
#293 = ADVANCED_FACE ( 'NONE', ( #234 ), #136, .T. ) ;
#294 = DIRECTION ( 'NONE',  ( 0.000000000000000000, 0.000000000000000000, -1.000000000000000000 ) ) ;
#295 =( LENGTH_UNIT ( ) NAMED_UNIT ( * ) SI_UNIT ( $, .METRE. ) );
#296 = LENGTH_MEASURE_WITH_UNIT ( LENGTH_MEASURE( 0.02539999999999999897 ), #72 );
#297 = ORIENTED_EDGE ( 'NONE', *, *, #76, .F. ) ;
#298 = EDGE_CURVE ( 'NONE', #42, #189, #114, .T. ) ;
#299 = DIRECTION ( 'NONE',  ( 1.000000000000000000, 1.228550797481991607E-16, 0.000000000000000000 ) ) ;
#300 = DIRECTION ( 'NONE',  ( 0.000000000000000000, 0.000000000000000000, -1.000000000000000000 ) ) ;
#301 = AXIS2_PLACEMENT_3D ( 'NONE', #218, #320, #70 ) ;
#302 = CARTESIAN_POINT ( 'NONE',  ( 2.296212748401286185E-17, 0.000000000000000000, 0.1874999999999999167 ) ) ;
#303 = SURFACE_STYLE_USAGE ( .BOTH. , #129 ) ;
#304 = DIRECTION ( 'NONE',  ( -1.228550797481991607E-16, 1.000000000000000000, 0.000000000000000000 ) ) ;
#305 = DIRECTION ( 'NONE',  ( -1.228550797481991607E-16, 1.000000000000000000, -0.000000000000000000 ) ) ;
#306 = DIRECTION ( 'NONE',  ( -0.000000000000000000, -1.000000000000000000, -0.000000000000000000 ) ) ;
#307 = UNCERTAINTY_MEASURE_WITH_UNIT (LENGTH_MEASURE( 1.000000000000000082E-05 ), #174, 'distance_accuracy_value', 'NONE');
#308 = PRODUCT_RELATED_PRODUCT_CATEGORY ( 'part', '', ( #179 ) ) ;
#309 = CIRCLE ( 'NONE', #146, 0.1874999999999995004 ) ;
#310 = VECTOR ( 'NONE', #277, 39.37007874015748143 ) ;
#311 =( LENGTH_UNIT ( ) NAMED_UNIT ( * ) SI_UNIT ( $, .METRE. ) );
#312 = ORIENTED_EDGE ( 'NONE', *, *, #24, .T. ) ;
#313 = APPLICATION_CONTEXT ( 'automotive_design' ) ;
#314 = CIRCLE ( 'NONE', #301, 0.1874999999999999722 ) ;
#315 =( LENGTH_UNIT ( ) NAMED_UNIT ( * ) SI_UNIT ( $, .METRE. ) );
#316 = EDGE_CURVE ( 'NONE', #29, #12, #274, .T. ) ;
#317 = COLOUR_RGB ( '',0.7921568627450980005, 0.8196078431372548767, 0.9333333333333333481 ) ;
#318 = AXIS2_PLACEMENT_3D ( 'NONE', #246, #165, #97 ) ;
#319 = ORIENTED_EDGE ( 'NONE', *, *, #280, .F. ) ;
#320 = DIRECTION ( 'NONE',  ( -0.000000000000000000, -1.000000000000000000, -0.000000000000000000 ) ) ;
#321 = DIRECTION ( 'NONE',  ( -1.000000000000000000, 0.000000000000000000, 0.000000000000000000 ) ) ;
#322 = EDGE_CURVE ( 'NONE', #371, #177, #128, .T. ) ;
#323 = STYLED_ITEM ( 'NONE', ( #175 ), #144 ) ;
#324 =( GEOMETRIC_REPRESENTATION_CONTEXT ( 3 ) GLOBAL_UNCERTAINTY_ASSIGNED_CONTEXT ( ( #194 ) ) GLOBAL_UNIT_ASSIGNED_CONTEXT ( ( #325, #100, #197 ) ) REPRESENTATION_CONTEXT ( 'NONE', 'WORKASPACE' ) );
#325 =( CONVERSION_BASED_UNIT ( 'INCH', #368 ) LENGTH_UNIT ( ) NAMED_UNIT ( #173 ) );
#326 = EDGE_CURVE ( 'NONE', #89, #36, #176, .T. ) ;
#327 =( CONVERSION_BASED_UNIT ( 'INCH', #131 ) LENGTH_UNIT ( ) NAMED_UNIT ( #203 ) );
#328 = CARTESIAN_POINT ( 'NONE',  ( -0.1875000000000000278, 0.1875000000000000555, 2.296212748401287109E-17 ) ) ;
#329 = SURFACE_SIDE_STYLE ('',( #126 ) ) ;
#330 = CIRCLE ( 'NONE', #278, 0.1874999999999998057 ) ;
#331 = DIRECTION ( 'NONE',  ( -1.228550797481991607E-16, 1.000000000000000000, -0.000000000000000000 ) ) ;
#332 = CARTESIAN_POINT ( 'NONE',  ( -2.296212748401287726E-17, 0.1875000000000000278, 0.000000000000000000 ) ) ;
#333 = FILL_AREA_STYLE ('',( #258 ) ) ;
#334 = UNCERTAINTY_MEASURE_WITH_UNIT (LENGTH_MEASURE( 1.000000000000000082E-05 ), #44, 'distance_accuracy_value', 'NONE');
#335 = PRODUCT_DEFINITION ( 'UNKNOWN', '', #77, #200 ) ;
#336 = SURFACE_STYLE_FILL_AREA ( #333 ) ;
#337 = ORIENTED_EDGE ( 'NONE', *, *, #232, .F. ) ;
#338 = STYLED_ITEM ( 'NONE', ( #212 ), #98 ) ;
#339 = VECTOR ( 'NONE', #51, 39.37007874015748143 ) ;
#340 = ORIENTED_EDGE ( 'NONE', *, *, #153, .F. ) ;
#341 = CARTESIAN_POINT ( 'NONE',  ( 0.000000000000000000, 0.1875000000000000555, 0.000000000000000000 ) ) ;
#342 = PRODUCT_DEFINITION_SHAPE ( 'NONE', 'NONE',  #335 ) ;
#343 = CIRCLE ( 'NONE', #240, 0.1874999999999995004 ) ;
#344 = VECTOR ( 'NONE', #250, 39.37007874015748143 ) ;
#345 = VERTEX_POINT ( 'NONE', #361 ) ;
#346 = SHAPE_DEFINITION_REPRESENTATION ( #342, #96 ) ;
#347 = MANIFOLD_SOLID_BREP ( 'Revolve - Cutting Edge', #287 ) ;
#348 =( NAMED_UNIT ( * ) PLANE_ANGLE_UNIT ( ) SI_UNIT ( $, .RADIAN. ) );
#349 = ORIENTED_EDGE ( 'NONE', *, *, #316, .F. ) ;
#350 = DIRECTION ( 'NONE',  ( 0.000000000000000000, 0.000000000000000000, -1.000000000000000000 ) ) ;
#351 = ORIENTED_EDGE ( 'NONE', *, *, #198, .T. ) ;
#352 = EDGE_CURVE ( 'NONE', #171, #282, #38, .T. ) ;
#353 = LENGTH_MEASURE_WITH_UNIT ( LENGTH_MEASURE( 0.02539999999999999897 ), #295 );
#354 = SURFACE_STYLE_USAGE ( .BOTH. , #329 ) ;
#355 = PRESENTATION_LAYER_ASSIGNMENT (  '', '', ( #338 ) ) ;
#356 = CARTESIAN_POINT ( 'NONE',  ( -0.1874999999999994449, 3.000000000000000444, 0.000000000000000000 ) ) ;
#357 = AXIS2_PLACEMENT_3D ( 'NONE', #216, #261, #43 ) ;
#358 = ADVANCED_FACE ( 'NONE', ( #23 ), #359, .F. ) ;
#359 = PLANE ( 'NONE',  #214 ) ;
#360 = PLANE ( 'NONE',  #91 ) ;
#361 = CARTESIAN_POINT ( 'NONE',  ( 2.296212748401287109E-17, 0.1875000000000000555, 0.1874999999999999722 ) ) ;
#362 =( NAMED_UNIT ( * ) PLANE_ANGLE_UNIT ( ) SI_UNIT ( $, .RADIAN. ) );
#363 = CARTESIAN_POINT ( 'NONE',  ( 0.000000000000000000, 1.500000000000000222, 0.000000000000000000 ) ) ;
#364 = CYLINDRICAL_SURFACE ( 'NONE', #279, 0.1874999999999995837 ) ;
#365 = COLOUR_RGB ( '',1.000000000000000000, 0.000000000000000000, 0.000000000000000000 ) ;
#366 = LINE ( 'NONE', #302, #310 ) ;
#367 = PRESENTATION_STYLE_ASSIGNMENT (( #303 ) ) ;
#368 = LENGTH_MEASURE_WITH_UNIT ( LENGTH_MEASURE( 0.02539999999999999897 ), #275 );
#369 = SURFACE_STYLE_FILL_AREA ( #209 ) ;
#370 = SURFACE_SIDE_STYLE ('',( #257 ) ) ;
#371 = VERTEX_POINT ( 'NONE', #48 ) ;
#372 =( GEOMETRIC_REPRESENTATION_CONTEXT ( 3 ) GLOBAL_UNCERTAINTY_ASSIGNED_CONTEXT ( ( #307 ) ) GLOBAL_UNIT_ASSIGNED_CONTEXT ( ( #174, #135, #39 ) ) REPRESENTATION_CONTEXT ( 'NONE', 'WORKASPACE' ) );
#373 = FILL_AREA_STYLE_COLOUR ( '', #138 ) ;
ENDSEC;
END-ISO-10303-21;
