ISO-10303-21;
HEADER;
FILE_DESCRIPTION (( 'STEP AP214' ),
    '1' );
FILE_NAME ('83878.STEP',
    '2023-07-12T13:07:54',
    ( '' ),
    ( '' ),
    'SwSTEP 2.0',
    'SolidWorks 2023',
    '' );
FILE_SCHEMA (( 'AUTOMOTIVE_DESIGN' ));
ENDSEC;

DATA;
#1 = COLOUR_RGB ( '',0.7921568627450980005, 0.8196078431372548767, 0.9333333333333333481 ) ;
#2 = EDGE_CURVE ( 'NONE', #138, #97, #143, .T. ) ;
#3 = FACE_OUTER_BOUND ( 'NONE', #203, .T. ) ;
#4 =( CONVERSION_BASED_UNIT ( 'INCH', #58 ) LENGTH_UNIT ( ) NAMED_UNIT ( #123 ) );
#5 = CIRCLE ( 'NONE', #35, 0.09375000000000005551 ) ;
#6 =( NAMED_UNIT ( * ) SI_UNIT ( $, .STERADIAN. ) SOLID_ANGLE_UNIT ( ) );
#7 = UNCERTAINTY_MEASURE_WITH_UNIT (LENGTH_MEASURE( 1.000000000000000082E-05 ), #255, 'distance_accuracy_value', 'NONE');
#8 = PRESENTATION_STYLE_ASSIGNMENT (( #77 ) ) ;
#9 = CARTESIAN_POINT ( 'NONE',  ( -6.123233995736763571E-17, 2.000000000000000000, 0.000000000000000000 ) ) ;
#10 =( NAMED_UNIT ( * ) PLANE_ANGLE_UNIT ( ) SI_UNIT ( $, .RADIAN. ) );
#11 =( GEOMETRIC_REPRESENTATION_CONTEXT ( 3 ) GLOBAL_UNCERTAINTY_ASSIGNED_CONTEXT ( ( #237 ) ) GLOBAL_UNIT_ASSIGNED_CONTEXT ( ( #181, #135, #270 ) ) REPRESENTATION_CONTEXT ( 'NONE', 'WORKASPACE' ) );
#12 = LENGTH_MEASURE_WITH_UNIT ( LENGTH_MEASURE( 0.02539999999999999897 ), #248 );
#13 = CIRCLE ( 'NONE', #258, 0.09374999999999998612 ) ;
#14 = CYLINDRICAL_SURFACE ( 'NONE', #113, 0.09374999999999994449 ) ;
#15 = AXIS2_PLACEMENT_3D ( 'NONE', #157, #243, #174 ) ;
#16 = CARTESIAN_POINT ( 'NONE',  ( 0.09374999999999998612, 2.000000000000000000, 1.148106374200643555E-17 ) ) ;
#17 = ORIENTED_EDGE ( 'NONE', *, *, #96, .T. ) ;
#18 = DIRECTION ( 'NONE',  ( -1.232950076816922318E-16, 1.000000000000000000, -0.000000000000000000 ) ) ;
#19 = DIRECTION ( 'NONE',  ( 2.698347612634933429E-17, -1.000000000000000000, -0.000000000000000000 ) ) ;
#20 = APPLICATION_CONTEXT ( 'automotive_design' ) ;
#21 = FACE_OUTER_BOUND ( 'NONE', #187, .T. ) ;
#22 = ORIENTED_EDGE ( 'NONE', *, *, #226, .T. ) ;
#23 = ORIENTED_EDGE ( 'NONE', *, *, #156, .T. ) ;
#24 = SURFACE_STYLE_FILL_AREA ( #219 ) ;
#25 = DIMENSIONAL_EXPONENTS ( 1.000000000000000000, 0.000000000000000000, 0.000000000000000000, 0.000000000000000000, 0.000000000000000000, 0.000000000000000000, 0.000000000000000000 ) ;
#26 = DIRECTION ( 'NONE',  ( 1.000000000000000000, 2.698347612634933429E-17, 0.000000000000000000 ) ) ;
#27 = PRESENTATION_STYLE_ASSIGNMENT (( #235 ) ) ;
#28 = DIMENSIONAL_EXPONENTS ( 1.000000000000000000, 0.000000000000000000, 0.000000000000000000, 0.000000000000000000, 0.000000000000000000, 0.000000000000000000, 0.000000000000000000 ) ;
#29 = VECTOR ( 'NONE', #148, 39.37007874015748854 ) ;
#30 = DIRECTION ( 'NONE',  ( -1.232950076816922318E-16, 1.000000000000000000, -0.000000000000000000 ) ) ;
#31 = LINE ( 'NONE', #241, #136 ) ;
#32 = SURFACE_STYLE_USAGE ( .BOTH. , #133 ) ;
#33 = LENGTH_MEASURE_WITH_UNIT ( LENGTH_MEASURE( 0.02539999999999999897 ), #196 );
#34 = ADVANCED_FACE ( 'NONE', ( #250 ), #68, .F. ) ;
#35 = AXIS2_PLACEMENT_3D ( 'NONE', #9, #124, #290 ) ;
#36 = DIRECTION ( 'NONE',  ( -1.000000000000000000, -2.698347612634933429E-17, 0.000000000000000000 ) ) ;
#37 = MECHANICAL_DESIGN_GEOMETRIC_PRESENTATION_REPRESENTATION (  '', ( #100 ), #88 ) ;
#38 =( LENGTH_UNIT ( ) NAMED_UNIT ( * ) SI_UNIT ( $, .METRE. ) );
#39 = CYLINDRICAL_SURFACE ( 'NONE', #242, 0.09374999999999994449 ) ;
#40 = DIRECTION ( 'NONE',  ( 1.000000000000000000, 0.000000000000000000, 0.000000000000000000 ) ) ;
#41 =( NAMED_UNIT ( * ) PLANE_ANGLE_UNIT ( ) SI_UNIT ( $, .RADIAN. ) );
#42 = VECTOR ( 'NONE', #30, 39.37007874015748143 ) ;
#43 = CARTESIAN_POINT ( 'NONE',  ( -6.123233995736763571E-17, 2.000000000000000000, 0.000000000000000000 ) ) ;
#44 = CIRCLE ( 'NONE', #297, 0.02500000000000000139 ) ;
#45 = DIRECTION ( 'NONE',  ( 2.698347612634933429E-17, -1.000000000000000000, -0.000000000000000000 ) ) ;
#46 = CARTESIAN_POINT ( 'NONE',  ( 1.768811436279005459E-16, 0.06874999999999964473, 0.000000000000000000 ) ) ;
#47 = PLANE ( 'NONE',  #94 ) ;
#48 = DIRECTION ( 'NONE',  ( 1.000000000000000000, 0.000000000000000000, 0.000000000000000000 ) ) ;
#49 = STYLED_ITEM ( 'NONE', ( #147 ), #103 ) ;
#50 = CARTESIAN_POINT ( 'NONE',  ( 0.000000000000000000, 0.000000000000000000, 0.000000000000000000 ) ) ;
#51 = DIRECTION ( 'NONE',  ( 1.000000000000000000, 2.698347612634933429E-17, 0.000000000000000000 ) ) ;
#52 = EDGE_CURVE ( 'NONE', #213, #120, #69, .T. ) ;
#53 = DIMENSIONAL_EXPONENTS ( 1.000000000000000000, 0.000000000000000000, 0.000000000000000000, 0.000000000000000000, 0.000000000000000000, 0.000000000000000000, 0.000000000000000000 ) ;
#54 = FILL_AREA_STYLE_COLOUR ( '', #71 ) ;
#55 =( GEOMETRIC_REPRESENTATION_CONTEXT ( 3 ) GLOBAL_UNCERTAINTY_ASSIGNED_CONTEXT ( ( #7 ) ) GLOBAL_UNIT_ASSIGNED_CONTEXT ( ( #255, #145, #188 ) ) REPRESENTATION_CONTEXT ( 'NONE', 'WORKASPACE' ) );
#56 = FILL_AREA_STYLE ('',( #171 ) ) ;
#57 = DIRECTION ( 'NONE',  ( 2.698347612634933429E-17, -1.000000000000000000, -0.000000000000000000 ) ) ;
#58 = LENGTH_MEASURE_WITH_UNIT ( LENGTH_MEASURE( 0.02539999999999999897 ), #176 );
#59 = EDGE_CURVE ( 'NONE', #162, #232, #233, .T. ) ;
#60 = UNCERTAINTY_MEASURE_WITH_UNIT (LENGTH_MEASURE( 1.000000000000000082E-05 ), #4, 'distance_accuracy_value', 'NONE');
#61 = ADVANCED_FACE ( 'NONE', ( #160 ), #14, .T. ) ;
#62 = FILL_AREA_STYLE_COLOUR ( '', #259 ) ;
#63 = CARTESIAN_POINT ( 'NONE',  ( -1.855113983686509741E-18, 0.06874999999999974187, 0.000000000000000000 ) ) ;
#64 = PRESENTATION_LAYER_ASSIGNMENT (  '', '', ( #304 ) ) ;
#65 =( NAMED_UNIT ( * ) SI_UNIT ( $, .STERADIAN. ) SOLID_ANGLE_UNIT ( ) );
#66 =( NAMED_UNIT ( * ) SI_UNIT ( $, .STERADIAN. ) SOLID_ANGLE_UNIT ( ) );
#67 = DIRECTION ( 'NONE',  ( -2.698347612634933429E-17, 1.000000000000000000, 0.000000000000000000 ) ) ;
#68 = PLANE ( 'NONE',  #247 ) ;
#69 = CIRCLE ( 'NONE', #126, 0.09374999999999998612 ) ;
#70 = ORIENTED_EDGE ( 'NONE', *, *, #2, .T. ) ;
#71 = COLOUR_RGB ( '',1.000000000000000000, 0.000000000000000000, 0.000000000000000000 ) ;
#72 = CARTESIAN_POINT ( 'NONE',  ( 0.09374999999999998612, 0.06874999999999974187, 1.148106374200643401E-17 ) ) ;
#73 = VERTEX_POINT ( 'NONE', #186 ) ;
#74 = DIRECTION ( 'NONE',  ( 2.698347612634933429E-17, -1.000000000000000000, -0.000000000000000000 ) ) ;
#75 = ORIENTED_EDGE ( 'NONE', *, *, #271, .F. ) ;
#76 = PRESENTATION_LAYER_ASSIGNMENT (  '', '', ( #265 ) ) ;
#77 = SURFACE_STYLE_USAGE ( .BOTH. , #257 ) ;
#78 = SURFACE_STYLE_FILL_AREA ( #56 ) ;
#79 = DIRECTION ( 'NONE',  ( -0.7071067811865486830, 0.7071067811865462405, 0.000000000000000000 ) ) ;
#80 = UNCERTAINTY_MEASURE_WITH_UNIT (LENGTH_MEASURE( 1.000000000000000082E-05 ), #293, 'distance_accuracy_value', 'NONE');
#81 = CLOSED_SHELL ( 'NONE', ( #260, #34, #61, #230 ) ) ;
#82 = PRODUCT_DEFINITION_FORMATION_WITH_SPECIFIED_SOURCE ( 'ANY', '', #152, .NOT_KNOWN. ) ;
#83 =( NAMED_UNIT ( * ) SI_UNIT ( $, .STERADIAN. ) SOLID_ANGLE_UNIT ( ) );
#84 = EDGE_CURVE ( 'NONE', #138, #207, #294, .T. ) ;
#85 = FILL_AREA_STYLE ('',( #106 ) ) ;
#86 = PRODUCT_DEFINITION_CONTEXT ( 'detailed design', #20, 'design' ) ;
#87 =( CONVERSION_BASED_UNIT ( 'INCH', #222 ) LENGTH_UNIT ( ) NAMED_UNIT ( #25 ) );
#88 =( GEOMETRIC_REPRESENTATION_CONTEXT ( 3 ) GLOBAL_UNCERTAINTY_ASSIGNED_CONTEXT ( ( #177 ) ) GLOBAL_UNIT_ASSIGNED_CONTEXT ( ( #131, #10, #83 ) ) REPRESENTATION_CONTEXT ( 'NONE', 'WORKASPACE' ) );
#89 = SHAPE_DEFINITION_REPRESENTATION ( #286, #216 ) ;
#90 = DIRECTION ( 'NONE',  ( 1.000000000000000000, 0.000000000000000000, 0.000000000000000000 ) ) ;
#91 = DIRECTION ( 'NONE',  ( 1.000000000000000000, 1.232950076816922318E-16, 0.000000000000000000 ) ) ;
#92 = EDGE_LOOP ( 'NONE', ( #301, #215 ) ) ;
#93 = FILL_AREA_STYLE ('',( #298 ) ) ;
#94 = AXIS2_PLACEMENT_3D ( 'NONE', #183, #163, #91 ) ;
#95 = ORIENTED_EDGE ( 'NONE', *, *, #288, .T. ) ;
#96 = EDGE_CURVE ( 'NONE', #207, #73, #5, .T. ) ;
#97 = VERTEX_POINT ( 'NONE', #105 ) ;
#98 = ORIENTED_EDGE ( 'NONE', *, *, #59, .T. ) ;
#99 = PRODUCT_DEFINITION ( 'UNKNOWN', '', #82, #86 ) ;
#100 = STYLED_ITEM ( 'NONE', ( #27 ), #289 ) ;
#101 =( LENGTH_UNIT ( ) NAMED_UNIT ( * ) SI_UNIT ( $, .METRE. ) );
#102 = APPLICATION_CONTEXT ( 'automotive_design' ) ;
#103 = MANIFOLD_SOLID_BREP ( 'Revolve - Cutting Edge', #269 ) ;
#104 = SURFACE_STYLE_USAGE ( .BOTH. , #128 ) ;
#105 = CARTESIAN_POINT ( 'NONE',  ( -0.09374999999999965306, 0.06874999999999963085, 0.000000000000000000 ) ) ;
#106 = FILL_AREA_STYLE_COLOUR ( '', #1 ) ;
#107 = STYLED_ITEM ( 'NONE', ( #267 ), #205 ) ;
#108 = AXIS2_PLACEMENT_3D ( 'NONE', #63, #67, #227 ) ;
#109 = CARTESIAN_POINT ( 'NONE',  ( 0.09374999999999987510, 2.000000000000000000, 1.148106374200642938E-17 ) ) ;
#110 =( LENGTH_UNIT ( ) NAMED_UNIT ( * ) SI_UNIT ( $, .METRE. ) );
#111 = CARTESIAN_POINT ( 'NONE',  ( -6.123233995736763571E-17, 2.000000000000000000, 0.000000000000000000 ) ) ;
#112 = CARTESIAN_POINT ( 'NONE',  ( -0.02500000000000000139, -1.349173806317466830E-18, 0.000000000000000000 ) ) ;
#113 = AXIS2_PLACEMENT_3D ( 'NONE', #43, #279, #209 ) ;
#114 = ORIENTED_EDGE ( 'NONE', *, *, #84, .F. ) ;
#115 = FACE_OUTER_BOUND ( 'NONE', #184, .T. ) ;
#116 = ORIENTED_EDGE ( 'NONE', *, *, #96, .F. ) ;
#117 = PLANE ( 'NONE',  #108 ) ;
#118 = DIRECTION ( 'NONE',  ( -1.000000000000000000, -1.232950076816922318E-16, 0.000000000000000000 ) ) ;
#119 = MECHANICAL_DESIGN_GEOMETRIC_PRESENTATION_REPRESENTATION (  '', ( #107 ), #11 ) ;
#120 = VERTEX_POINT ( 'NONE', #239 ) ;
#121 = ORIENTED_EDGE ( 'NONE', *, *, #201, .T. ) ;
#122 = PRODUCT_RELATED_PRODUCT_CATEGORY ( 'part', '', ( #152 ) ) ;
#123 = DIMENSIONAL_EXPONENTS ( 1.000000000000000000, 0.000000000000000000, 0.000000000000000000, 0.000000000000000000, 0.000000000000000000, 0.000000000000000000, 0.000000000000000000 ) ;
#124 = DIRECTION ( 'NONE',  ( -1.232950076816922318E-16, 1.000000000000000000, -0.000000000000000000 ) ) ;
#125 =( LENGTH_UNIT ( ) NAMED_UNIT ( * ) SI_UNIT ( $, .METRE. ) );
#126 = AXIS2_PLACEMENT_3D ( 'NONE', #189, #281, #90 ) ;
#127 = VECTOR ( 'NONE', #229, 39.37007874015748143 ) ;
#128 = SURFACE_SIDE_STYLE ('',( #175 ) ) ;
#129 = CARTESIAN_POINT ( 'NONE',  ( 0.09374999999999998612, 0.06874999999999964473, 1.148106374200643555E-17 ) ) ;
#130 = CARTESIAN_POINT ( 'NONE',  ( 0.02500000000000000139, 0.000000000000000000, 3.061616997868383172E-18 ) ) ;
#131 =( CONVERSION_BASED_UNIT ( 'INCH', #295 ) LENGTH_UNIT ( ) NAMED_UNIT ( #308 ) );
#132 = COLOUR_RGB ( '',1.000000000000000000, 0.000000000000000000, 0.000000000000000000 ) ;
#133 = SURFACE_SIDE_STYLE ('',( #245 ) ) ;
#134 = FACE_OUTER_BOUND ( 'NONE', #249, .T. ) ;
#135 =( NAMED_UNIT ( * ) PLANE_ANGLE_UNIT ( ) SI_UNIT ( $, .RADIAN. ) );
#136 = VECTOR ( 'NONE', #79, 39.37007874015748854 ) ;
#137 =( GEOMETRIC_REPRESENTATION_CONTEXT ( 3 ) GLOBAL_UNCERTAINTY_ASSIGNED_CONTEXT ( ( #80 ) ) GLOBAL_UNIT_ASSIGNED_CONTEXT ( ( #293, #41, #305 ) ) REPRESENTATION_CONTEXT ( 'NONE', 'WORKASPACE' ) );
#138 = VERTEX_POINT ( 'NONE', #129 ) ;
#139 = PRESENTATION_STYLE_ASSIGNMENT (( #277 ) ) ;
#140 = CARTESIAN_POINT ( 'NONE',  ( 1.768811436279005459E-16, 0.06874999999999974187, 0.000000000000000000 ) ) ;
#141 = DIRECTION ( 'NONE',  ( -1.232950076816922318E-16, 1.000000000000000000, -0.000000000000000000 ) ) ;
#142 = ORIENTED_EDGE ( 'NONE', *, *, #271, .T. ) ;
#143 = CIRCLE ( 'NONE', #284, 0.09374999999999981959 ) ;
#144 = ORIENTED_EDGE ( 'NONE', *, *, #59, .F. ) ;
#145 =( NAMED_UNIT ( * ) PLANE_ANGLE_UNIT ( ) SI_UNIT ( $, .RADIAN. ) );
#146 = MECHANICAL_DESIGN_GEOMETRIC_PRESENTATION_REPRESENTATION (  '', ( #223 ), #55 ) ;
#147 = PRESENTATION_STYLE_ASSIGNMENT (( #173 ) ) ;
#148 = DIRECTION ( 'NONE',  ( 0.7071067811865486830, 0.7071067811865462405, 8.659560562354947649E-17 ) ) ;
#149 = EDGE_CURVE ( 'NONE', #232, #120, #31, .T. ) ;
#150 = PRESENTATION_LAYER_ASSIGNMENT (  '', '', ( #49 ) ) ;
#151 =( GEOMETRIC_REPRESENTATION_CONTEXT ( 3 ) GLOBAL_UNCERTAINTY_ASSIGNED_CONTEXT ( ( #263 ) ) GLOBAL_UNIT_ASSIGNED_CONTEXT ( ( #87, #264, #65 ) ) REPRESENTATION_CONTEXT ( 'NONE', 'WORKASPACE' ) );
#152 = PRODUCT ( '83878', '83878', '', ( #168 ) ) ;
#153 = DIRECTION ( 'NONE',  ( -1.232950076816922318E-16, 1.000000000000000000, -0.000000000000000000 ) ) ;
#154 = SURFACE_STYLE_FILL_AREA ( #261 ) ;
#155 = AXIS2_PLACEMENT_3D ( 'NONE', #210, #19, #51 ) ;
#156 = EDGE_CURVE ( 'NONE', #97, #138, #296, .T. ) ;
#157 = CARTESIAN_POINT ( 'NONE',  ( 1.820269959653161649E-35, -6.745869031587334151E-19, 0.000000000000000000 ) ) ;
#158 = CARTESIAN_POINT ( 'NONE',  ( -1.855113983686509741E-18, 0.06874999999999974187, 0.000000000000000000 ) ) ;
#159 =( CONVERSION_BASED_UNIT ( 'INCH', #12 ) LENGTH_UNIT ( ) NAMED_UNIT ( #256 ) );
#160 = FACE_OUTER_BOUND ( 'NONE', #246, .T. ) ;
#161 = PRESENTATION_LAYER_ASSIGNMENT (  '', '', ( #100 ) ) ;
#162 = VERTEX_POINT ( 'NONE', #292 ) ;
#163 = DIRECTION ( 'NONE',  ( 1.232950076816922318E-16, -1.000000000000000000, 0.000000000000000000 ) ) ;
#164 = APPLICATION_PROTOCOL_DEFINITION ( 'draft international standard', 'automotive_design', 1998, #20 ) ;
#165 = DIRECTION ( 'NONE',  ( -1.232950076816922318E-16, 1.000000000000000000, -0.000000000000000000 ) ) ;
#166 = LENGTH_MEASURE_WITH_UNIT ( LENGTH_MEASURE( 0.02539999999999999897 ), #101 );
#167 = ORIENTED_EDGE ( 'NONE', *, *, #84, .T. ) ;
#168 = PRODUCT_CONTEXT ( 'NONE', #102, 'mechanical' ) ;
#169 = AXIS2_PLACEMENT_3D ( 'NONE', #192, #57, #287 ) ;
#170 = ORIENTED_EDGE ( 'NONE', *, *, #288, .F. ) ;
#171 = FILL_AREA_STYLE_COLOUR ( '', #191 ) ;
#172 = SURFACE_SIDE_STYLE ('',( #78 ) ) ;
#173 = SURFACE_STYLE_USAGE ( .BOTH. , #197 ) ;
#174 = DIRECTION ( 'NONE',  ( -1.000000000000000000, -2.698347612634933429E-17, 0.000000000000000000 ) ) ;
#175 = SURFACE_STYLE_FILL_AREA ( #85 ) ;
#176 =( LENGTH_UNIT ( ) NAMED_UNIT ( * ) SI_UNIT ( $, .METRE. ) );
#177 = UNCERTAINTY_MEASURE_WITH_UNIT (LENGTH_MEASURE( 1.000000000000000082E-05 ), #131, 'distance_accuracy_value', 'NONE');
#178 = AXIS2_PLACEMENT_3D ( 'NONE', #221, #153, #262 ) ;
#179 = SURFACE_STYLE_FILL_AREA ( #93 ) ;
#180 = FILL_AREA_STYLE ('',( #62 ) ) ;
#181 =( CONVERSION_BASED_UNIT ( 'INCH', #33 ) LENGTH_UNIT ( ) NAMED_UNIT ( #53 ) );
#182 = ORIENTED_EDGE ( 'NONE', *, *, #236, .T. ) ;
#183 = CARTESIAN_POINT ( 'NONE',  ( 0.09374999999999998612, 2.000000000000000000, 0.000000000000000000 ) ) ;
#184 = EDGE_LOOP ( 'NONE', ( #23, #167, #190, #75 ) ) ;
#185 = AXIS2_PLACEMENT_3D ( 'NONE', #224, #18, #302 ) ;
#186 = CARTESIAN_POINT ( 'NONE',  ( -0.09375000000000012490, 2.000000000000000000, 0.000000000000000000 ) ) ;
#187 = EDGE_LOOP ( 'NONE', ( #95, #98 ) ) ;
#188 =( NAMED_UNIT ( * ) SI_UNIT ( $, .STERADIAN. ) SOLID_ANGLE_UNIT ( ) );
#189 = CARTESIAN_POINT ( 'NONE',  ( -1.855113983686509741E-18, 0.06874999999999974187, 0.000000000000000000 ) ) ;
#190 = ORIENTED_EDGE ( 'NONE', *, *, #226, .F. ) ;
#191 = COLOUR_RGB ( '',1.000000000000000000, 0.000000000000000000, 0.000000000000000000 ) ;
#192 = CARTESIAN_POINT ( 'NONE',  ( 9.101349798265808245E-36, -3.372934515793667075E-19, 0.000000000000000000 ) ) ;
#193 = CARTESIAN_POINT ( 'NONE',  ( 1.820269959653161649E-35, -6.745869031587334151E-19, 0.000000000000000000 ) ) ;
#194 = MECHANICAL_DESIGN_GEOMETRIC_PRESENTATION_REPRESENTATION (  '', ( #49 ), #212 ) ;
#195 =( NAMED_UNIT ( * ) PLANE_ANGLE_UNIT ( ) SI_UNIT ( $, .RADIAN. ) );
#196 =( LENGTH_UNIT ( ) NAMED_UNIT ( * ) SI_UNIT ( $, .METRE. ) );
#197 = SURFACE_SIDE_STYLE ('',( #154 ) ) ;
#198 = LENGTH_MEASURE_WITH_UNIT ( LENGTH_MEASURE( 0.02539999999999999897 ), #38 );
#199 = PRESENTATION_STYLE_ASSIGNMENT (( #32 ) ) ;
#200 = COLOUR_RGB ( '',0.7921568627450980005, 0.8196078431372548767, 0.9333333333333333481 ) ;
#201 = EDGE_CURVE ( 'NONE', #162, #213, #240, .T. ) ;
#202 = AXIS2_PLACEMENT_3D ( 'NONE', #193, #272, #36 ) ;
#203 = EDGE_LOOP ( 'NONE', ( #144, #121, #273, #283 ) ) ;
#204 = DIRECTION ( 'NONE',  ( -1.000000000000000000, 0.000000000000000000, 0.000000000000000000 ) ) ;
#205 = MANIFOLD_SOLID_BREP ( 'Revolve - Tool Body (Tipped Off)', #81 ) ;
#206 = DIRECTION ( 'NONE',  ( 0.000000000000000000, 0.000000000000000000, 1.000000000000000000 ) ) ;
#207 = VERTEX_POINT ( 'NONE', #16 ) ;
#208 = CARTESIAN_POINT ( 'NONE',  ( -0.09375000000000001388, 2.000000000000000000, 0.000000000000000000 ) ) ;
#209 = DIRECTION ( 'NONE',  ( -1.000000000000000000, 0.000000000000000000, 0.000000000000000000 ) ) ;
#210 = CARTESIAN_POINT ( 'NONE',  ( 1.820269959653161649E-35, -6.745869031587334151E-19, 0.000000000000000000 ) ) ;
#211 = PLANE ( 'NONE',  #169 ) ;
#212 =( GEOMETRIC_REPRESENTATION_CONTEXT ( 3 ) GLOBAL_UNCERTAINTY_ASSIGNED_CONTEXT ( ( #60 ) ) GLOBAL_UNIT_ASSIGNED_CONTEXT ( ( #4, #195, #6 ) ) REPRESENTATION_CONTEXT ( 'NONE', 'WORKASPACE' ) );
#213 = VERTEX_POINT ( 'NONE', #72 ) ;
#214 = APPLICATION_PROTOCOL_DEFINITION ( 'draft international standard', 'automotive_design', 1998, #102 ) ;
#215 = ORIENTED_EDGE ( 'NONE', *, *, #2, .F. ) ;
#216 = ADVANCED_BREP_SHAPE_REPRESENTATION ( '83878', ( #103, #205, #218 ), #137 ) ;
#217 = CIRCLE ( 'NONE', #185, 0.09375000000000005551 ) ;
#218 = AXIS2_PLACEMENT_3D ( 'NONE', #50, #206, #48 ) ;
#219 = FILL_AREA_STYLE ('',( #54 ) ) ;
#220 = CARTESIAN_POINT ( 'NONE',  ( 1.820269959653161649E-35, -6.745869031587334151E-19, 0.000000000000000000 ) ) ;
#221 = CARTESIAN_POINT ( 'NONE',  ( 1.768811436279005459E-16, 0.06874999999999964473, 0.000000000000000000 ) ) ;
#222 = LENGTH_MEASURE_WITH_UNIT ( LENGTH_MEASURE( 0.02539999999999999897 ), #110 );
#223 = STYLED_ITEM ( 'NONE', ( #8 ), #282 ) ;
#224 = CARTESIAN_POINT ( 'NONE',  ( -6.123233995736763571E-17, 2.000000000000000000, 0.000000000000000000 ) ) ;
#225 = FACE_OUTER_BOUND ( 'NONE', #251, .T. ) ;
#226 = EDGE_CURVE ( 'NONE', #73, #207, #217, .T. ) ;
#227 = DIRECTION ( 'NONE',  ( -1.000000000000000000, -2.698347612634933429E-17, 0.000000000000000000 ) ) ;
#228 = DIRECTION ( 'NONE',  ( -1.000000000000000000, -9.106159978880894651E-17, 0.000000000000000000 ) ) ;
#229 = DIRECTION ( 'NONE',  ( -1.232950076816922318E-16, 1.000000000000000000, -0.000000000000000000 ) ) ;
#230 = ADVANCED_FACE ( 'NONE', ( #134 ), #47, .F. ) ;
#231 = MECHANICAL_DESIGN_GEOMETRIC_PRESENTATION_REPRESENTATION (  '', ( #304 ), #234 ) ;
#232 = VERTEX_POINT ( 'NONE', #112 ) ;
#233 = CIRCLE ( 'NONE', #155, 0.02500000000000000139 ) ;
#234 =( GEOMETRIC_REPRESENTATION_CONTEXT ( 3 ) GLOBAL_UNCERTAINTY_ASSIGNED_CONTEXT ( ( #291 ) ) GLOBAL_UNIT_ASSIGNED_CONTEXT ( ( #159, #274, #66 ) ) REPRESENTATION_CONTEXT ( 'NONE', 'WORKASPACE' ) );
#235 = SURFACE_STYLE_USAGE ( .BOTH. , #172 ) ;
#236 = EDGE_CURVE ( 'NONE', #120, #213, #13, .T. ) ;
#237 = UNCERTAINTY_MEASURE_WITH_UNIT (LENGTH_MEASURE( 1.000000000000000082E-05 ), #181, 'distance_accuracy_value', 'NONE');
#238 = MECHANICAL_DESIGN_GEOMETRIC_PRESENTATION_REPRESENTATION (  '', ( #265 ), #151 ) ;
#239 = CARTESIAN_POINT ( 'NONE',  ( -0.09374999999999998612, 0.06874999999999974187, 0.000000000000000000 ) ) ;
#240 = LINE ( 'NONE', #130, #29 ) ;
#241 = CARTESIAN_POINT ( 'NONE',  ( -0.02500000000000000139, -1.349173806317466830E-18, 0.000000000000000000 ) ) ;
#242 = AXIS2_PLACEMENT_3D ( 'NONE', #111, #141, #204 ) ;
#243 = DIRECTION ( 'NONE',  ( -2.698347612634933429E-17, 1.000000000000000000, 0.000000000000000000 ) ) ;
#244 = SURFACE_SIDE_STYLE ('',( #179 ) ) ;
#245 = SURFACE_STYLE_FILL_AREA ( #180 ) ;
#246 = EDGE_LOOP ( 'NONE', ( #114, #70, #142, #116 ) ) ;
#247 = AXIS2_PLACEMENT_3D ( 'NONE', #140, #254, #118 ) ;
#248 =( LENGTH_UNIT ( ) NAMED_UNIT ( * ) SI_UNIT ( $, .METRE. ) );
#249 = EDGE_LOOP ( 'NONE', ( #22, #17 ) ) ;
#250 = FACE_OUTER_BOUND ( 'NONE', #92, .T. ) ;
#251 = EDGE_LOOP ( 'NONE', ( #275, #303 ) ) ;
#252 = CONICAL_SURFACE ( 'NONE', #202, 0.02500000000000000139, 0.7853981633974500554 ) ;
#253 = ADVANCED_FACE ( 'NONE', ( #225 ), #117, .T. ) ;
#254 = DIRECTION ( 'NONE',  ( -1.232950076816922318E-16, 1.000000000000000000, 0.000000000000000000 ) ) ;
#255 =( CONVERSION_BASED_UNIT ( 'INCH', #166 ) LENGTH_UNIT ( ) NAMED_UNIT ( #28 ) );
#256 = DIMENSIONAL_EXPONENTS ( 1.000000000000000000, 0.000000000000000000, 0.000000000000000000, 0.000000000000000000, 0.000000000000000000, 0.000000000000000000, 0.000000000000000000 ) ;
#257 = SURFACE_SIDE_STYLE ('',( #24 ) ) ;
#258 = AXIS2_PLACEMENT_3D ( 'NONE', #158, #45, #40 ) ;
#259 = COLOUR_RGB ( '',1.000000000000000000, 0.000000000000000000, 0.000000000000000000 ) ;
#260 = ADVANCED_FACE ( 'NONE', ( #115 ), #39, .T. ) ;
#261 = FILL_AREA_STYLE ('',( #266 ) ) ;
#262 = DIRECTION ( 'NONE',  ( -1.000000000000000000, -9.106159978880894651E-17, 0.000000000000000000 ) ) ;
#263 = UNCERTAINTY_MEASURE_WITH_UNIT (LENGTH_MEASURE( 1.000000000000000082E-05 ), #87, 'distance_accuracy_value', 'NONE');
#264 =( NAMED_UNIT ( * ) PLANE_ANGLE_UNIT ( ) SI_UNIT ( $, .RADIAN. ) );
#265 = STYLED_ITEM ( 'NONE', ( #199 ), #309 ) ;
#266 = FILL_AREA_STYLE_COLOUR ( '', #200 ) ;
#267 = PRESENTATION_STYLE_ASSIGNMENT (( #104 ) ) ;
#268 = FACE_OUTER_BOUND ( 'NONE', #299, .T. ) ;
#269 = CLOSED_SHELL ( 'NONE', ( #289, #253, #309, #282 ) ) ;
#270 =( NAMED_UNIT ( * ) SI_UNIT ( $, .STERADIAN. ) SOLID_ANGLE_UNIT ( ) );
#271 = EDGE_CURVE ( 'NONE', #97, #73, #300, .T. ) ;
#272 = DIRECTION ( 'NONE',  ( -2.698347612634933429E-17, 1.000000000000000000, 0.000000000000000000 ) ) ;
#273 = ORIENTED_EDGE ( 'NONE', *, *, #52, .T. ) ;
#274 =( NAMED_UNIT ( * ) PLANE_ANGLE_UNIT ( ) SI_UNIT ( $, .RADIAN. ) );
#275 = ORIENTED_EDGE ( 'NONE', *, *, #236, .F. ) ;
#276 = PRESENTATION_LAYER_ASSIGNMENT (  '', '', ( #107 ) ) ;
#277 = SURFACE_STYLE_USAGE ( .BOTH. , #244 ) ;
#278 = PRESENTATION_LAYER_ASSIGNMENT (  '', '', ( #223 ) ) ;
#279 = DIRECTION ( 'NONE',  ( -1.232950076816922318E-16, 1.000000000000000000, -0.000000000000000000 ) ) ;
#280 = DIMENSIONAL_EXPONENTS ( 1.000000000000000000, 0.000000000000000000, 0.000000000000000000, 0.000000000000000000, 0.000000000000000000, 0.000000000000000000, 0.000000000000000000 ) ;
#281 = DIRECTION ( 'NONE',  ( 2.698347612634933429E-17, -1.000000000000000000, -0.000000000000000000 ) ) ;
#282 = ADVANCED_FACE ( 'NONE', ( #21 ), #211, .T. ) ;
#283 = ORIENTED_EDGE ( 'NONE', *, *, #149, .F. ) ;
#284 = AXIS2_PLACEMENT_3D ( 'NONE', #46, #165, #228 ) ;
#285 = CONICAL_SURFACE ( 'NONE', #15, 0.02500000000000000139, 0.7853981633974500554 ) ;
#286 = PRODUCT_DEFINITION_SHAPE ( 'NONE', 'NONE',  #99 ) ;
#287 = DIRECTION ( 'NONE',  ( 1.000000000000000000, 2.698347612634933429E-17, 0.000000000000000000 ) ) ;
#288 = EDGE_CURVE ( 'NONE', #232, #162, #44, .T. ) ;
#289 = ADVANCED_FACE ( 'NONE', ( #3 ), #252, .T. ) ;
#290 = DIRECTION ( 'NONE',  ( -1.000000000000000000, 0.000000000000000000, 0.000000000000000000 ) ) ;
#291 = UNCERTAINTY_MEASURE_WITH_UNIT (LENGTH_MEASURE( 1.000000000000000082E-05 ), #159, 'distance_accuracy_value', 'NONE');
#292 = CARTESIAN_POINT ( 'NONE',  ( 0.02500000000000000139, 0.000000000000000000, 7.271340369937408974E-18 ) ) ;
#293 =( CONVERSION_BASED_UNIT ( 'INCH', #198 ) LENGTH_UNIT ( ) NAMED_UNIT ( #280 ) );
#294 = LINE ( 'NONE', #109, #42 ) ;
#295 = LENGTH_MEASURE_WITH_UNIT ( LENGTH_MEASURE( 0.02539999999999999897 ), #125 );
#296 = CIRCLE ( 'NONE', #178, 0.09374999999999981959 ) ;
#297 = AXIS2_PLACEMENT_3D ( 'NONE', #220, #74, #26 ) ;
#298 = FILL_AREA_STYLE_COLOUR ( '', #132 ) ;
#299 = EDGE_LOOP ( 'NONE', ( #306, #170, #307, #182 ) ) ;
#300 = LINE ( 'NONE', #208, #127 ) ;
#301 = ORIENTED_EDGE ( 'NONE', *, *, #156, .F. ) ;
#302 = DIRECTION ( 'NONE',  ( -1.000000000000000000, 0.000000000000000000, 0.000000000000000000 ) ) ;
#303 = ORIENTED_EDGE ( 'NONE', *, *, #52, .F. ) ;
#304 = STYLED_ITEM ( 'NONE', ( #139 ), #253 ) ;
#305 =( NAMED_UNIT ( * ) SI_UNIT ( $, .STERADIAN. ) SOLID_ANGLE_UNIT ( ) );
#306 = ORIENTED_EDGE ( 'NONE', *, *, #201, .F. ) ;
#307 = ORIENTED_EDGE ( 'NONE', *, *, #149, .T. ) ;
#308 = DIMENSIONAL_EXPONENTS ( 1.000000000000000000, 0.000000000000000000, 0.000000000000000000, 0.000000000000000000, 0.000000000000000000, 0.000000000000000000, 0.000000000000000000 ) ;
#309 = ADVANCED_FACE ( 'NONE', ( #268 ), #285, .T. ) ;
ENDSEC;
END-ISO-10303-21;
