ISO-10303-21;
HEADER;
FILE_DESCRIPTION (( 'STEP AP214' ),
    '1' );
FILE_NAME ('Micro_RNC-250-145.STEP',
    '2021-09-03T17:35:15',
    ( '' ),
    ( '' ),
    'SwSTEP 2.0',
    'SolidWorks 2020',
    '' );
FILE_SCHEMA (( 'AUTOMOTIVE_DESIGN' ));
ENDSEC;

DATA;
#1 =( NAMED_UNIT ( * ) SI_UNIT ( $, .STERADIAN. ) SOLID_ANGLE_UNIT ( ) );
#2 = EDGE_CURVE ( 'NONE', #142, #78, #191, .T. ) ;
#3 = ORIENTED_EDGE ( 'NONE', *, *, #113, .F. ) ;
#4 = ORIENTED_EDGE ( 'NONE', *, *, #162, .T. ) ;
#5 = EDGE_CURVE ( 'NONE', #42, #203, #158, .T. ) ;
#6 = CONICAL_SURFACE ( 'NONE', #150, 0.02199999999999999872, 0.7853981633974501664 ) ;
#7 = CARTESIAN_POINT ( 'NONE',  ( 0.1250000000000000000, 1.530808498934191509E-17, 2.485000000000000320 ) ) ;
#8 = DIRECTION ( 'NONE',  ( 0.0000000000000000000, 0.0000000000000000000, 1.000000000000000000 ) ) ;
#9 = DIRECTION ( 'NONE',  ( -1.000000000000000000, 0.0000000000000000000, 0.0000000000000000000 ) ) ;
#10 = AXIS2_PLACEMENT_3D ( 'NONE', #172, #154, #55 ) ;
#11 = PRESENTATION_STYLE_ASSIGNMENT (( #54 ) ) ;
#12 = FACE_OUTER_BOUND ( 'NONE', #96, .T. ) ;
#13 = COLOUR_RGB ( '',0.7921568627450980005, 0.8196078431372548767, 0.9333333333333333481 ) ;
#14 = DIRECTION ( 'NONE',  ( -1.000000000000000000, 0.0000000000000000000, 0.0000000000000000000 ) ) ;
#15 = DIRECTION ( 'NONE',  ( 0.0000000000000000000, 0.0000000000000000000, 1.000000000000000000 ) ) ;
#16 =( CONVERSION_BASED_UNIT ( 'INCH', #57 ) LENGTH_UNIT ( ) NAMED_UNIT ( #118 ) );
#17 = AXIS2_PLACEMENT_3D ( 'NONE', #89, #74, #91 ) ;
#18 = DIRECTION ( 'NONE',  ( -1.000000000000000000, 0.0000000000000000000, 0.0000000000000000000 ) ) ;
#19 = ORIENTED_EDGE ( 'NONE', *, *, #143, .F. ) ;
#20 = SURFACE_STYLE_FILL_AREA ( #178 ) ;
#21 = ORIENTED_EDGE ( 'NONE', *, *, #235, .F. ) ;
#22 = FILL_AREA_STYLE_COLOUR ( '', #13 ) ;
#23 = EDGE_LOOP ( 'NONE', ( #114, #44, #186, #94 ) ) ;
#24 = AXIS2_PLACEMENT_3D ( 'NONE', #202, #82, #119 ) ;
#25 = APPLICATION_PROTOCOL_DEFINITION ( 'draft international standard', 'automotive_design', 1998, #174 ) ;
#26 = DIMENSIONAL_EXPONENTS ( 1.000000000000000000, 0.0000000000000000000, 0.0000000000000000000, 0.0000000000000000000, 0.0000000000000000000, 0.0000000000000000000, 0.0000000000000000000 ) ;
#27 = DIRECTION ( 'NONE',  ( 0.0000000000000000000, 0.0000000000000000000, -1.000000000000000000 ) ) ;
#28 = ADVANCED_FACE ( 'NONE', ( #238 ), #64, .T. ) ;
#29 = VECTOR ( 'NONE', #126, 39.37007874015748143 ) ;
#30 = VECTOR ( 'NONE', #248, 39.37007874015748143 ) ;
#31 = EDGE_LOOP ( 'NONE', ( #159, #198 ) ) ;
#32 = CARTESIAN_POINT ( 'NONE',  ( 0.0000000000000000000, 0.0000000000000000000, 0.0000000000000000000 ) ) ;
#33 = EDGE_CURVE ( 'NONE', #203, #78, #34, .T. ) ;
#34 = LINE ( 'NONE', #69, #240 ) ;
#35 = PRODUCT_DEFINITION ( 'UNKNOWN', '', #211, #87 ) ;
#36 = CONICAL_SURFACE ( 'NONE', #24, 0.1100000000000001948, 0.7853981633974517207 ) ;
#37 = LENGTH_MEASURE_WITH_UNIT ( LENGTH_MEASURE( 0.02539999999999999897 ), #169 );
#38 = DIRECTION ( 'NONE',  ( -1.000000000000000000, 0.0000000000000000000, 0.0000000000000000000 ) ) ;
#39 = PRESENTATION_LAYER_ASSIGNMENT (  '', '', ( #170 ) ) ;
#40 = ORIENTED_EDGE ( 'NONE', *, *, #160, .F. ) ;
#41 = CARTESIAN_POINT ( 'NONE',  ( -0.1250000000000000000, 0.0000000000000000000, 0.1029999999999996196 ) ) ;
#42 = VERTEX_POINT ( 'NONE', #165 ) ;
#43 = AXIS2_PLACEMENT_3D ( 'NONE', #244, #195, #18 ) ;
#44 = ORIENTED_EDGE ( 'NONE', *, *, #2, .T. ) ;
#45 = ORIENTED_EDGE ( 'NONE', *, *, #160, .T. ) ;
#46 = DIRECTION ( 'NONE',  ( 1.000000000000000000, 0.0000000000000000000, 0.0000000000000000000 ) ) ;
#47 = VECTOR ( 'NONE', #137, 39.37007874015748143 ) ;
#48 = FACE_OUTER_BOUND ( 'NONE', #75, .T. ) ;
#49 = CARTESIAN_POINT ( 'NONE',  ( 0.0000000000000000000, 0.0000000000000000000, 0.0000000000000000000 ) ) ;
#50 = ADVANCED_FACE ( 'NONE', ( #121 ), #135, .T. ) ;
#51 = APPLICATION_PROTOCOL_DEFINITION ( 'draft international standard', 'automotive_design', 1998, #105 ) ;
#52 = ADVANCED_FACE ( 'NONE', ( #166 ), #36, .T. ) ;
#53 = CARTESIAN_POINT ( 'NONE',  ( -0.1250000000000000000, 0.0000000000000000000, 2.500000000000000000 ) ) ;
#54 = SURFACE_STYLE_USAGE ( .BOTH. , #85 ) ;
#55 = DIRECTION ( 'NONE',  ( 1.000000000000000000, 0.0000000000000000000, 0.0000000000000000000 ) ) ;
#56 = CARTESIAN_POINT ( 'NONE',  ( 0.0000000000000000000, 0.0000000000000000000, 2.500000000000000000 ) ) ;
#57 = LENGTH_MEASURE_WITH_UNIT ( LENGTH_MEASURE( 0.02539999999999999897 ), #224 );
#58 = PRODUCT_DEFINITION_SHAPE ( 'NONE', 'NONE',  #35 ) ;
#59 = DIRECTION ( 'NONE',  ( 1.000000000000000000, 0.0000000000000000000, -0.0000000000000000000 ) ) ;
#60 = EDGE_LOOP ( 'NONE', ( #228, #157 ) ) ;
#61 = AXIS2_PLACEMENT_3D ( 'NONE', #205, #70, #38 ) ;
#62 = MECHANICAL_DESIGN_GEOMETRIC_PRESENTATION_REPRESENTATION (  '', ( #220 ), #227 ) ;
#63 = VERTEX_POINT ( 'NONE', #171 ) ;
#64 = CONICAL_SURFACE ( 'NONE', #115, 0.02199999999999999872, 0.7853981633974501664 ) ;
#65 = ORIENTED_EDGE ( 'NONE', *, *, #98, .F. ) ;
#66 = CARTESIAN_POINT ( 'NONE',  ( 0.02199999999999999872, 0.0000000000000000000, 0.0000000000000000000 ) ) ;
#67 = DIRECTION ( 'NONE',  ( -0.0000000000000000000, -0.0000000000000000000, -1.000000000000000000 ) ) ;
#68 = CARTESIAN_POINT ( 'NONE',  ( 0.0000000000000000000, 0.0000000000000000000, 0.0000000000000000000 ) ) ;
#69 = CARTESIAN_POINT ( 'NONE',  ( -0.1100000000000001948, 0.0000000000000000000, 2.500000000000000000 ) ) ;
#70 = DIRECTION ( 'NONE',  ( -0.0000000000000000000, -0.0000000000000000000, -1.000000000000000000 ) ) ;
#71 = CYLINDRICAL_SURFACE ( 'NONE', #164, 0.1250000000000000000 ) ;
#72 = ADVANCED_FACE ( 'NONE', ( #48 ), #86, .T. ) ;
#73 = LINE ( 'NONE', #110, #136 ) ;
#74 = DIRECTION ( 'NONE',  ( 0.0000000000000000000, 0.0000000000000000000, 1.000000000000000000 ) ) ;
#75 = EDGE_LOOP ( 'NONE', ( #79, #183, #246, #3 ) ) ;
#76 = LINE ( 'NONE', #95, #30 ) ;
#77 = AXIS2_PLACEMENT_3D ( 'NONE', #236, #237, #14 ) ;
#78 = VERTEX_POINT ( 'NONE', #145 ) ;
#79 = ORIENTED_EDGE ( 'NONE', *, *, #139, .T. ) ;
#80 = LINE ( 'NONE', #193, #47 ) ;
#81 = PRODUCT ( 'Micro_RNC-250-145', 'Micro_RNC-250-145', '', ( #218 ) ) ;
#82 = DIRECTION ( 'NONE',  ( 0.0000000000000000000, 0.0000000000000000000, -1.000000000000000000 ) ) ;
#83 = CARTESIAN_POINT ( 'NONE',  ( 0.0000000000000000000, 0.0000000000000000000, 0.0000000000000000000 ) ) ;
#84 = AXIS2_PLACEMENT_3D ( 'NONE', #107, #88, #102 ) ;
#85 = SURFACE_SIDE_STYLE ('',( #125 ) ) ;
#86 = CYLINDRICAL_SURFACE ( 'NONE', #84, 0.1250000000000000000 ) ;
#87 = PRODUCT_DEFINITION_CONTEXT ( 'detailed design', #105, 'design' ) ;
#88 = DIRECTION ( 'NONE',  ( -0.0000000000000000000, -0.0000000000000000000, -1.000000000000000000 ) ) ;
#89 = CARTESIAN_POINT ( 'NONE',  ( 0.0000000000000000000, 0.0000000000000000000, 0.0000000000000000000 ) ) ;
#90 = FACE_OUTER_BOUND ( 'NONE', #23, .T. ) ;
#91 = DIRECTION ( 'NONE',  ( 1.000000000000000000, 0.0000000000000000000, -0.0000000000000000000 ) ) ;
#92 = VERTEX_POINT ( 'NONE', #66 ) ;
#93 = CARTESIAN_POINT ( 'NONE',  ( -0.1100000000000001948, 0.0000000000000000000, 2.500000000000000000 ) ) ;
#94 = ORIENTED_EDGE ( 'NONE', *, *, #162, .F. ) ;
#95 = CARTESIAN_POINT ( 'NONE',  ( 0.02199999999999999872, 0.0000000000000000000, 0.0000000000000000000 ) ) ;
#96 = EDGE_LOOP ( 'NONE', ( #65, #249, #230, #21 ) ) ;
#97 = CIRCLE ( 'NONE', #10, 0.1100000000000001948 ) ;
#98 = EDGE_CURVE ( 'NONE', #225, #92, #204, .T. ) ;
#99 = DIRECTION ( 'NONE',  ( 1.000000000000000000, 0.0000000000000000000, 0.0000000000000000000 ) ) ;
#100 = EDGE_CURVE ( 'NONE', #142, #63, #106, .T. ) ;
#101 = AXIS2_PLACEMENT_3D ( 'NONE', #245, #15, #59 ) ;
#102 = DIRECTION ( 'NONE',  ( -1.000000000000000000, 0.0000000000000000000, 0.0000000000000000000 ) ) ;
#103 = DIRECTION ( 'NONE',  ( -0.0000000000000000000, -0.0000000000000000000, -1.000000000000000000 ) ) ;
#104 = FILL_AREA_STYLE ('',( #127 ) ) ;
#105 = APPLICATION_CONTEXT ( 'automotive_design' ) ;
#106 = LINE ( 'NONE', #190, #163 ) ;
#107 = CARTESIAN_POINT ( 'NONE',  ( 0.0000000000000000000, 0.0000000000000000000, 2.500000000000000000 ) ) ;
#108 = UNCERTAINTY_MEASURE_WITH_UNIT (LENGTH_MEASURE( 1.000000000000000082E-05 ), #130, 'distance_accuracy_value', 'NONE');
#109 = ADVANCED_FACE ( 'NONE', ( #12 ), #6, .T. ) ;
#110 = CARTESIAN_POINT ( 'NONE',  ( 0.1100000000000001948, 1.347111479062090784E-17, 2.500000000000000000 ) ) ;
#111 = CIRCLE ( 'NONE', #61, 0.1250000000000000000 ) ;
#112 = AXIS2_PLACEMENT_3D ( 'NONE', #223, #247, #133 ) ;
#113 = EDGE_CURVE ( 'NONE', #78, #176, #217, .T. ) ;
#114 = ORIENTED_EDGE ( 'NONE', *, *, #100, .F. ) ;
#115 = AXIS2_PLACEMENT_3D ( 'NONE', #49, #8, #185 ) ;
#116 = EDGE_CURVE ( 'NONE', #176, #63, #111, .T. ) ;
#117 = ORIENTED_EDGE ( 'NONE', *, *, #187, .F. ) ;
#118 = DIMENSIONAL_EXPONENTS ( 1.000000000000000000, 0.0000000000000000000, 0.0000000000000000000, 0.0000000000000000000, 0.0000000000000000000, 0.0000000000000000000, 0.0000000000000000000 ) ;
#119 = DIRECTION ( 'NONE',  ( -1.000000000000000000, 0.0000000000000000000, 0.0000000000000000000 ) ) ;
#120 = COLOUR_RGB ( '',0.7921568627450980005, 0.8196078431372548767, 0.9333333333333333481 ) ;
#121 = FACE_OUTER_BOUND ( 'NONE', #180, .T. ) ;
#122 = UNCERTAINTY_MEASURE_WITH_UNIT (LENGTH_MEASURE( 1.000000000000000082E-05 ), #153, 'distance_accuracy_value', 'NONE');
#123 = ORIENTED_EDGE ( 'NONE', *, *, #33, .F. ) ;
#124 = CIRCLE ( 'NONE', #43, 0.1250000000000000000 ) ;
#125 = SURFACE_STYLE_FILL_AREA ( #104 ) ;
#126 = DIRECTION ( 'NONE',  ( -0.0000000000000000000, -0.0000000000000000000, -1.000000000000000000 ) ) ;
#127 = FILL_AREA_STYLE_COLOUR ( '', #120 ) ;
#128 = ADVANCED_BREP_SHAPE_REPRESENTATION ( 'Micro_RNC-250-145', ( #194, #141 ), #131 ) ;
#129 = EDGE_CURVE ( 'NONE', #203, #42, #97, .T. ) ;
#130 =( CONVERSION_BASED_UNIT ( 'INCH', #229 ) LENGTH_UNIT ( ) NAMED_UNIT ( #26 ) );
#131 =( GEOMETRIC_REPRESENTATION_CONTEXT ( 3 ) GLOBAL_UNCERTAINTY_ASSIGNED_CONTEXT ( ( #108 ) ) GLOBAL_UNIT_ASSIGNED_CONTEXT ( ( #130, #181, #1 ) ) REPRESENTATION_CONTEXT ( 'NONE', 'WORKASPACE' ) );
#132 = SURFACE_SIDE_STYLE ('',( #20 ) ) ;
#133 = DIRECTION ( 'NONE',  ( -1.000000000000000000, 0.0000000000000000000, 0.0000000000000000000 ) ) ;
#134 = FACE_OUTER_BOUND ( 'NONE', #31, .T. ) ;
#135 = CONICAL_SURFACE ( 'NONE', #77, 0.1100000000000001948, 0.7853981633974517207 ) ;
#136 = VECTOR ( 'NONE', #155, 39.37007874015748143 ) ;
#137 = DIRECTION ( 'NONE',  ( -0.7071067811865487940, 8.659560562354948882E-17, 0.7071067811865462405 ) ) ;
#138 = ORIENTED_EDGE ( 'NONE', *, *, #2, .F. ) ;
#139 = EDGE_CURVE ( 'NONE', #78, #142, #234, .T. ) ;
#140 = ORIENTED_EDGE ( 'NONE', *, *, #129, .F. ) ;
#141 = AXIS2_PLACEMENT_3D ( 'NONE', #68, #206, #149 ) ;
#142 = VERTEX_POINT ( 'NONE', #7 ) ;
#143 = EDGE_CURVE ( 'NONE', #225, #176, #80, .T. ) ;
#144 = DIMENSIONAL_EXPONENTS ( 1.000000000000000000, 0.0000000000000000000, 0.0000000000000000000, 0.0000000000000000000, 0.0000000000000000000, 0.0000000000000000000, 0.0000000000000000000 ) ;
#145 = CARTESIAN_POINT ( 'NONE',  ( -0.1250000000000000000, 0.0000000000000000000, 2.485000000000000320 ) ) ;
#146 = CARTESIAN_POINT ( 'NONE',  ( 0.0000000000000000000, 0.0000000000000000000, 2.500000000000000000 ) ) ;
#147 = DIRECTION ( 'NONE',  ( 0.0000000000000000000, 0.0000000000000000000, -1.000000000000000000 ) ) ;
#148 = UNCERTAINTY_MEASURE_WITH_UNIT (LENGTH_MEASURE( 1.000000000000000082E-05 ), #16, 'distance_accuracy_value', 'NONE');
#149 = DIRECTION ( 'NONE',  ( 1.000000000000000000, 0.0000000000000000000, 0.0000000000000000000 ) ) ;
#150 = AXIS2_PLACEMENT_3D ( 'NONE', #83, #221, #168 ) ;
#151 = PRESENTATION_LAYER_ASSIGNMENT (  '', '', ( #220 ) ) ;
#152 = DIRECTION ( 'NONE',  ( 0.0000000000000000000, 0.0000000000000000000, 1.000000000000000000 ) ) ;
#153 =( CONVERSION_BASED_UNIT ( 'INCH', #37 ) LENGTH_UNIT ( ) NAMED_UNIT ( #144 ) );
#154 = DIRECTION ( 'NONE',  ( 0.0000000000000000000, 0.0000000000000000000, 1.000000000000000000 ) ) ;
#155 = DIRECTION ( 'NONE',  ( 0.7071067811865499042, 8.659560562354961208E-17, -0.7071067811865451302 ) ) ;
#156 = AXIS2_PLACEMENT_3D ( 'NONE', #200, #27, #99 ) ;
#157 = ORIENTED_EDGE ( 'NONE', *, *, #5, .T. ) ;
#158 = CIRCLE ( 'NONE', #179, 0.1100000000000001948 ) ;
#159 = ORIENTED_EDGE ( 'NONE', *, *, #187, .T. ) ;
#160 = EDGE_CURVE ( 'NONE', #42, #142, #73, .T. ) ;
#161 = EDGE_LOOP ( 'NONE', ( #222, #45, #215, #123 ) ) ;
#162 = EDGE_CURVE ( 'NONE', #63, #176, #124, .T. ) ;
#163 = VECTOR ( 'NONE', #67, 39.37007874015748143 ) ;
#164 = AXIS2_PLACEMENT_3D ( 'NONE', #56, #197, #177 ) ;
#165 = CARTESIAN_POINT ( 'NONE',  ( 0.1100000000000001948, 1.438959988998141146E-17, 2.500000000000000000 ) ) ;
#166 = FACE_OUTER_BOUND ( 'NONE', #161, .T. ) ;
#167 = ADVANCED_FACE ( 'NONE', ( #213 ), #209, .T. ) ;
#168 = DIRECTION ( 'NONE',  ( 1.000000000000000000, 0.0000000000000000000, 0.0000000000000000000 ) ) ;
#169 =( LENGTH_UNIT ( ) NAMED_UNIT ( * ) SI_UNIT ( $, .METRE. ) );
#170 = STYLED_ITEM ( 'NONE', ( #11 ), #128 ) ;
#171 = CARTESIAN_POINT ( 'NONE',  ( 0.1250000000000000000, 1.530808498934191509E-17, 0.1029999999999996196 ) ) ;
#172 = CARTESIAN_POINT ( 'NONE',  ( 0.0000000000000000000, 0.0000000000000000000, 2.500000000000000000 ) ) ;
#173 = CARTESIAN_POINT ( 'NONE',  ( -0.02199999999999999872, 9.001153973733046171E-18, 0.0000000000000000000 ) ) ;
#174 = APPLICATION_CONTEXT ( 'automotive_design' ) ;
#175 = PLANE ( 'NONE',  #17 ) ;
#176 = VERTEX_POINT ( 'NONE', #41 ) ;
#177 = DIRECTION ( 'NONE',  ( -1.000000000000000000, 0.0000000000000000000, 0.0000000000000000000 ) ) ;
#178 = FILL_AREA_STYLE ('',( #22 ) ) ;
#179 = AXIS2_PLACEMENT_3D ( 'NONE', #146, #152, #46 ) ;
#180 = EDGE_LOOP ( 'NONE', ( #40, #140, #232, #138 ) ) ;
#181 =( NAMED_UNIT ( * ) PLANE_ANGLE_UNIT ( ) SI_UNIT ( $, .RADIAN. ) );
#182 = EDGE_LOOP ( 'NONE', ( #19, #117, #241, #4 ) ) ;
#183 = ORIENTED_EDGE ( 'NONE', *, *, #100, .T. ) ;
#184 =( GEOMETRIC_REPRESENTATION_CONTEXT ( 3 ) GLOBAL_UNCERTAINTY_ASSIGNED_CONTEXT ( ( #122 ) ) GLOBAL_UNIT_ASSIGNED_CONTEXT ( ( #153, #239, #188 ) ) REPRESENTATION_CONTEXT ( 'NONE', 'WORKASPACE' ) );
#185 = DIRECTION ( 'NONE',  ( 1.000000000000000000, 0.0000000000000000000, 0.0000000000000000000 ) ) ;
#186 = ORIENTED_EDGE ( 'NONE', *, *, #113, .T. ) ;
#187 = EDGE_CURVE ( 'NONE', #92, #225, #214, .T. ) ;
#188 =( NAMED_UNIT ( * ) SI_UNIT ( $, .STERADIAN. ) SOLID_ANGLE_UNIT ( ) );
#189 = ADVANCED_FACE ( 'NONE', ( #134 ), #175, .F. ) ;
#190 = CARTESIAN_POINT ( 'NONE',  ( 0.1250000000000000000, 1.530808498934191509E-17, 2.500000000000000000 ) ) ;
#191 = CIRCLE ( 'NONE', #210, 0.1250000000000000000 ) ;
#192 = DIRECTION ( 'NONE',  ( 1.000000000000000000, 0.0000000000000000000, 0.0000000000000000000 ) ) ;
#193 = CARTESIAN_POINT ( 'NONE',  ( -0.02199999999999999872, 2.694222958124176868E-18, 0.0000000000000000000 ) ) ;
#194 = MANIFOLD_SOLID_BREP ( 'Cut-Revolve1', #219 ) ;
#195 = DIRECTION ( 'NONE',  ( -0.0000000000000000000, -0.0000000000000000000, -1.000000000000000000 ) ) ;
#196 =( NAMED_UNIT ( * ) SI_UNIT ( $, .STERADIAN. ) SOLID_ANGLE_UNIT ( ) );
#197 = DIRECTION ( 'NONE',  ( -0.0000000000000000000, -0.0000000000000000000, -1.000000000000000000 ) ) ;
#198 = ORIENTED_EDGE ( 'NONE', *, *, #98, .T. ) ;
#199 = SURFACE_STYLE_USAGE ( .BOTH. , #132 ) ;
#200 = CARTESIAN_POINT ( 'NONE',  ( 0.0000000000000000000, 0.0000000000000000000, 2.485000000000000320 ) ) ;
#201 = MECHANICAL_DESIGN_GEOMETRIC_PRESENTATION_REPRESENTATION (  '', ( #170 ), #184 ) ;
#202 = CARTESIAN_POINT ( 'NONE',  ( 0.0000000000000000000, 0.0000000000000000000, 2.500000000000000000 ) ) ;
#203 = VERTEX_POINT ( 'NONE', #93 ) ;
#204 = CIRCLE ( 'NONE', #233, 0.02199999999999999872 ) ;
#205 = CARTESIAN_POINT ( 'NONE',  ( 0.0000000000000000000, 0.0000000000000000000, 0.1029999999999996196 ) ) ;
#206 = DIRECTION ( 'NONE',  ( 0.0000000000000000000, 0.0000000000000000000, 1.000000000000000000 ) ) ;
#207 =( NAMED_UNIT ( * ) PLANE_ANGLE_UNIT ( ) SI_UNIT ( $, .RADIAN. ) );
#208 = PRESENTATION_STYLE_ASSIGNMENT (( #199 ) ) ;
#209 = PLANE ( 'NONE',  #101 ) ;
#210 = AXIS2_PLACEMENT_3D ( 'NONE', #242, #147, #192 ) ;
#211 = PRODUCT_DEFINITION_FORMATION_WITH_SPECIFIED_SOURCE ( 'ANY', '', #81, .NOT_KNOWN. ) ;
#212 = PRODUCT_RELATED_PRODUCT_CATEGORY ( 'part', '', ( #81 ) ) ;
#213 = FACE_OUTER_BOUND ( 'NONE', #60, .T. ) ;
#214 = CIRCLE ( 'NONE', #112, 0.02199999999999999872 ) ;
#215 = ORIENTED_EDGE ( 'NONE', *, *, #139, .F. ) ;
#216 = DIRECTION ( 'NONE',  ( -0.7071067811865499042, 0.0000000000000000000, -0.7071067811865451302 ) ) ;
#217 = LINE ( 'NONE', #53, #29 ) ;
#218 = PRODUCT_CONTEXT ( 'NONE', #174, 'mechanical' ) ;
#219 = CLOSED_SHELL ( 'NONE', ( #109, #52, #72, #231, #167, #50, #28, #189 ) ) ;
#220 = STYLED_ITEM ( 'NONE', ( #208 ), #194 ) ;
#221 = DIRECTION ( 'NONE',  ( 0.0000000000000000000, 0.0000000000000000000, 1.000000000000000000 ) ) ;
#222 = ORIENTED_EDGE ( 'NONE', *, *, #5, .F. ) ;
#223 = CARTESIAN_POINT ( 'NONE',  ( 0.0000000000000000000, 0.0000000000000000000, 0.0000000000000000000 ) ) ;
#224 =( LENGTH_UNIT ( ) NAMED_UNIT ( * ) SI_UNIT ( $, .METRE. ) );
#225 = VERTEX_POINT ( 'NONE', #173 ) ;
#226 =( LENGTH_UNIT ( ) NAMED_UNIT ( * ) SI_UNIT ( $, .METRE. ) );
#227 =( GEOMETRIC_REPRESENTATION_CONTEXT ( 3 ) GLOBAL_UNCERTAINTY_ASSIGNED_CONTEXT ( ( #148 ) ) GLOBAL_UNIT_ASSIGNED_CONTEXT ( ( #16, #207, #196 ) ) REPRESENTATION_CONTEXT ( 'NONE', 'WORKASPACE' ) );
#228 = ORIENTED_EDGE ( 'NONE', *, *, #129, .T. ) ;
#229 = LENGTH_MEASURE_WITH_UNIT ( LENGTH_MEASURE( 0.02539999999999999897 ), #226 );
#230 = ORIENTED_EDGE ( 'NONE', *, *, #116, .T. ) ;
#231 = ADVANCED_FACE ( 'NONE', ( #90 ), #71, .T. ) ;
#232 = ORIENTED_EDGE ( 'NONE', *, *, #33, .T. ) ;
#233 = AXIS2_PLACEMENT_3D ( 'NONE', #32, #103, #9 ) ;
#234 = CIRCLE ( 'NONE', #156, 0.1250000000000000000 ) ;
#235 = EDGE_CURVE ( 'NONE', #92, #63, #76, .T. ) ;
#236 = CARTESIAN_POINT ( 'NONE',  ( 0.0000000000000000000, 0.0000000000000000000, 2.500000000000000000 ) ) ;
#237 = DIRECTION ( 'NONE',  ( 0.0000000000000000000, 0.0000000000000000000, -1.000000000000000000 ) ) ;
#238 = FACE_OUTER_BOUND ( 'NONE', #182, .T. ) ;
#239 =( NAMED_UNIT ( * ) PLANE_ANGLE_UNIT ( ) SI_UNIT ( $, .RADIAN. ) );
#240 = VECTOR ( 'NONE', #216, 39.37007874015748143 ) ;
#241 = ORIENTED_EDGE ( 'NONE', *, *, #235, .T. ) ;
#242 = CARTESIAN_POINT ( 'NONE',  ( 0.0000000000000000000, 0.0000000000000000000, 2.485000000000000320 ) ) ;
#243 = SHAPE_DEFINITION_REPRESENTATION ( #58, #128 ) ;
#244 = CARTESIAN_POINT ( 'NONE',  ( 0.0000000000000000000, 0.0000000000000000000, 0.1029999999999996196 ) ) ;
#245 = CARTESIAN_POINT ( 'NONE',  ( 0.0000000000000000000, 0.0000000000000000000, 2.500000000000000000 ) ) ;
#246 = ORIENTED_EDGE ( 'NONE', *, *, #116, .F. ) ;
#247 = DIRECTION ( 'NONE',  ( -0.0000000000000000000, -0.0000000000000000000, -1.000000000000000000 ) ) ;
#248 = DIRECTION ( 'NONE',  ( 0.7071067811865487940, 0.0000000000000000000, 0.7071067811865462405 ) ) ;
#249 = ORIENTED_EDGE ( 'NONE', *, *, #143, .T. ) ;
ENDSEC;
END-ISO-10303-21;
