ISO-10303-21;
HEADER;
FILE_DESCRIPTION (( 'STEP AP214' ),
    '1' );
FILE_NAME ('Micro_BEM-093-04X.STEP',
    '2021-09-03T13:01:11',
    ( '' ),
    ( '' ),
    'SwSTEP 2.0',
    'SolidWorks 2020',
    '' );
FILE_SCHEMA (( 'AUTOMOTIVE_DESIGN' ));
ENDSEC;

DATA;
#1 = CARTESIAN_POINT ( 'NONE',  ( 0.06250000000000002776, 7.654042494670959086E-18, 1.485000000000000764 ) ) ;
#2 = ORIENTED_EDGE ( 'NONE', *, *, #121, .T. ) ;
#3 = DIMENSIONAL_EXPONENTS ( 1.000000000000000000, 0.0000000000000000000, 0.0000000000000000000, 0.0000000000000000000, 0.0000000000000000000, 0.0000000000000000000, 0.0000000000000000000 ) ;
#4 = AXIS2_PLACEMENT_3D ( 'NONE', #239, #163, #214 ) ;
#5 = CONICAL_SURFACE ( 'NONE', #234, 0.04750000000000064587, 0.7853981633974466137 ) ;
#6 = ORIENTED_EDGE ( 'NONE', *, *, #61, .T. ) ;
#7 = LINE ( 'NONE', #144, #260 ) ;
#8 = UNCERTAINTY_MEASURE_WITH_UNIT (LENGTH_MEASURE( 1.000000000000000082E-05 ), #285, 'distance_accuracy_value', 'NONE');
#9 = FACE_OUTER_BOUND ( 'NONE', #303, .T. ) ;
#10 = EDGE_CURVE ( 'NONE', #146, #149, #88, .T. ) ;
#11 = EDGE_LOOP ( 'NONE', ( #117, #200, #112, #58 ) ) ;
#12 = ORIENTED_EDGE ( 'NONE', *, *, #272, .F. ) ;
#13 = CARTESIAN_POINT ( 'NONE',  ( -0.04680314999999996006, 6.692887639211152895E-18, 0.3750000000000000555 ) ) ;
#14 = CONICAL_SURFACE ( 'NONE', #184, 0.04680315000000000170, 0.1745329251994338082 ) ;
#15 = EDGE_CURVE ( 'NONE', #147, #267, #137, .T. ) ;
#16 = DIRECTION ( 'NONE',  ( -1.000000000000000000, 0.0000000000000000000, 0.0000000000000000000 ) ) ;
#17 = CARTESIAN_POINT ( 'NONE',  ( 0.0000000000000000000, 0.0000000000000000000, 1.500000000000000222 ) ) ;
#18 = ADVANCED_FACE ( 'NONE', ( #324 ), #323, .T. ) ;
#19 = STYLED_ITEM ( 'NONE', ( #173 ), #244 ) ;
#20 = CARTESIAN_POINT ( 'NONE',  ( -0.04680314999999996006, 5.731732783751344394E-18, 0.3750000000000000555 ) ) ;
#21 = AXIS2_PLACEMENT_3D ( 'NONE', #70, #26, #251 ) ;
#22 = EDGE_LOOP ( 'NONE', ( #168, #120, #2, #322 ) ) ;
#23 = CARTESIAN_POINT ( 'NONE',  ( 0.04680315000000000170, 5.731732783751344394E-18, -5.731732783751346705E-18 ) ) ;
#24 = EDGE_CURVE ( 'NONE', #52, #267, #96, .T. ) ;
#25 = ADVANCED_FACE ( 'NONE', ( #297 ), #114, .T. ) ;
#26 = DIRECTION ( 'NONE',  ( 1.224646799147353207E-16, 1.000000000000000000, -0.0000000000000000000 ) ) ;
#27 = ORIENTED_EDGE ( 'NONE', *, *, #98, .F. ) ;
#28 = LENGTH_MEASURE_WITH_UNIT ( LENGTH_MEASURE( 0.02539999999999999897 ), #254 );
#29 = EDGE_LOOP ( 'NONE', ( #282, #31 ) ) ;
#30 = PRODUCT ( 'Micro_BEM-093-04X', 'Micro_BEM-093-04X', '', ( #314 ) ) ;
#31 = ORIENTED_EDGE ( 'NONE', *, *, #188, .T. ) ;
#32 = DIRECTION ( 'NONE',  ( -0.7071067811865462405, 0.0000000000000000000, -0.7071067811865486830 ) ) ;
#33 = ADVANCED_FACE ( 'NONE', ( #162 ), #118, .T. ) ;
#34 = EDGE_LOOP ( 'NONE', ( #308, #229, #277, #174 ) ) ;
#35 = DIRECTION ( 'NONE',  ( 1.000000000000000000, 0.0000000000000000000, 0.0000000000000000000 ) ) ;
#36 = CARTESIAN_POINT ( 'NONE',  ( 0.04680315000000004333, 0.0000000000000000000, 0.3750000000000000555 ) ) ;
#37 = AXIS2_PLACEMENT_3D ( 'NONE', #72, #51, #299 ) ;
#38 = VECTOR ( 'NONE', #300, 39.37007874015748143 ) ;
#39 = LENGTH_MEASURE_WITH_UNIT ( LENGTH_MEASURE( 0.02539999999999999897 ), #130 );
#40 = COLOUR_RGB ( '',0.7921568627450980005, 0.8196078431372548767, 0.9333333333333333481 ) ;
#41 = FACE_OUTER_BOUND ( 'NONE', #102, .T. ) ;
#42 = CARTESIAN_POINT ( 'NONE',  ( 0.0000000000000000000, 0.0000000000000000000, 1.500000000000000222 ) ) ;
#43 = DIRECTION ( 'NONE',  ( -1.000000000000000000, 0.0000000000000000000, 0.0000000000000000000 ) ) ;
#44 = DIRECTION ( 'NONE',  ( -1.224646799147353700E-16, -0.0000000000000000000, -1.000000000000000000 ) ) ;
#45 = DIRECTION ( 'NONE',  ( 1.224646799147353700E-16, 0.0000000000000000000, 1.000000000000000000 ) ) ;
#46 = FACE_OUTER_BOUND ( 'NONE', #29, .T. ) ;
#47 = CIRCLE ( 'NONE', #240, 0.04680315000000000170 ) ;
#48 = SURFACE_STYLE_USAGE ( .BOTH. , #53 ) ;
#49 = EDGE_CURVE ( 'NONE', #267, #52, #291, .T. ) ;
#50 = EDGE_LOOP ( 'NONE', ( #203, #67, #122, #73 ) ) ;
#51 = DIRECTION ( 'NONE',  ( -1.224646799147353700E-16, -0.0000000000000000000, -1.000000000000000000 ) ) ;
#52 = VERTEX_POINT ( 'NONE', #65 ) ;
#53 = SURFACE_SIDE_STYLE ('',( #278 ) ) ;
#54 = EDGE_LOOP ( 'NONE', ( #170, #275, #99, #256 ) ) ;
#55 =( NAMED_UNIT ( * ) PLANE_ANGLE_UNIT ( ) SI_UNIT ( $, .RADIAN. ) );
#56 = DIMENSIONAL_EXPONENTS ( 1.000000000000000000, 0.0000000000000000000, 0.0000000000000000000, 0.0000000000000000000, 0.0000000000000000000, 0.0000000000000000000, 0.0000000000000000000 ) ;
#57 = SURFACE_STYLE_USAGE ( .BOTH. , #313 ) ;
#58 = ORIENTED_EDGE ( 'NONE', *, *, #257, .F. ) ;
#59 = CARTESIAN_POINT ( 'NONE',  ( 0.06250000000000002776, 7.654042494670959086E-18, 1.500000000000000222 ) ) ;
#60 = DIRECTION ( 'NONE',  ( -1.000000000000000000, 0.0000000000000000000, 1.224646799147353700E-16 ) ) ;
#61 = EDGE_CURVE ( 'NONE', #249, #123, #268, .T. ) ;
#62 = AXIS2_PLACEMENT_3D ( 'NONE', #101, #76, #206 ) ;
#63 = SURFACE_STYLE_FILL_AREA ( #106 ) ;
#64 = DIRECTION ( 'NONE',  ( -0.0000000000000000000, -0.0000000000000000000, -1.000000000000000000 ) ) ;
#65 = CARTESIAN_POINT ( 'NONE',  ( 0.06250000000000008327, 7.654042494670966789E-18, 0.4640212600302659474 ) ) ;
#66 = DIRECTION ( 'NONE',  ( -1.000000000000000000, 0.0000000000000000000, 0.0000000000000000000 ) ) ;
#67 = ORIENTED_EDGE ( 'NONE', *, *, #209, .F. ) ;
#68 = CARTESIAN_POINT ( 'NONE',  ( 0.04750000000000064587, 5.817072295950006528E-18, 1.500000000000000222 ) ) ;
#69 = CARTESIAN_POINT ( 'NONE',  ( 0.0000000000000000000, 0.0000000000000000000, 1.500000000000000222 ) ) ;
#70 = CARTESIAN_POINT ( 'NONE',  ( 5.731732783751346705E-18, 0.0000000000000000000, 0.04680315000000000170 ) ) ;
#71 = AXIS2_PLACEMENT_3D ( 'NONE', #271, #92, #97 ) ;
#72 = CARTESIAN_POINT ( 'NONE',  ( 4.592425496802576684E-17, 0.0000000000000000000, 0.3750000000000000555 ) ) ;
#73 = ORIENTED_EDGE ( 'NONE', *, *, #61, .F. ) ;
#74 = EDGE_LOOP ( 'NONE', ( #138, #305, #95, #171 ) ) ;
#75 = ADVANCED_FACE ( 'NONE', ( #186 ), #141, .T. ) ;
#76 = DIRECTION ( 'NONE',  ( 0.0000000000000000000, 1.000000000000000000, 0.0000000000000000000 ) ) ;
#77 = VERTEX_POINT ( 'NONE', #119 ) ;
#78 = VECTOR ( 'NONE', #265, 39.37007874015748143 ) ;
#79 = CARTESIAN_POINT ( 'NONE',  ( 0.04680315000000004333, 0.0000000000000000000, 0.3750000000000000555 ) ) ;
#80 = AXIS2_PLACEMENT_3D ( 'NONE', #269, #45, #245 ) ;
#81 = DIRECTION ( 'NONE',  ( -1.224646799147353700E-16, -0.0000000000000000000, -1.000000000000000000 ) ) ;
#82 = CARTESIAN_POINT ( 'NONE',  ( 0.0000000000000000000, 0.0000000000000000000, 0.0000000000000000000 ) ) ;
#83 = AXIS2_PLACEMENT_3D ( 'NONE', #321, #266, #166 ) ;
#84 =( NAMED_UNIT ( * ) SI_UNIT ( $, .STERADIAN. ) SOLID_ANGLE_UNIT ( ) );
#85 = PRODUCT_DEFINITION_CONTEXT ( 'detailed design', #178, 'design' ) ;
#86 = VECTOR ( 'NONE', #64, 39.37007874015748143 ) ;
#87 = DIRECTION ( 'NONE',  ( 1.000000000000000000, 0.0000000000000000000, 0.0000000000000000000 ) ) ;
#88 = LINE ( 'NONE', #23, #78 ) ;
#89 = DIRECTION ( 'NONE',  ( -0.1736481776669311083, 2.126576849575782084E-17, 0.9848077530122080203 ) ) ;
#90 = DIRECTION ( 'NONE',  ( 0.0000000000000000000, 0.0000000000000000000, -1.000000000000000000 ) ) ;
#91 = PRODUCT_DEFINITION_FORMATION_WITH_SPECIFIED_SOURCE ( 'ANY', '', #30, .NOT_KNOWN. ) ;
#92 = DIRECTION ( 'NONE',  ( 0.0000000000000000000, 0.0000000000000000000, -1.000000000000000000 ) ) ;
#93 = LINE ( 'NONE', #226, #219 ) ;
#94 = DIMENSIONAL_EXPONENTS ( 1.000000000000000000, 0.0000000000000000000, 0.0000000000000000000, 0.0000000000000000000, 0.0000000000000000000, 0.0000000000000000000, 0.0000000000000000000 ) ;
#95 = ORIENTED_EDGE ( 'NONE', *, *, #257, .T. ) ;
#96 = CIRCLE ( 'NONE', #224, 0.06250000000000002776 ) ;
#97 = DIRECTION ( 'NONE',  ( 1.000000000000000000, 0.0000000000000000000, 0.0000000000000000000 ) ) ;
#98 = EDGE_CURVE ( 'NONE', #77, #149, #47, .T. ) ;
#99 = ORIENTED_EDGE ( 'NONE', *, *, #320, .F. ) ;
#100 = CARTESIAN_POINT ( 'NONE',  ( -0.04680314999999999476, 0.0000000000000000000, 0.04680315000000000863 ) ) ;
#101 = CARTESIAN_POINT ( 'NONE',  ( 5.731732783751346705E-18, 0.0000000000000000000, 0.04680315000000000170 ) ) ;
#102 = EDGE_LOOP ( 'NONE', ( #279, #243, #105, #215 ) ) ;
#103 = APPLICATION_PROTOCOL_DEFINITION ( 'draft international standard', 'automotive_design', 1998, #270 ) ;
#104 = SPHERICAL_SURFACE ( 'NONE', #62, 0.04680315000000000170 ) ;
#105 = ORIENTED_EDGE ( 'NONE', *, *, #49, .F. ) ;
#106 = FILL_AREA_STYLE ('',( #205 ) ) ;
#107 = DIRECTION ( 'NONE',  ( 1.000000000000000000, 0.0000000000000000000, 0.0000000000000000000 ) ) ;
#108 = APPLICATION_PROTOCOL_DEFINITION ( 'draft international standard', 'automotive_design', 1998, #178 ) ;
#109 = AXIS2_PLACEMENT_3D ( 'NONE', #17, #242, #66 ) ;
#110 = STYLED_ITEM ( 'NONE', ( #148 ), #164 ) ;
#111 = DIRECTION ( 'NONE',  ( 1.224646799147353700E-16, 0.0000000000000000000, 1.000000000000000000 ) ) ;
#112 = ORIENTED_EDGE ( 'NONE', *, *, #49, .T. ) ;
#113 = EDGE_CURVE ( 'NONE', #232, #249, #185, .T. ) ;
#114 = CONICAL_SURFACE ( 'NONE', #287, 0.04750000000000064587, 0.7853981633974466137 ) ;
#115 =( GEOMETRIC_REPRESENTATION_CONTEXT ( 3 ) GLOBAL_UNCERTAINTY_ASSIGNED_CONTEXT ( ( #151 ) ) GLOBAL_UNIT_ASSIGNED_CONTEXT ( ( #172, #55, #153 ) ) REPRESENTATION_CONTEXT ( 'NONE', 'WORKASPACE' ) );
#116 = DIRECTION ( 'NONE',  ( -1.000000000000000000, 0.0000000000000000000, 1.224646799147353700E-16 ) ) ;
#117 = ORIENTED_EDGE ( 'NONE', *, *, #139, .F. ) ;
#118 = SPHERICAL_SURFACE ( 'NONE', #208, 0.04680315000000000170 ) ;
#119 = CARTESIAN_POINT ( 'NONE',  ( 8.597599175627018516E-18, 0.0000000000000000000, 0.0000000000000000000 ) ) ;
#120 = ORIENTED_EDGE ( 'NONE', *, *, #10, .T. ) ;
#121 = EDGE_CURVE ( 'NONE', #149, #253, #296, .T. ) ;
#122 = ORIENTED_EDGE ( 'NONE', *, *, #283, .T. ) ;
#123 = VERTEX_POINT ( 'NONE', #218 ) ;
#124 = DIRECTION ( 'NONE',  ( 0.0000000000000000000, 0.0000000000000000000, -1.000000000000000000 ) ) ;
#125 = CARTESIAN_POINT ( 'NONE',  ( 4.592425496802576684E-17, 0.0000000000000000000, 0.3750000000000000555 ) ) ;
#126 = ADVANCED_FACE ( 'NONE', ( #211 ), #204, .T. ) ;
#127 = EDGE_LOOP ( 'NONE', ( #12, #225, #223 ) ) ;
#128 =( NAMED_UNIT ( * ) PLANE_ANGLE_UNIT ( ) SI_UNIT ( $, .RADIAN. ) );
#129 = CARTESIAN_POINT ( 'NONE',  ( 0.0000000000000000000, 0.0000000000000000000, 0.0000000000000000000 ) ) ;
#130 =( LENGTH_UNIT ( ) NAMED_UNIT ( * ) SI_UNIT ( $, .METRE. ) );
#131 = DIRECTION ( 'NONE',  ( -0.0000000000000000000, -0.0000000000000000000, -1.000000000000000000 ) ) ;
#132 = DIRECTION ( 'NONE',  ( 1.000000000000000000, 0.0000000000000000000, 0.0000000000000000000 ) ) ;
#133 = EDGE_CURVE ( 'NONE', #249, #52, #154, .T. ) ;
#134 = CIRCLE ( 'NONE', #71, 0.06250000000000002776 ) ;
#135 = DIRECTION ( 'NONE',  ( 1.224646799147353700E-16, 0.0000000000000000000, 1.000000000000000000 ) ) ;
#136 = CARTESIAN_POINT ( 'NONE',  ( 5.731732783751346705E-18, 0.0000000000000000000, 0.04680315000000000170 ) ) ;
#137 = LINE ( 'NONE', #20, #140 ) ;
#138 = ORIENTED_EDGE ( 'NONE', *, *, #15, .F. ) ;
#139 = EDGE_CURVE ( 'NONE', #147, #146, #190, .T. ) ;
#140 = VECTOR ( 'NONE', #89, 39.37007874015747433 ) ;
#141 = CYLINDRICAL_SURFACE ( 'NONE', #109, 0.06250000000000002776 ) ;
#142 = DIRECTION ( 'NONE',  ( -1.224646799147353700E-16, -0.0000000000000000000, -1.000000000000000000 ) ) ;
#143 = ADVANCED_FACE ( 'NONE', ( #41 ), #307, .T. ) ;
#144 = CARTESIAN_POINT ( 'NONE',  ( -0.04680315000000000170, 0.0000000000000000000, 5.731732783751346705E-18 ) ) ;
#145 = EDGE_LOOP ( 'NONE', ( #155, #6, #196, #187 ) ) ;
#146 = VERTEX_POINT ( 'NONE', #36 ) ;
#147 = VERTEX_POINT ( 'NONE', #13 ) ;
#148 = PRESENTATION_STYLE_ASSIGNMENT (( #48 ) ) ;
#149 = VERTEX_POINT ( 'NONE', #183 ) ;
#150 = CIRCLE ( 'NONE', #233, 0.04750000000000064587 ) ;
#151 = UNCERTAINTY_MEASURE_WITH_UNIT (LENGTH_MEASURE( 1.000000000000000082E-05 ), #172, 'distance_accuracy_value', 'NONE');
#152 =( GEOMETRIC_REPRESENTATION_CONTEXT ( 3 ) GLOBAL_UNCERTAINTY_ASSIGNED_CONTEXT ( ( #8 ) ) GLOBAL_UNIT_ASSIGNED_CONTEXT ( ( #285, #128, #207 ) ) REPRESENTATION_CONTEXT ( 'NONE', 'WORKASPACE' ) );
#153 =( NAMED_UNIT ( * ) SI_UNIT ( $, .STERADIAN. ) SOLID_ANGLE_UNIT ( ) );
#154 = LINE ( 'NONE', #59, #194 ) ;
#155 = ORIENTED_EDGE ( 'NONE', *, *, #133, .F. ) ;
#156 = DIRECTION ( 'NONE',  ( -0.0000000000000000000, -0.0000000000000000000, -1.000000000000000000 ) ) ;
#157 = PRODUCT_DEFINITION ( 'UNKNOWN', '', #91, #85 ) ;
#158 = SHAPE_DEFINITION_REPRESENTATION ( #231, #164 ) ;
#159 = CARTESIAN_POINT ( 'NONE',  ( 0.0000000000000000000, 0.0000000000000000000, 1.500000000000000222 ) ) ;
#160 = CIRCLE ( 'NONE', #180, 0.04750000000000064587 ) ;
#161 = DIRECTION ( 'NONE',  ( -1.224646799147353700E-16, -0.0000000000000000000, -1.000000000000000000 ) ) ;
#162 = FACE_OUTER_BOUND ( 'NONE', #127, .T. ) ;
#163 = DIRECTION ( 'NONE',  ( 0.0000000000000000000, 0.0000000000000000000, -1.000000000000000000 ) ) ;
#164 = ADVANCED_BREP_SHAPE_REPRESENTATION ( 'Micro_BEM-093-04X', ( #244, #302 ), #115 ) ;
#165 = VECTOR ( 'NONE', #318, 39.37007874015748854 ) ;
#166 = DIRECTION ( 'NONE',  ( 1.000000000000000000, 0.0000000000000000000, 0.0000000000000000000 ) ) ;
#167 = FACE_OUTER_BOUND ( 'NONE', #54, .T. ) ;
#168 = ORIENTED_EDGE ( 'NONE', *, *, #139, .T. ) ;
#169 = DIRECTION ( 'NONE',  ( 0.0000000000000000000, 0.0000000000000000000, 1.000000000000000000 ) ) ;
#170 = ORIENTED_EDGE ( 'NONE', *, *, #188, .F. ) ;
#171 = ORIENTED_EDGE ( 'NONE', *, *, #24, .T. ) ;
#172 =( CONVERSION_BASED_UNIT ( 'INCH', #28 ) LENGTH_UNIT ( ) NAMED_UNIT ( #94 ) );
#173 = PRESENTATION_STYLE_ASSIGNMENT (( #57 ) ) ;
#174 = ORIENTED_EDGE ( 'NONE', *, *, #315, .T. ) ;
#175 = AXIS2_PLACEMENT_3D ( 'NONE', #129, #161, #60 ) ;
#176 = ADVANCED_FACE ( 'NONE', ( #9 ), #104, .T. ) ;
#177 = FACE_OUTER_BOUND ( 'NONE', #74, .T. ) ;
#178 = APPLICATION_CONTEXT ( 'automotive_design' ) ;
#179 = CARTESIAN_POINT ( 'NONE',  ( 0.04750000000000064587, 6.735557395310483192E-18, 1.500000000000000222 ) ) ;
#180 = AXIS2_PLACEMENT_3D ( 'NONE', #42, #290, #310 ) ;
#181 = DIRECTION ( 'NONE',  ( 0.0000000000000000000, 0.0000000000000000000, 1.000000000000000000 ) ) ;
#182 = CARTESIAN_POINT ( 'NONE',  ( -0.06250000000000002776, 0.0000000000000000000, 1.500000000000000222 ) ) ;
#183 = CARTESIAN_POINT ( 'NONE',  ( 0.04680315000000000863, 5.731732783751344394E-18, 0.04680314999999999476 ) ) ;
#184 = AXIS2_PLACEMENT_3D ( 'NONE', #284, #111, #35 ) ;
#185 = LINE ( 'NONE', #68, #165 ) ;
#186 = FACE_OUTER_BOUND ( 'NONE', #145, .T. ) ;
#187 = ORIENTED_EDGE ( 'NONE', *, *, #24, .F. ) ;
#188 = EDGE_CURVE ( 'NONE', #232, #197, #150, .T. ) ;
#189 = DIRECTION ( 'NONE',  ( 1.000000000000000000, 0.0000000000000000000, 0.0000000000000000000 ) ) ;
#190 = CIRCLE ( 'NONE', #247, 0.04680315000000000170 ) ;
#191 = DIRECTION ( 'NONE',  ( 0.0000000000000000000, 1.000000000000000000, 0.0000000000000000000 ) ) ;
#192 = CARTESIAN_POINT ( 'NONE',  ( 5.731732783751346705E-18, 0.0000000000000000000, 0.04680315000000000170 ) ) ;
#193 = PLANE ( 'NONE',  #252 ) ;
#194 = VECTOR ( 'NONE', #131, 39.37007874015748143 ) ;
#195 = CIRCLE ( 'NONE', #292, 0.04680315000000000170 ) ;
#196 = ORIENTED_EDGE ( 'NONE', *, *, #220, .T. ) ;
#197 = VERTEX_POINT ( 'NONE', #202 ) ;
#198 = DIRECTION ( 'NONE',  ( 1.224646799147353700E-16, 0.0000000000000000000, 1.000000000000000000 ) ) ;
#199 = DIRECTION ( 'NONE',  ( -1.000000000000000000, 0.0000000000000000000, 0.0000000000000000000 ) ) ;
#200 = ORIENTED_EDGE ( 'NONE', *, *, #15, .T. ) ;
#201 = FILL_AREA_STYLE_COLOUR ( '', #40 ) ;
#202 = CARTESIAN_POINT ( 'NONE',  ( -0.04750000000000064587, 0.0000000000000000000, 1.500000000000000222 ) ) ;
#203 = ORIENTED_EDGE ( 'NONE', *, *, #113, .F. ) ;
#204 = CONICAL_SURFACE ( 'NONE', #301, 0.04680315000000000170, 0.1745329251994338082 ) ;
#205 = FILL_AREA_STYLE_COLOUR ( '', #325 ) ;
#206 = DIRECTION ( 'NONE',  ( 1.000000000000000000, 0.0000000000000000000, 0.0000000000000000000 ) ) ;
#207 =( NAMED_UNIT ( * ) SI_UNIT ( $, .STERADIAN. ) SOLID_ANGLE_UNIT ( ) );
#208 = AXIS2_PLACEMENT_3D ( 'NONE', #136, #191, #87 ) ;
#209 = EDGE_CURVE ( 'NONE', #197, #232, #160, .T. ) ;
#210 = CLOSED_SHELL ( 'NONE', ( #176, #18, #126, #286, #143, #75, #298, #25, #222, #228, #33 ) ) ;
#211 = FACE_OUTER_BOUND ( 'NONE', #11, .T. ) ;
#212 = PRESENTATION_LAYER_ASSIGNMENT (  '', '', ( #19 ) ) ;
#213 = CIRCLE ( 'NONE', #37, 0.04680315000000000170 ) ;
#214 = DIRECTION ( 'NONE',  ( 1.000000000000000000, 0.0000000000000000000, 0.0000000000000000000 ) ) ;
#215 = ORIENTED_EDGE ( 'NONE', *, *, #220, .F. ) ;
#216 = DIRECTION ( 'NONE',  ( 0.0000000000000000000, -1.000000000000000000, 0.0000000000000000000 ) ) ;
#217 = UNCERTAINTY_MEASURE_WITH_UNIT (LENGTH_MEASURE( 1.000000000000000082E-05 ), #258, 'distance_accuracy_value', 'NONE');
#218 = CARTESIAN_POINT ( 'NONE',  ( -0.06250000000000002776, 0.0000000000000000000, 1.485000000000000764 ) ) ;
#219 = VECTOR ( 'NONE', #32, 39.37007874015748854 ) ;
#220 = EDGE_CURVE ( 'NONE', #123, #267, #235, .T. ) ;
#221 = DIRECTION ( 'NONE',  ( -1.224646799147353700E-16, -0.0000000000000000000, -1.000000000000000000 ) ) ;
#222 = ADVANCED_FACE ( 'NONE', ( #177 ), #14, .T. ) ;
#223 = ORIENTED_EDGE ( 'NONE', *, *, #315, .F. ) ;
#224 = AXIS2_PLACEMENT_3D ( 'NONE', #294, #44, #189 ) ;
#225 = ORIENTED_EDGE ( 'NONE', *, *, #98, .T. ) ;
#226 = CARTESIAN_POINT ( 'NONE',  ( -0.04750000000000064587, 0.0000000000000000000, 1.500000000000000222 ) ) ;
#227 =( LENGTH_UNIT ( ) NAMED_UNIT ( * ) SI_UNIT ( $, .METRE. ) );
#228 = ADVANCED_FACE ( 'NONE', ( #230 ), #281, .T. ) ;
#229 = ORIENTED_EDGE ( 'NONE', *, *, #261, .T. ) ;
#230 = FACE_OUTER_BOUND ( 'NONE', #34, .T. ) ;
#231 = PRODUCT_DEFINITION_SHAPE ( 'NONE', 'NONE',  #157 ) ;
#232 = VERTEX_POINT ( 'NONE', #179 ) ;
#233 = AXIS2_PLACEMENT_3D ( 'NONE', #159, #262, #264 ) ;
#234 = AXIS2_PLACEMENT_3D ( 'NONE', #306, #124, #304 ) ;
#235 = LINE ( 'NONE', #182, #86 ) ;
#236 = AXIS2_PLACEMENT_3D ( 'NONE', #238, #142, #116 ) ;
#237 = CARTESIAN_POINT ( 'NONE',  ( 4.592425496802576684E-17, 0.0000000000000000000, 0.3750000000000000555 ) ) ;
#238 = CARTESIAN_POINT ( 'NONE',  ( 0.0000000000000000000, 0.0000000000000000000, 0.0000000000000000000 ) ) ;
#239 = CARTESIAN_POINT ( 'NONE',  ( 0.0000000000000000000, 0.0000000000000000000, 1.485000000000000764 ) ) ;
#240 = AXIS2_PLACEMENT_3D ( 'NONE', #293, #216, #295 ) ;
#241 = PRESENTATION_LAYER_ASSIGNMENT (  '', '', ( #110 ) ) ;
#242 = DIRECTION ( 'NONE',  ( -0.0000000000000000000, -0.0000000000000000000, -1.000000000000000000 ) ) ;
#243 = ORIENTED_EDGE ( 'NONE', *, *, #133, .T. ) ;
#244 = MANIFOLD_SOLID_BREP ( 'Fillet1', #210 ) ;
#245 = DIRECTION ( 'NONE',  ( -1.000000000000000000, 0.0000000000000000000, 1.824027865688703052E-16 ) ) ;
#246 = CARTESIAN_POINT ( 'NONE',  ( 0.0000000000000000000, 0.0000000000000000000, 1.500000000000000222 ) ) ;
#247 = AXIS2_PLACEMENT_3D ( 'NONE', #237, #81, #16 ) ;
#248 = CARTESIAN_POINT ( 'NONE',  ( -0.06249999999999996531, 0.0000000000000000000, 0.4640212600302659474 ) ) ;
#249 = VERTEX_POINT ( 'NONE', #1 ) ;
#250 = ORIENTED_EDGE ( 'NONE', *, *, #121, .F. ) ;
#251 = DIRECTION ( 'NONE',  ( -1.000000000000000000, 1.224646799147353207E-16, 0.0000000000000000000 ) ) ;
#252 = AXIS2_PLACEMENT_3D ( 'NONE', #246, #169, #280 ) ;
#253 = VERTEX_POINT ( 'NONE', #100 ) ;
#254 =( LENGTH_UNIT ( ) NAMED_UNIT ( * ) SI_UNIT ( $, .METRE. ) );
#255 = LENGTH_MEASURE_WITH_UNIT ( LENGTH_MEASURE( 0.02539999999999999897 ), #227 );
#256 = ORIENTED_EDGE ( 'NONE', *, *, #283, .F. ) ;
#257 = EDGE_CURVE ( 'NONE', #146, #52, #276, .T. ) ;
#258 =( CONVERSION_BASED_UNIT ( 'INCH', #255 ) LENGTH_UNIT ( ) NAMED_UNIT ( #56 ) );
#259 = CIRCLE ( 'NONE', #21, 0.04680315000000000170 ) ;
#260 = VECTOR ( 'NONE', #221, 39.37007874015748143 ) ;
#261 = EDGE_CURVE ( 'NONE', #146, #147, #213, .T. ) ;
#262 = DIRECTION ( 'NONE',  ( 0.0000000000000000000, 0.0000000000000000000, 1.000000000000000000 ) ) ;
#263 =( GEOMETRIC_REPRESENTATION_CONTEXT ( 3 ) GLOBAL_UNCERTAINTY_ASSIGNED_CONTEXT ( ( #217 ) ) GLOBAL_UNIT_ASSIGNED_CONTEXT ( ( #258, #317, #84 ) ) REPRESENTATION_CONTEXT ( 'NONE', 'WORKASPACE' ) );
#264 = DIRECTION ( 'NONE',  ( 1.000000000000000000, 0.0000000000000000000, 0.0000000000000000000 ) ) ;
#265 = DIRECTION ( 'NONE',  ( -1.224646799147353700E-16, -0.0000000000000000000, -1.000000000000000000 ) ) ;
#266 = DIRECTION ( 'NONE',  ( -1.224646799147353700E-16, -0.0000000000000000000, -1.000000000000000000 ) ) ;
#267 = VERTEX_POINT ( 'NONE', #248 ) ;
#268 = CIRCLE ( 'NONE', #4, 0.06250000000000002776 ) ;
#269 = CARTESIAN_POINT ( 'NONE',  ( 5.731732783751346705E-18, 0.0000000000000000000, 0.04680315000000000170 ) ) ;
#270 = APPLICATION_CONTEXT ( 'automotive_design' ) ;
#271 = CARTESIAN_POINT ( 'NONE',  ( 0.0000000000000000000, 0.0000000000000000000, 1.485000000000000764 ) ) ;
#272 = EDGE_CURVE ( 'NONE', #77, #253, #259, .T. ) ;
#273 = DIRECTION ( 'NONE',  ( -1.000000000000000000, 0.0000000000000000000, 1.824027865688703052E-16 ) ) ;
#274 = MECHANICAL_DESIGN_GEOMETRIC_PRESENTATION_REPRESENTATION (  '', ( #19 ), #263 ) ;
#275 = ORIENTED_EDGE ( 'NONE', *, *, #113, .T. ) ;
#276 = LINE ( 'NONE', #79, #38 ) ;
#277 = ORIENTED_EDGE ( 'NONE', *, *, #312, .T. ) ;
#278 = SURFACE_STYLE_FILL_AREA ( #309 ) ;
#279 = ORIENTED_EDGE ( 'NONE', *, *, #320, .T. ) ;
#280 = DIRECTION ( 'NONE',  ( 1.000000000000000000, 0.0000000000000000000, -0.0000000000000000000 ) ) ;
#281 = CYLINDRICAL_SURFACE ( 'NONE', #175, 0.04680315000000000170 ) ;
#282 = ORIENTED_EDGE ( 'NONE', *, *, #209, .T. ) ;
#283 = EDGE_CURVE ( 'NONE', #197, #123, #93, .T. ) ;
#284 = CARTESIAN_POINT ( 'NONE',  ( 4.592425496802576684E-17, 0.0000000000000000000, 0.3750000000000000555 ) ) ;
#285 =( CONVERSION_BASED_UNIT ( 'INCH', #39 ) LENGTH_UNIT ( ) NAMED_UNIT ( #3 ) );
#286 = ADVANCED_FACE ( 'NONE', ( #167 ), #5, .T. ) ;
#287 = AXIS2_PLACEMENT_3D ( 'NONE', #69, #90, #43 ) ;
#288 = PRODUCT_RELATED_PRODUCT_CATEGORY ( 'part', '', ( #30 ) ) ;
#289 = CARTESIAN_POINT ( 'NONE',  ( 0.0000000000000000000, 0.0000000000000000000, 1.500000000000000222 ) ) ;
#290 = DIRECTION ( 'NONE',  ( 0.0000000000000000000, 0.0000000000000000000, 1.000000000000000000 ) ) ;
#291 = CIRCLE ( 'NONE', #83, 0.06250000000000002776 ) ;
#292 = AXIS2_PLACEMENT_3D ( 'NONE', #192, #198, #273 ) ;
#293 = CARTESIAN_POINT ( 'NONE',  ( 5.731732783751346705E-18, 0.0000000000000000000, 0.04680315000000000170 ) ) ;
#294 = CARTESIAN_POINT ( 'NONE',  ( 5.682621508323871149E-17, 0.0000000000000000000, 0.4640212600302659474 ) ) ;
#295 = DIRECTION ( 'NONE',  ( 0.0000000000000000000, 0.0000000000000000000, -1.000000000000000000 ) ) ;
#296 = CIRCLE ( 'NONE', #80, 0.04680315000000000170 ) ;
#297 = FACE_OUTER_BOUND ( 'NONE', #50, .T. ) ;
#298 = ADVANCED_FACE ( 'NONE', ( #46 ), #193, .T. ) ;
#299 = DIRECTION ( 'NONE',  ( -1.000000000000000000, 0.0000000000000000000, 0.0000000000000000000 ) ) ;
#300 = DIRECTION ( 'NONE',  ( 0.1736481776669313026, 0.0000000000000000000, 0.9848077530122077983 ) ) ;
#301 = AXIS2_PLACEMENT_3D ( 'NONE', #125, #135, #107 ) ;
#302 = AXIS2_PLACEMENT_3D ( 'NONE', #82, #181, #132 ) ;
#303 = EDGE_LOOP ( 'NONE', ( #27, #311, #250 ) ) ;
#304 = DIRECTION ( 'NONE',  ( -1.000000000000000000, 0.0000000000000000000, 0.0000000000000000000 ) ) ;
#305 = ORIENTED_EDGE ( 'NONE', *, *, #261, .F. ) ;
#306 = CARTESIAN_POINT ( 'NONE',  ( 0.0000000000000000000, 0.0000000000000000000, 1.500000000000000222 ) ) ;
#307 = CYLINDRICAL_SURFACE ( 'NONE', #319, 0.06250000000000002776 ) ;
#308 = ORIENTED_EDGE ( 'NONE', *, *, #10, .F. ) ;
#309 = FILL_AREA_STYLE ('',( #201 ) ) ;
#310 = DIRECTION ( 'NONE',  ( 1.000000000000000000, 0.0000000000000000000, 0.0000000000000000000 ) ) ;
#311 = ORIENTED_EDGE ( 'NONE', *, *, #272, .T. ) ;
#312 = EDGE_CURVE ( 'NONE', #147, #253, #7, .T. ) ;
#313 = SURFACE_SIDE_STYLE ('',( #63 ) ) ;
#314 = PRODUCT_CONTEXT ( 'NONE', #270, 'mechanical' ) ;
#315 = EDGE_CURVE ( 'NONE', #253, #149, #195, .T. ) ;
#316 = MECHANICAL_DESIGN_GEOMETRIC_PRESENTATION_REPRESENTATION (  '', ( #110 ), #152 ) ;
#317 =( NAMED_UNIT ( * ) PLANE_ANGLE_UNIT ( ) SI_UNIT ( $, .RADIAN. ) );
#318 = DIRECTION ( 'NONE',  ( 0.7071067811865462405, 8.659560562354916834E-17, -0.7071067811865486830 ) ) ;
#319 = AXIS2_PLACEMENT_3D ( 'NONE', #289, #156, #199 ) ;
#320 = EDGE_CURVE ( 'NONE', #123, #249, #134, .T. ) ;
#321 = CARTESIAN_POINT ( 'NONE',  ( 5.682621508323871149E-17, 0.0000000000000000000, 0.4640212600302659474 ) ) ;
#322 = ORIENTED_EDGE ( 'NONE', *, *, #312, .F. ) ;
#323 = CYLINDRICAL_SURFACE ( 'NONE', #236, 0.04680315000000000170 ) ;
#324 = FACE_OUTER_BOUND ( 'NONE', #22, .T. ) ;
#325 = COLOUR_RGB ( '',0.7921568627450980005, 0.8196078431372548767, 0.9333333333333333481 ) ;
ENDSEC;
END-ISO-10303-21;
