ISO-10303-21;
HEADER;
FILE_DESCRIPTION (( 'STEP AP214' ),
    '1' );
FILE_NAME ('Micro_AEMM-055-4X.STEP',
    '2022-03-15T14:27:13',
    ( '' ),
    ( '' ),
    'SwSTEP 2.0',
    'SolidWorks 2022',
    '' );
FILE_SCHEMA (( 'AUTOMOTIVE_DESIGN' ));
ENDSEC;

DATA;
#1 = CARTESIAN_POINT ( 'NONE',  ( 0.000000000000000000, 0.000000000000000000, 2.244094000000000033 ) ) ;
#2 = LINE ( 'NONE', #128, #96 ) ;
#3 = ADVANCED_FACE ( 'NONE', ( #90 ), #165, .F. ) ;
#4 = FILL_AREA_STYLE_COLOUR ( '', #293 ) ;
#5 = DIRECTION ( 'NONE',  ( 0.000000000000000000, 0.000000000000000000, 1.000000000000000000 ) ) ;
#6 = PRODUCT_RELATED_PRODUCT_CATEGORY ( 'part', '', ( #161 ) ) ;
#7 = ORIENTED_EDGE ( 'NONE', *, *, #201, .T. ) ;
#8 = FILL_AREA_STYLE_COLOUR ( '', #190 ) ;
#9 = EDGE_CURVE ( 'NONE', #286, #187, #139, .T. ) ;
#10 =( GEOMETRIC_REPRESENTATION_CONTEXT ( 3 ) GLOBAL_UNCERTAINTY_ASSIGNED_CONTEXT ( ( #297 ) ) GLOBAL_UNIT_ASSIGNED_CONTEXT ( ( #224, #110, #252 ) ) REPRESENTATION_CONTEXT ( 'NONE', 'WORKASPACE' ) );
#11 = ORIENTED_EDGE ( 'NONE', *, *, #290, .F. ) ;
#12 = LINE ( 'NONE', #198, #195 ) ;
#13 = AXIS2_PLACEMENT_3D ( 'NONE', #69, #5, #26 ) ;
#14 = PRESENTATION_STYLE_ASSIGNMENT (( #143 ) ) ;
#15 = CIRCLE ( 'NONE', #146, 0.1181100000000000066 ) ;
#16 = DIRECTION ( 'NONE',  ( -0.000000000000000000, -0.000000000000000000, -1.000000000000000000 ) ) ;
#17 = CARTESIAN_POINT ( 'NONE',  ( 0.1081592324999999938, 1.324568578793593648E-17, 0.000000000000000000 ) ) ;
#18 = LINE ( 'NONE', #149, #57 ) ;
#19 = CARTESIAN_POINT ( 'NONE',  ( 0.000000000000000000, 0.000000000000000000, 2.244094000000000033 ) ) ;
#20 = DIRECTION ( 'NONE',  ( -1.224646799147353207E-16, -0.000000000000000000, -1.000000000000000000 ) ) ;
#21 = ORIENTED_EDGE ( 'NONE', *, *, #279, .T. ) ;
#22 = AXIS2_PLACEMENT_3D ( 'NONE', #88, #253, #86 ) ;
#23 = FACE_OUTER_BOUND ( 'NONE', #67, .T. ) ;
#24 = ORIENTED_EDGE ( 'NONE', *, *, #91, .F. ) ;
#25 = AXIS2_PLACEMENT_3D ( 'NONE', #264, #53, #291 ) ;
#26 = DIRECTION ( 'NONE',  ( 1.000000000000000000, 0.000000000000000000, -0.000000000000000000 ) ) ;
#27 = ORIENTED_EDGE ( 'NONE', *, *, #197, .F. ) ;
#28 = EDGE_LOOP ( 'NONE', ( #116, #121, #39, #50 ) ) ;
#29 = ORIENTED_EDGE ( 'NONE', *, *, #125, .T. ) ;
#30 = PRODUCT_DEFINITION ( 'UNKNOWN', '', #155, #111 ) ;
#31 = FILL_AREA_STYLE ('',( #8 ) ) ;
#32 = ADVANCED_FACE ( 'NONE', ( #93 ), #236, .T. ) ;
#33 = CARTESIAN_POINT ( 'NONE',  ( -0.1081592324999999244, 1.324568578793593802E-17, 0.6299209999999999532 ) ) ;
#34 = EDGE_CURVE ( 'NONE', #85, #119, #102, .T. ) ;
#35 = CARTESIAN_POINT ( 'NONE',  ( -0.1081592324999999938, 0.000000000000000000, 1.324568578793593648E-17 ) ) ;
#36 = LINE ( 'NONE', #126, #120 ) ;
#37 = CONICAL_SURFACE ( 'NONE', #22, 0.1031100000000002570, 0.7853981633974318477 ) ;
#38 = DIRECTION ( 'NONE',  ( -1.000000000000000000, 0.000000000000000000, 1.224646799147353207E-16 ) ) ;
#39 = ORIENTED_EDGE ( 'NONE', *, *, #158, .F. ) ;
#40 = VECTOR ( 'NONE', #75, 39.37007874015747433 ) ;
#41 =( GEOMETRIC_REPRESENTATION_CONTEXT ( 3 ) GLOBAL_UNCERTAINTY_ASSIGNED_CONTEXT ( ( #248 ) ) GLOBAL_UNIT_ASSIGNED_CONTEXT ( ( #43, #209, #73 ) ) REPRESENTATION_CONTEXT ( 'NONE', 'WORKASPACE' ) );
#42 = LENGTH_MEASURE_WITH_UNIT ( LENGTH_MEASURE( 0.02539999999999999897 ), #251 );
#43 =( CONVERSION_BASED_UNIT ( 'INCH', #254 ) LENGTH_UNIT ( ) NAMED_UNIT ( #134 ) );
#44 = EDGE_LOOP ( 'NONE', ( #21, #7, #212, #24 ) ) ;
#45 = ORIENTED_EDGE ( 'NONE', *, *, #201, .F. ) ;
#46 = AXIS2_PLACEMENT_3D ( 'NONE', #258, #138, #234 ) ;
#47 = AXIS2_PLACEMENT_3D ( 'NONE', #19, #89, #105 ) ;
#48 = MANIFOLD_SOLID_BREP ( 'Cut-Revolve1', #185 ) ;
#49 = VERTEX_POINT ( 'NONE', #148 ) ;
#50 = ORIENTED_EDGE ( 'NONE', *, *, #247, .F. ) ;
#51 = EDGE_LOOP ( 'NONE', ( #45, #210, #140, #27 ) ) ;
#52 = CARTESIAN_POINT ( 'NONE',  ( 0.000000000000000000, 0.000000000000000000, 2.229093999999999465 ) ) ;
#53 = DIRECTION ( 'NONE',  ( -1.224646799147353207E-16, -0.000000000000000000, -1.000000000000000000 ) ) ;
#54 = FACE_OUTER_BOUND ( 'NONE', #179, .T. ) ;
#55 = PRESENTATION_LAYER_ASSIGNMENT (  '', '', ( #95 ) ) ;
#56 = DIRECTION ( 'NONE',  ( -0.000000000000000000, -0.000000000000000000, -1.000000000000000000 ) ) ;
#57 = VECTOR ( 'NONE', #130, 39.37007874015748143 ) ;
#58 = DIRECTION ( 'NONE',  ( -1.000000000000000000, 0.000000000000000000, 1.224646799147353207E-16 ) ) ;
#59 = FACE_OUTER_BOUND ( 'NONE', #44, .T. ) ;
#60 = CONICAL_SURFACE ( 'NONE', #135, 0.1081592325000000077, 0.1745329251994338360 ) ;
#61 = CARTESIAN_POINT ( 'NONE',  ( 0.1181100000000000066, 1.446430334472939084E-17, 2.244094000000000033 ) ) ;
#62 = MECHANICAL_DESIGN_GEOMETRIC_PRESENTATION_REPRESENTATION (  '', ( #192 ), #41 ) ;
#63 = CARTESIAN_POINT ( 'NONE',  ( 7.714307363656999460E-17, 0.000000000000000000, 0.6299209999999999532 ) ) ;
#64 = DIRECTION ( 'NONE',  ( 1.224646799147353207E-16, 0.000000000000000000, 1.000000000000000000 ) ) ;
#65 = VERTEX_POINT ( 'NONE', #17 ) ;
#66 = DIRECTION ( 'NONE',  ( 0.000000000000000000, 0.000000000000000000, 1.000000000000000000 ) ) ;
#67 = EDGE_LOOP ( 'NONE', ( #117, #250, #193, #204 ) ) ;
#68 = APPLICATION_PROTOCOL_DEFINITION ( 'draft international standard', 'automotive_design', 1998, #172 ) ;
#69 = CARTESIAN_POINT ( 'NONE',  ( 0.000000000000000000, 0.000000000000000000, 0.000000000000000000 ) ) ;
#70 = MECHANICAL_DESIGN_GEOMETRIC_PRESENTATION_REPRESENTATION (  '', ( #95 ), #217 ) ;
#71 = EDGE_CURVE ( 'NONE', #136, #85, #118, .T. ) ;
#72 = EDGE_LOOP ( 'NONE', ( #273, #98, #29, #237 ) ) ;
#73 =( NAMED_UNIT ( * ) SI_UNIT ( $, .STERADIAN. ) SOLID_ANGLE_UNIT ( ) );
#74 = ORIENTED_EDGE ( 'NONE', *, *, #34, .F. ) ;
#75 = DIRECTION ( 'NONE',  ( -0.1736481776669311639, 2.126576849575782392E-17, 0.9848077530122080203 ) ) ;
#76 = DIRECTION ( 'NONE',  ( 0.000000000000000000, 0.000000000000000000, -1.000000000000000000 ) ) ;
#77 = DIRECTION ( 'NONE',  ( 0.000000000000000000, 0.000000000000000000, -1.000000000000000000 ) ) ;
#78 = AXIS2_PLACEMENT_3D ( 'NONE', #244, #245, #58 ) ;
#79 =( CONVERSION_BASED_UNIT ( 'INCH', #101 ) LENGTH_UNIT ( ) NAMED_UNIT ( #227 ) );
#80 = CONICAL_SURFACE ( 'NONE', #220, 0.1081592325000000077, 0.1745329251994338360 ) ;
#81 = ADVANCED_FACE ( 'NONE', ( #199 ), #242, .T. ) ;
#82 = DIRECTION ( 'NONE',  ( -1.000000000000000000, 0.000000000000000000, 1.224646799147353207E-16 ) ) ;
#83 = FACE_OUTER_BOUND ( 'NONE', #229, .T. ) ;
#84 = ADVANCED_FACE ( 'NONE', ( #144 ), #103, .T. ) ;
#85 = VERTEX_POINT ( 'NONE', #176 ) ;
#86 = DIRECTION ( 'NONE',  ( -1.000000000000000000, 0.000000000000000000, 0.000000000000000000 ) ) ;
#87 = EDGE_CURVE ( 'NONE', #94, #136, #109, .T. ) ;
#88 = CARTESIAN_POINT ( 'NONE',  ( 0.000000000000000000, 0.000000000000000000, 2.244094000000000033 ) ) ;
#89 = DIRECTION ( 'NONE',  ( 0.000000000000000000, 0.000000000000000000, 1.000000000000000000 ) ) ;
#90 = FACE_OUTER_BOUND ( 'NONE', #191, .T. ) ;
#91 = EDGE_CURVE ( 'NONE', #136, #160, #268, .T. ) ;
#92 = ORIENTED_EDGE ( 'NONE', *, *, #125, .F. ) ;
#93 = FACE_OUTER_BOUND ( 'NONE', #72, .T. ) ;
#94 = VERTEX_POINT ( 'NONE', #124 ) ;
#95 = STYLED_ITEM ( 'NONE', ( #14 ), #48 ) ;
#96 = VECTOR ( 'NONE', #151, 39.37007874015748854 ) ;
#97 = SURFACE_STYLE_FILL_AREA ( #156 ) ;
#98 = ORIENTED_EDGE ( 'NONE', *, *, #164, .T. ) ;
#99 = CARTESIAN_POINT ( 'NONE',  ( -0.1081592324999999244, 1.385499456633266443E-17, 0.6299209999999999532 ) ) ;
#100 = ADVANCED_BREP_SHAPE_REPRESENTATION ( 'Micro_AEMM-055-4X', ( #48, #276 ), #10 ) ;
#101 = LENGTH_MEASURE_WITH_UNIT ( LENGTH_MEASURE( 0.02539999999999999897 ), #292 );
#102 = CIRCLE ( 'NONE', #46, 0.1181100000000000066 ) ;
#103 = PLANE ( 'NONE',  #241 ) ;
#104 = CARTESIAN_POINT ( 'NONE',  ( 0.000000000000000000, 0.000000000000000000, 2.244094000000000033 ) ) ;
#105 = DIRECTION ( 'NONE',  ( 1.000000000000000000, 0.000000000000000000, 0.000000000000000000 ) ) ;
#106 = CARTESIAN_POINT ( 'NONE',  ( 0.1181100000000000066, 1.446430334472939084E-17, 2.229093999999999465 ) ) ;
#107 = ORIENTED_EDGE ( 'NONE', *, *, #270, .F. ) ;
#108 = LINE ( 'NONE', #61, #131 ) ;
#109 = CIRCLE ( 'NONE', #25, 0.1081592325000000077 ) ;
#110 =( NAMED_UNIT ( * ) PLANE_ANGLE_UNIT ( ) SI_UNIT ( $, .RADIAN. ) );
#111 = PRODUCT_DEFINITION_CONTEXT ( 'detailed design', #132, 'design' ) ;
#112 = ORIENTED_EDGE ( 'NONE', *, *, #9, .F. ) ;
#113 = AXIS2_PLACEMENT_3D ( 'NONE', #202, #207, #38 ) ;
#114 = DIMENSIONAL_EXPONENTS ( 1.000000000000000000, 0.000000000000000000, 0.000000000000000000, 0.000000000000000000, 0.000000000000000000, 0.000000000000000000, 0.000000000000000000 ) ;
#115 = DIRECTION ( 'NONE',  ( 1.000000000000000000, 0.000000000000000000, 0.000000000000000000 ) ) ;
#116 = ORIENTED_EDGE ( 'NONE', *, *, #216, .F. ) ;
#117 = ORIENTED_EDGE ( 'NONE', *, *, #71, .F. ) ;
#118 = LINE ( 'NONE', #33, #40 ) ;
#119 = VERTEX_POINT ( 'NONE', #168 ) ;
#120 = VECTOR ( 'NONE', #298, 39.37007874015748143 ) ;
#121 = ORIENTED_EDGE ( 'NONE', *, *, #9, .T. ) ;
#122 = DIRECTION ( 'NONE',  ( 0.000000000000000000, 0.000000000000000000, 1.000000000000000000 ) ) ;
#123 = UNCERTAINTY_MEASURE_WITH_UNIT (LENGTH_MEASURE( 1.000000000000000082E-05 ), #79, 'distance_accuracy_value', 'NONE');
#124 = CARTESIAN_POINT ( 'NONE',  ( 0.1081592325000000909, 0.000000000000000000, 0.6299209999999999532 ) ) ;
#125 = EDGE_CURVE ( 'NONE', #49, #85, #12, .T. ) ;
#126 = CARTESIAN_POINT ( 'NONE',  ( 0.1081592325000000909, 0.000000000000000000, 0.6299209999999999532 ) ) ;
#127 = AXIS2_PLACEMENT_3D ( 'NONE', #223, #20, #221 ) ;
#128 = CARTESIAN_POINT ( 'NONE',  ( -0.1031100000000002570, 0.000000000000000000, 2.244094000000000033 ) ) ;
#129 = CYLINDRICAL_SURFACE ( 'NONE', #243, 0.1081592324999999938 ) ;
#130 = DIRECTION ( 'NONE',  ( -1.224646799147353207E-16, -0.000000000000000000, -1.000000000000000000 ) ) ;
#131 = VECTOR ( 'NONE', #274, 39.37007874015748143 ) ;
#132 = APPLICATION_CONTEXT ( 'automotive_design' ) ;
#133 = EDGE_LOOP ( 'NONE', ( #260, #278 ) ) ;
#134 = DIMENSIONAL_EXPONENTS ( 1.000000000000000000, 0.000000000000000000, 0.000000000000000000, 0.000000000000000000, 0.000000000000000000, 0.000000000000000000, 0.000000000000000000 ) ;
#135 = AXIS2_PLACEMENT_3D ( 'NONE', #263, #289, #169 ) ;
#136 = VERTEX_POINT ( 'NONE', #99 ) ;
#137 = AXIS2_PLACEMENT_3D ( 'NONE', #180, #206, #246 ) ;
#138 = DIRECTION ( 'NONE',  ( -1.224646799147353207E-16, -0.000000000000000000, -1.000000000000000000 ) ) ;
#139 = LINE ( 'NONE', #188, #174 ) ;
#140 = ORIENTED_EDGE ( 'NONE', *, *, #91, .T. ) ;
#141 = ADVANCED_FACE ( 'NONE', ( #194 ), #60, .T. ) ;
#142 = DIRECTION ( 'NONE',  ( 1.000000000000000000, 0.000000000000000000, 0.000000000000000000 ) ) ;
#143 = SURFACE_STYLE_USAGE ( .BOTH. , #200 ) ;
#144 = FACE_OUTER_BOUND ( 'NONE', #133, .T. ) ;
#145 = AXIS2_PLACEMENT_3D ( 'NONE', #52, #76, #142 ) ;
#146 = AXIS2_PLACEMENT_3D ( 'NONE', #178, #275, #295 ) ;
#147 = DIRECTION ( 'NONE',  ( -1.000000000000000000, 0.000000000000000000, 0.000000000000000000 ) ) ;
#148 = CARTESIAN_POINT ( 'NONE',  ( -0.1181100000000000066, 0.000000000000000000, 2.229093999999999465 ) ) ;
#149 = CARTESIAN_POINT ( 'NONE',  ( 0.1081592324999999938, 1.324568578793593648E-17, -1.324568578793593648E-17 ) ) ;
#150 = CIRCLE ( 'NONE', #299, 0.1181100000000000066 ) ;
#151 = DIRECTION ( 'NONE',  ( -0.7071067811865358044, 0.000000000000000000, -0.7071067811865590080 ) ) ;
#152 = CIRCLE ( 'NONE', #113, 0.1081592324999999938 ) ;
#153 = DIRECTION ( 'NONE',  ( -1.224646799147353207E-16, -0.000000000000000000, -1.000000000000000000 ) ) ;
#154 = CARTESIAN_POINT ( 'NONE',  ( 0.1031100000000002570, 1.354581824536888722E-17, 2.244094000000000033 ) ) ;
#155 = PRODUCT_DEFINITION_FORMATION_WITH_SPECIFIED_SOURCE ( 'ANY', '', #161, .NOT_KNOWN. ) ;
#156 = FILL_AREA_STYLE ('',( #4 ) ) ;
#157 = ORIENTED_EDGE ( 'NONE', *, *, #158, .T. ) ;
#158 = EDGE_CURVE ( 'NONE', #49, #187, #281, .T. ) ;
#159 = SHAPE_DEFINITION_REPRESENTATION ( #282, #100 ) ;
#160 = VERTEX_POINT ( 'NONE', #171 ) ;
#161 = PRODUCT ( 'Micro_AEMM-055-4X', 'Micro_AEMM-055-4X', '', ( #235 ) ) ;
#162 = DIRECTION ( 'NONE',  ( -1.000000000000000000, 0.000000000000000000, 0.000000000000000000 ) ) ;
#163 = SURFACE_SIDE_STYLE ('',( #97 ) ) ;
#164 = EDGE_CURVE ( 'NONE', #187, #49, #150, .T. ) ;
#165 = PLANE ( 'NONE',  #13 ) ;
#166 = ADVANCED_FACE ( 'NONE', ( #54 ), #218, .T. ) ;
#167 = ORIENTED_EDGE ( 'NONE', *, *, #247, .T. ) ;
#168 = CARTESIAN_POINT ( 'NONE',  ( 0.1181100000000000899, 1.446430334472940009E-17, 0.6863546068139924072 ) ) ;
#169 = DIRECTION ( 'NONE',  ( 1.000000000000000000, 0.000000000000000000, 0.000000000000000000 ) ) ;
#170 = EDGE_CURVE ( 'NONE', #160, #65, #231, .T. ) ;
#171 = CARTESIAN_POINT ( 'NONE',  ( -0.1081592324999999938, 0.000000000000000000, 2.649137157587187296E-17 ) ) ;
#172 = APPLICATION_CONTEXT ( 'automotive_design' ) ;
#173 =( NAMED_UNIT ( * ) PLANE_ANGLE_UNIT ( ) SI_UNIT ( $, .RADIAN. ) );
#174 = VECTOR ( 'NONE', #211, 39.37007874015748854 ) ;
#175 = PRESENTATION_LAYER_ASSIGNMENT (  '', '', ( #192 ) ) ;
#176 = CARTESIAN_POINT ( 'NONE',  ( -0.1181099999999999234, 0.000000000000000000, 0.6863546068139924072 ) ) ;
#177 = DIRECTION ( 'NONE',  ( -1.000000000000000000, 0.000000000000000000, 1.224646799147353207E-16 ) ) ;
#178 = CARTESIAN_POINT ( 'NONE',  ( 8.405419723147960063E-17, 0.000000000000000000, 0.6863546068139924072 ) ) ;
#179 = EDGE_LOOP ( 'NONE', ( #157, #214, #74, #92 ) ) ;
#180 = CARTESIAN_POINT ( 'NONE',  ( 0.000000000000000000, 0.000000000000000000, 2.244094000000000033 ) ) ;
#181 = CIRCLE ( 'NONE', #284, 0.1031100000000002570 ) ;
#182 = DIRECTION ( 'NONE',  ( -1.224646799147353207E-16, -0.000000000000000000, -1.000000000000000000 ) ) ;
#183 = ORIENTED_EDGE ( 'NONE', *, *, #34, .T. ) ;
#184 = DIRECTION ( 'NONE',  ( 0.000000000000000000, 0.000000000000000000, 1.000000000000000000 ) ) ;
#185 = CLOSED_SHELL ( 'NONE', ( #230, #141, #219, #166, #32, #84, #294, #186, #81, #3 ) ) ;
#186 = ADVANCED_FACE ( 'NONE', ( #23 ), #80, .T. ) ;
#187 = VERTEX_POINT ( 'NONE', #106 ) ;
#188 = CARTESIAN_POINT ( 'NONE',  ( 0.1031100000000002570, 1.262733314600838667E-17, 2.244094000000000033 ) ) ;
#189 = CARTESIAN_POINT ( 'NONE',  ( 0.000000000000000000, 0.000000000000000000, 2.244094000000000033 ) ) ;
#190 = COLOUR_RGB ( '',0.7921568627450980005, 0.8196078431372548767, 0.9333333333333333481 ) ;
#191 = EDGE_LOOP ( 'NONE', ( #233, #262 ) ) ;
#192 = STYLED_ITEM ( 'NONE', ( #208 ), #100 ) ;
#193 = ORIENTED_EDGE ( 'NONE', *, *, #270, .T. ) ;
#194 = FACE_OUTER_BOUND ( 'NONE', #256, .T. ) ;
#195 = VECTOR ( 'NONE', #16, 39.37007874015748143 ) ;
#196 =( NAMED_UNIT ( * ) SI_UNIT ( $, .STERADIAN. ) SOLID_ANGLE_UNIT ( ) );
#197 = EDGE_CURVE ( 'NONE', #65, #160, #152, .T. ) ;
#198 = CARTESIAN_POINT ( 'NONE',  ( -0.1181100000000000066, 0.000000000000000000, 2.244094000000000033 ) ) ;
#199 = FACE_OUTER_BOUND ( 'NONE', #51, .T. ) ;
#200 = SURFACE_SIDE_STYLE ('',( #287 ) ) ;
#201 = EDGE_CURVE ( 'NONE', #94, #65, #18, .T. ) ;
#202 = CARTESIAN_POINT ( 'NONE',  ( 1.622128670270733258E-33, 0.000000000000000000, 1.324568578793593648E-17 ) ) ;
#203 = CARTESIAN_POINT ( 'NONE',  ( -0.1031100000000002570, 0.000000000000000000, 2.244094000000000033 ) ) ;
#204 = ORIENTED_EDGE ( 'NONE', *, *, #222, .T. ) ;
#205 = AXIS2_PLACEMENT_3D ( 'NONE', #189, #280, #162 ) ;
#206 = DIRECTION ( 'NONE',  ( 0.000000000000000000, 0.000000000000000000, -1.000000000000000000 ) ) ;
#207 = DIRECTION ( 'NONE',  ( -1.224646799147353207E-16, -0.000000000000000000, -1.000000000000000000 ) ) ;
#208 = PRESENTATION_STYLE_ASSIGNMENT (( #283 ) ) ;
#209 =( NAMED_UNIT ( * ) PLANE_ANGLE_UNIT ( ) SI_UNIT ( $, .RADIAN. ) );
#210 = ORIENTED_EDGE ( 'NONE', *, *, #87, .T. ) ;
#211 = DIRECTION ( 'NONE',  ( 0.7071067811865358044, 8.659560562354788645E-17, -0.7071067811865590080 ) ) ;
#212 = ORIENTED_EDGE ( 'NONE', *, *, #170, .F. ) ;
#213 = VECTOR ( 'NONE', #288, 39.37007874015748143 ) ;
#214 = ORIENTED_EDGE ( 'NONE', *, *, #296, .T. ) ;
#215 = ORIENTED_EDGE ( 'NONE', *, *, #164, .F. ) ;
#216 = EDGE_CURVE ( 'NONE', #286, #255, #181, .T. ) ;
#217 =( GEOMETRIC_REPRESENTATION_CONTEXT ( 3 ) GLOBAL_UNCERTAINTY_ASSIGNED_CONTEXT ( ( #123 ) ) GLOBAL_UNIT_ASSIGNED_CONTEXT ( ( #79, #173, #196 ) ) REPRESENTATION_CONTEXT ( 'NONE', 'WORKASPACE' ) );
#218 = CYLINDRICAL_SURFACE ( 'NONE', #272, 0.1181100000000000066 ) ;
#219 = ADVANCED_FACE ( 'NONE', ( #269 ), #238, .T. ) ;
#220 = AXIS2_PLACEMENT_3D ( 'NONE', #63, #64, #115 ) ;
#221 = DIRECTION ( 'NONE',  ( -1.000000000000000000, 0.000000000000000000, 0.000000000000000000 ) ) ;
#222 = EDGE_CURVE ( 'NONE', #119, #85, #15, .T. ) ;
#223 = CARTESIAN_POINT ( 'NONE',  ( 7.714307363656999460E-17, 0.000000000000000000, 0.6299209999999999532 ) ) ;
#224 =( CONVERSION_BASED_UNIT ( 'INCH', #42 ) LENGTH_UNIT ( ) NAMED_UNIT ( #114 ) );
#225 = CIRCLE ( 'NONE', #47, 0.1031100000000002570 ) ;
#226 = CARTESIAN_POINT ( 'NONE',  ( 1.622128670270733258E-33, 0.000000000000000000, 1.324568578793593648E-17 ) ) ;
#227 = DIMENSIONAL_EXPONENTS ( 1.000000000000000000, 0.000000000000000000, 0.000000000000000000, 0.000000000000000000, 0.000000000000000000, 0.000000000000000000, 0.000000000000000000 ) ;
#228 = CARTESIAN_POINT ( 'NONE',  ( 0.000000000000000000, 0.000000000000000000, 0.000000000000000000 ) ) ;
#229 = EDGE_LOOP ( 'NONE', ( #112, #11, #167, #215 ) ) ;
#230 = ADVANCED_FACE ( 'NONE', ( #59 ), #129, .T. ) ;
#231 = CIRCLE ( 'NONE', #257, 0.1081592324999999938 ) ;
#232 = DIRECTION ( 'NONE',  ( 1.000000000000000000, 0.000000000000000000, 0.000000000000000000 ) ) ;
#233 = ORIENTED_EDGE ( 'NONE', *, *, #170, .T. ) ;
#234 = DIRECTION ( 'NONE',  ( 1.000000000000000000, 0.000000000000000000, 0.000000000000000000 ) ) ;
#235 = PRODUCT_CONTEXT ( 'NONE', #172, 'mechanical' ) ;
#236 = CYLINDRICAL_SURFACE ( 'NONE', #205, 0.1181100000000000066 ) ;
#237 = ORIENTED_EDGE ( 'NONE', *, *, #222, .F. ) ;
#238 = CONICAL_SURFACE ( 'NONE', #137, 0.1031100000000002570, 0.7853981633974318477 ) ;
#239 = CARTESIAN_POINT ( 'NONE',  ( 0.000000000000000000, 0.000000000000000000, 2.229093999999999465 ) ) ;
#240 = DIRECTION ( 'NONE',  ( 1.000000000000000000, 0.000000000000000000, -0.000000000000000000 ) ) ;
#241 = AXIS2_PLACEMENT_3D ( 'NONE', #104, #122, #240 ) ;
#242 = CYLINDRICAL_SURFACE ( 'NONE', #78, 0.1081592324999999938 ) ;
#243 = AXIS2_PLACEMENT_3D ( 'NONE', #271, #153, #82 ) ;
#244 = CARTESIAN_POINT ( 'NONE',  ( 0.000000000000000000, 0.000000000000000000, 0.000000000000000000 ) ) ;
#245 = DIRECTION ( 'NONE',  ( -1.224646799147353207E-16, -0.000000000000000000, -1.000000000000000000 ) ) ;
#246 = DIRECTION ( 'NONE',  ( -1.000000000000000000, 0.000000000000000000, 0.000000000000000000 ) ) ;
#247 = EDGE_CURVE ( 'NONE', #255, #49, #2, .T. ) ;
#248 = UNCERTAINTY_MEASURE_WITH_UNIT (LENGTH_MEASURE( 1.000000000000000082E-05 ), #43, 'distance_accuracy_value', 'NONE');
#249 = DIRECTION ( 'NONE',  ( 1.000000000000000000, 0.000000000000000000, 0.000000000000000000 ) ) ;
#250 = ORIENTED_EDGE ( 'NONE', *, *, #87, .F. ) ;
#251 =( LENGTH_UNIT ( ) NAMED_UNIT ( * ) SI_UNIT ( $, .METRE. ) );
#252 =( NAMED_UNIT ( * ) SI_UNIT ( $, .STERADIAN. ) SOLID_ANGLE_UNIT ( ) );
#253 = DIRECTION ( 'NONE',  ( 0.000000000000000000, 0.000000000000000000, -1.000000000000000000 ) ) ;
#254 = LENGTH_MEASURE_WITH_UNIT ( LENGTH_MEASURE( 0.02539999999999999897 ), #259 );
#255 = VERTEX_POINT ( 'NONE', #203 ) ;
#256 = EDGE_LOOP ( 'NONE', ( #285, #277, #183, #107 ) ) ;
#257 = AXIS2_PLACEMENT_3D ( 'NONE', #226, #182, #177 ) ;
#258 = CARTESIAN_POINT ( 'NONE',  ( 8.405419723147960063E-17, 0.000000000000000000, 0.6863546068139924072 ) ) ;
#259 =( LENGTH_UNIT ( ) NAMED_UNIT ( * ) SI_UNIT ( $, .METRE. ) );
#260 = ORIENTED_EDGE ( 'NONE', *, *, #290, .T. ) ;
#261 = APPLICATION_PROTOCOL_DEFINITION ( 'draft international standard', 'automotive_design', 1998, #132 ) ;
#262 = ORIENTED_EDGE ( 'NONE', *, *, #197, .T. ) ;
#263 = CARTESIAN_POINT ( 'NONE',  ( 7.714307363656999460E-17, 0.000000000000000000, 0.6299209999999999532 ) ) ;
#264 = CARTESIAN_POINT ( 'NONE',  ( 7.714307363656999460E-17, 0.000000000000000000, 0.6299209999999999532 ) ) ;
#265 = DIRECTION ( 'NONE',  ( 1.000000000000000000, 0.000000000000000000, 0.000000000000000000 ) ) ;
#266 = CARTESIAN_POINT ( 'NONE',  ( 0.000000000000000000, 0.000000000000000000, 2.244094000000000033 ) ) ;
#267 = CIRCLE ( 'NONE', #127, 0.1081592325000000077 ) ;
#268 = LINE ( 'NONE', #35, #213 ) ;
#269 = FACE_OUTER_BOUND ( 'NONE', #28, .T. ) ;
#270 = EDGE_CURVE ( 'NONE', #94, #119, #36, .T. ) ;
#271 = CARTESIAN_POINT ( 'NONE',  ( 0.000000000000000000, 0.000000000000000000, 0.000000000000000000 ) ) ;
#272 = AXIS2_PLACEMENT_3D ( 'NONE', #266, #56, #147 ) ;
#273 = ORIENTED_EDGE ( 'NONE', *, *, #296, .F. ) ;
#274 = DIRECTION ( 'NONE',  ( -0.000000000000000000, -0.000000000000000000, -1.000000000000000000 ) ) ;
#275 = DIRECTION ( 'NONE',  ( -1.224646799147353207E-16, -0.000000000000000000, -1.000000000000000000 ) ) ;
#276 = AXIS2_PLACEMENT_3D ( 'NONE', #228, #66, #232 ) ;
#277 = ORIENTED_EDGE ( 'NONE', *, *, #71, .T. ) ;
#278 = ORIENTED_EDGE ( 'NONE', *, *, #216, .T. ) ;
#279 = EDGE_CURVE ( 'NONE', #136, #94, #267, .T. ) ;
#280 = DIRECTION ( 'NONE',  ( -0.000000000000000000, -0.000000000000000000, -1.000000000000000000 ) ) ;
#281 = CIRCLE ( 'NONE', #145, 0.1181100000000000066 ) ;
#282 = PRODUCT_DEFINITION_SHAPE ( 'NONE', 'NONE',  #30 ) ;
#283 = SURFACE_STYLE_USAGE ( .BOTH. , #163 ) ;
#284 = AXIS2_PLACEMENT_3D ( 'NONE', #1, #184, #249 ) ;
#285 = ORIENTED_EDGE ( 'NONE', *, *, #279, .F. ) ;
#286 = VERTEX_POINT ( 'NONE', #154 ) ;
#287 = SURFACE_STYLE_FILL_AREA ( #31 ) ;
#288 = DIRECTION ( 'NONE',  ( -1.224646799147353207E-16, -0.000000000000000000, -1.000000000000000000 ) ) ;
#289 = DIRECTION ( 'NONE',  ( 1.224646799147353207E-16, 0.000000000000000000, 1.000000000000000000 ) ) ;
#290 = EDGE_CURVE ( 'NONE', #255, #286, #225, .T. ) ;
#291 = DIRECTION ( 'NONE',  ( -1.000000000000000000, 0.000000000000000000, 0.000000000000000000 ) ) ;
#292 =( LENGTH_UNIT ( ) NAMED_UNIT ( * ) SI_UNIT ( $, .METRE. ) );
#293 = COLOUR_RGB ( '',0.7921568627450980005, 0.8196078431372548767, 0.9333333333333333481 ) ;
#294 = ADVANCED_FACE ( 'NONE', ( #83 ), #37, .T. ) ;
#295 = DIRECTION ( 'NONE',  ( 1.000000000000000000, 0.000000000000000000, 0.000000000000000000 ) ) ;
#296 = EDGE_CURVE ( 'NONE', #187, #119, #108, .T. ) ;
#297 = UNCERTAINTY_MEASURE_WITH_UNIT (LENGTH_MEASURE( 1.000000000000000082E-05 ), #224, 'distance_accuracy_value', 'NONE');
#298 = DIRECTION ( 'NONE',  ( 0.1736481776669313304, 0.000000000000000000, 0.9848077530122077983 ) ) ;
#299 = AXIS2_PLACEMENT_3D ( 'NONE', #239, #77, #265 ) ;
ENDSEC;
END-ISO-10303-21;
