ISO-10303-21;
HEADER;
FILE_DESCRIPTION (( 'STEP AP214' ),
    '1' );
FILE_NAME ('Micro_DT-250-060-010.STEP',
    '2021-09-02T21:18:02',
    ( '' ),
    ( '' ),
    'SwSTEP 2.0',
    'SolidWorks 2020',
    '' );
FILE_SCHEMA (( 'AUTOMOTIVE_DESIGN' ));
ENDSEC;

DATA;
#1 = PRODUCT_RELATED_PRODUCT_CATEGORY ( 'part', '', ( #8 ) ) ;
#2 = LENGTH_MEASURE_WITH_UNIT ( LENGTH_MEASURE( 0.02539999999999999897 ), #39 );
#3 = VERTEX_POINT ( 'NONE', #17 ) ;
#4 =( NAMED_UNIT ( * ) PLANE_ANGLE_UNIT ( ) SI_UNIT ( $, .RADIAN. ) );
#5 = FILL_AREA_STYLE ('',( #69 ) ) ;
#6 = EDGE_CURVE ( 'NONE', #160, #116, #80, .T. ) ;
#7 = ORIENTED_EDGE ( 'NONE', *, *, #59, .T. ) ;
#8 = PRODUCT ( 'Micro_DT-250-060-010', 'Micro_DT-250-060-010', '', ( #189 ) ) ;
#9 = PRODUCT_DEFINITION_SHAPE ( 'NONE', 'NONE',  #128 ) ;
#10 = PRODUCT_DEFINITION_FORMATION_WITH_SPECIFIED_SOURCE ( 'ANY', '', #8, .NOT_KNOWN. ) ;
#11 = EDGE_LOOP ( 'NONE', ( #138, #90, #82, #94 ) ) ;
#12 = EDGE_LOOP ( 'NONE', ( #153, #167, #20, #169 ) ) ;
#13 = CARTESIAN_POINT ( 'NONE',  ( 0.0000000000000000000, 0.0000000000000000000, 2.500000000000000000 ) ) ;
#14 = VERTEX_POINT ( 'NONE', #108 ) ;
#15 = CARTESIAN_POINT ( 'NONE',  ( 0.0000000000000000000, 0.0000000000000000000, 2.485000000000000320 ) ) ;
#16 = ORIENTED_EDGE ( 'NONE', *, *, #158, .T. ) ;
#17 = CARTESIAN_POINT ( 'NONE',  ( -0.1250000000000000000, 0.0000000000000000000, 0.0000000000000000000 ) ) ;
#18 = AXIS2_PLACEMENT_3D ( 'NONE', #15, #78, #129 ) ;
#19 = EDGE_LOOP ( 'NONE', ( #53, #100, #43, #16 ) ) ;
#20 = ORIENTED_EDGE ( 'NONE', *, *, #164, .T. ) ;
#21 =( LENGTH_UNIT ( ) NAMED_UNIT ( * ) SI_UNIT ( $, .METRE. ) );
#22 = CIRCLE ( 'NONE', #120, 0.1100000000000001948 ) ;
#23 = AXIS2_PLACEMENT_3D ( 'NONE', #188, #52, #113 ) ;
#24 = UNCERTAINTY_MEASURE_WITH_UNIT (LENGTH_MEASURE( 1.000000000000000082E-05 ), #111, 'distance_accuracy_value', 'NONE');
#25 = ADVANCED_FACE ( 'NONE', ( #199 ), #81, .T. ) ;
#26 = EDGE_CURVE ( 'NONE', #14, #116, #112, .T. ) ;
#27 =( GEOMETRIC_REPRESENTATION_CONTEXT ( 3 ) GLOBAL_UNCERTAINTY_ASSIGNED_CONTEXT ( ( #74 ) ) GLOBAL_UNIT_ASSIGNED_CONTEXT ( ( #68, #37, #161 ) ) REPRESENTATION_CONTEXT ( 'NONE', 'WORKASPACE' ) );
#28 = CYLINDRICAL_SURFACE ( 'NONE', #98, 0.1250000000000000000 ) ;
#29 = CARTESIAN_POINT ( 'NONE',  ( 0.0000000000000000000, 0.0000000000000000000, 2.500000000000000000 ) ) ;
#30 = FACE_OUTER_BOUND ( 'NONE', #11, .T. ) ;
#31 = DIRECTION ( 'NONE',  ( -0.0000000000000000000, -0.0000000000000000000, -1.000000000000000000 ) ) ;
#32 = DIRECTION ( 'NONE',  ( 0.0000000000000000000, 0.0000000000000000000, -1.000000000000000000 ) ) ;
#33 =( NAMED_UNIT ( * ) SI_UNIT ( $, .STERADIAN. ) SOLID_ANGLE_UNIT ( ) );
#34 = SURFACE_STYLE_USAGE ( .BOTH. , #170 ) ;
#35 = CONICAL_SURFACE ( 'NONE', #85, 0.1100000000000001948, 0.7853981633974517207 ) ;
#36 = APPLICATION_PROTOCOL_DEFINITION ( 'draft international standard', 'automotive_design', 1998, #75 ) ;
#37 =( NAMED_UNIT ( * ) PLANE_ANGLE_UNIT ( ) SI_UNIT ( $, .RADIAN. ) );
#38 = FACE_OUTER_BOUND ( 'NONE', #105, .T. ) ;
#39 =( LENGTH_UNIT ( ) NAMED_UNIT ( * ) SI_UNIT ( $, .METRE. ) );
#40 = CIRCLE ( 'NONE', #107, 0.1250000000000000000 ) ;
#41 = MANIFOLD_SOLID_BREP ( 'Chamfer', #54 ) ;
#42 = DIRECTION ( 'NONE',  ( -0.7071067811865499042, 0.0000000000000000000, -0.7071067811865451302 ) ) ;
#43 = ORIENTED_EDGE ( 'NONE', *, *, #182, .T. ) ;
#44 = CARTESIAN_POINT ( 'NONE',  ( 0.0000000000000000000, 0.0000000000000000000, 2.500000000000000000 ) ) ;
#45 = CARTESIAN_POINT ( 'NONE',  ( -0.1100000000000001948, 0.0000000000000000000, 2.500000000000000000 ) ) ;
#46 = DIRECTION ( 'NONE',  ( 1.000000000000000000, 0.0000000000000000000, 0.0000000000000000000 ) ) ;
#47 = AXIS2_PLACEMENT_3D ( 'NONE', #139, #197, #64 ) ;
#48 =( NAMED_UNIT ( * ) PLANE_ANGLE_UNIT ( ) SI_UNIT ( $, .RADIAN. ) );
#49 = EDGE_LOOP ( 'NONE', ( #7, #148 ) ) ;
#50 = SURFACE_STYLE_USAGE ( .BOTH. , #84 ) ;
#51 = DIRECTION ( 'NONE',  ( 1.000000000000000000, 0.0000000000000000000, -0.0000000000000000000 ) ) ;
#52 = DIRECTION ( 'NONE',  ( 0.0000000000000000000, 0.0000000000000000000, 1.000000000000000000 ) ) ;
#53 = ORIENTED_EDGE ( 'NONE', *, *, #186, .F. ) ;
#54 = CLOSED_SHELL ( 'NONE', ( #131, #137, #141, #25, #122, #104 ) ) ;
#55 = DIRECTION ( 'NONE',  ( 1.000000000000000000, 0.0000000000000000000, 0.0000000000000000000 ) ) ;
#56 = DIRECTION ( 'NONE',  ( 0.0000000000000000000, 0.0000000000000000000, 1.000000000000000000 ) ) ;
#57 = CARTESIAN_POINT ( 'NONE',  ( 0.0000000000000000000, 0.0000000000000000000, 0.0000000000000000000 ) ) ;
#58 = DIRECTION ( 'NONE',  ( -1.000000000000000000, 0.0000000000000000000, 0.0000000000000000000 ) ) ;
#59 = EDGE_CURVE ( 'NONE', #154, #14, #103, .T. ) ;
#60 = CARTESIAN_POINT ( 'NONE',  ( -0.1100000000000001948, 0.0000000000000000000, 2.500000000000000000 ) ) ;
#61 = PRODUCT_DEFINITION_CONTEXT ( 'detailed design', #75, 'design' ) ;
#62 = STYLED_ITEM ( 'NONE', ( #71 ), #118 ) ;
#63 = FACE_OUTER_BOUND ( 'NONE', #19, .T. ) ;
#64 = DIRECTION ( 'NONE',  ( 1.000000000000000000, 0.0000000000000000000, 0.0000000000000000000 ) ) ;
#65 = ORIENTED_EDGE ( 'NONE', *, *, #26, .T. ) ;
#66 = VECTOR ( 'NONE', #42, 39.37007874015748143 ) ;
#67 = FILL_AREA_STYLE ('',( #142 ) ) ;
#68 =( CONVERSION_BASED_UNIT ( 'INCH', #70 ) LENGTH_UNIT ( ) NAMED_UNIT ( #135 ) );
#69 = FILL_AREA_STYLE_COLOUR ( '', #180 ) ;
#70 = LENGTH_MEASURE_WITH_UNIT ( LENGTH_MEASURE( 0.02539999999999999897 ), #147 );
#71 = PRESENTATION_STYLE_ASSIGNMENT (( #50 ) ) ;
#72 = AXIS2_PLACEMENT_3D ( 'NONE', #44, #124, #181 ) ;
#73 = CARTESIAN_POINT ( 'NONE',  ( 0.1250000000000000000, 1.530808498934191509E-17, 2.485000000000000320 ) ) ;
#74 = UNCERTAINTY_MEASURE_WITH_UNIT (LENGTH_MEASURE( 1.000000000000000082E-05 ), #68, 'distance_accuracy_value', 'NONE');
#75 = APPLICATION_CONTEXT ( 'automotive_design' ) ;
#76 = DIRECTION ( 'NONE',  ( -1.000000000000000000, 0.0000000000000000000, 0.0000000000000000000 ) ) ;
#77 = DIRECTION ( 'NONE',  ( 0.7071067811865499042, 8.659560562354961208E-17, -0.7071067811865451302 ) ) ;
#78 = DIRECTION ( 'NONE',  ( 0.0000000000000000000, 0.0000000000000000000, -1.000000000000000000 ) ) ;
#79 =( NAMED_UNIT ( * ) SI_UNIT ( $, .STERADIAN. ) SOLID_ANGLE_UNIT ( ) );
#80 = CIRCLE ( 'NONE', #18, 0.1250000000000000000 ) ;
#81 = PLANE ( 'NONE',  #133 ) ;
#82 = ORIENTED_EDGE ( 'NONE', *, *, #162, .T. ) ;
#83 =( GEOMETRIC_REPRESENTATION_CONTEXT ( 3 ) GLOBAL_UNCERTAINTY_ASSIGNED_CONTEXT ( ( #24 ) ) GLOBAL_UNIT_ASSIGNED_CONTEXT ( ( #111, #48, #33 ) ) REPRESENTATION_CONTEXT ( 'NONE', 'WORKASPACE' ) );
#84 = SURFACE_SIDE_STYLE ('',( #96 ) ) ;
#85 = AXIS2_PLACEMENT_3D ( 'NONE', #119, #177, #140 ) ;
#86 = UNCERTAINTY_MEASURE_WITH_UNIT (LENGTH_MEASURE( 1.000000000000000082E-05 ), #171, 'distance_accuracy_value', 'NONE');
#87 = DIMENSIONAL_EXPONENTS ( 1.000000000000000000, 0.0000000000000000000, 0.0000000000000000000, 0.0000000000000000000, 0.0000000000000000000, 0.0000000000000000000, 0.0000000000000000000 ) ;
#88 = ORIENTED_EDGE ( 'NONE', *, *, #162, .F. ) ;
#89 = DIRECTION ( 'NONE',  ( 0.0000000000000000000, 0.0000000000000000000, 1.000000000000000000 ) ) ;
#90 = ORIENTED_EDGE ( 'NONE', *, *, #186, .T. ) ;
#91 = VERTEX_POINT ( 'NONE', #176 ) ;
#92 = CARTESIAN_POINT ( 'NONE',  ( 0.0000000000000000000, 0.0000000000000000000, 2.500000000000000000 ) ) ;
#93 = ORIENTED_EDGE ( 'NONE', *, *, #196, .F. ) ;
#94 = ORIENTED_EDGE ( 'NONE', *, *, #182, .F. ) ;
#95 = MECHANICAL_DESIGN_GEOMETRIC_PRESENTATION_REPRESENTATION (  '', ( #62 ), #83 ) ;
#96 = SURFACE_STYLE_FILL_AREA ( #5 ) ;
#97 = LINE ( 'NONE', #125, #190 ) ;
#98 = AXIS2_PLACEMENT_3D ( 'NONE', #13, #155, #76 ) ;
#99 = VECTOR ( 'NONE', #130, 39.37007874015748143 ) ;
#100 = ORIENTED_EDGE ( 'NONE', *, *, #193, .T. ) ;
#101 = DIMENSIONAL_EXPONENTS ( 1.000000000000000000, 0.0000000000000000000, 0.0000000000000000000, 0.0000000000000000000, 0.0000000000000000000, 0.0000000000000000000, 0.0000000000000000000 ) ;
#102 = CARTESIAN_POINT ( 'NONE',  ( 0.0000000000000000000, 0.0000000000000000000, 0.0000000000000000000 ) ) ;
#103 = CIRCLE ( 'NONE', #166, 0.1100000000000001948 ) ;
#104 = ADVANCED_FACE ( 'NONE', ( #127 ), #173, .T. ) ;
#105 = EDGE_LOOP ( 'NONE', ( #110, #88 ) ) ;
#106 = DIRECTION ( 'NONE',  ( 1.000000000000000000, 0.0000000000000000000, 0.0000000000000000000 ) ) ;
#107 = AXIS2_PLACEMENT_3D ( 'NONE', #102, #89, #106 ) ;
#108 = CARTESIAN_POINT ( 'NONE',  ( 0.1100000000000001948, 1.438959988998141146E-17, 2.500000000000000000 ) ) ;
#109 = CARTESIAN_POINT ( 'NONE',  ( 0.0000000000000000000, 0.0000000000000000000, 2.485000000000000320 ) ) ;
#110 = ORIENTED_EDGE ( 'NONE', *, *, #158, .F. ) ;
#111 =( CONVERSION_BASED_UNIT ( 'INCH', #156 ) LENGTH_UNIT ( ) NAMED_UNIT ( #87 ) );
#112 = LINE ( 'NONE', #114, #123 ) ;
#113 = DIRECTION ( 'NONE',  ( 1.000000000000000000, 0.0000000000000000000, 0.0000000000000000000 ) ) ;
#114 = CARTESIAN_POINT ( 'NONE',  ( 0.1100000000000001948, 1.347111479062090784E-17, 2.500000000000000000 ) ) ;
#115 = CARTESIAN_POINT ( 'NONE',  ( -0.1250000000000000000, 0.0000000000000000000, 2.500000000000000000 ) ) ;
#116 = VERTEX_POINT ( 'NONE', #73 ) ;
#117 = DIRECTION ( 'NONE',  ( 0.0000000000000000000, 0.0000000000000000000, -1.000000000000000000 ) ) ;
#118 = ADVANCED_BREP_SHAPE_REPRESENTATION ( 'Micro_DT-250-060-010', ( #41, #23 ), #151 ) ;
#119 = CARTESIAN_POINT ( 'NONE',  ( 0.0000000000000000000, 0.0000000000000000000, 2.500000000000000000 ) ) ;
#120 = AXIS2_PLACEMENT_3D ( 'NONE', #92, #150, #175 ) ;
#121 = CYLINDRICAL_SURFACE ( 'NONE', #72, 0.1250000000000000000 ) ;
#122 = ADVANCED_FACE ( 'NONE', ( #38 ), #178, .F. ) ;
#123 = VECTOR ( 'NONE', #77, 39.37007874015748143 ) ;
#124 = DIRECTION ( 'NONE',  ( -0.0000000000000000000, -0.0000000000000000000, -1.000000000000000000 ) ) ;
#125 = CARTESIAN_POINT ( 'NONE',  ( 0.1250000000000000000, 1.530808498934191509E-17, 2.500000000000000000 ) ) ;
#126 = CIRCLE ( 'NONE', #47, 0.1250000000000000000 ) ;
#127 = FACE_OUTER_BOUND ( 'NONE', #12, .T. ) ;
#128 = PRODUCT_DEFINITION ( 'UNKNOWN', '', #10, #61 ) ;
#129 = DIRECTION ( 'NONE',  ( 1.000000000000000000, 0.0000000000000000000, 0.0000000000000000000 ) ) ;
#130 = DIRECTION ( 'NONE',  ( -0.0000000000000000000, -0.0000000000000000000, -1.000000000000000000 ) ) ;
#131 = ADVANCED_FACE ( 'NONE', ( #194 ), #35, .T. ) ;
#132 = DIRECTION ( 'NONE',  ( 0.0000000000000000000, 0.0000000000000000000, 1.000000000000000000 ) ) ;
#133 = AXIS2_PLACEMENT_3D ( 'NONE', #145, #143, #51 ) ;
#134 = LINE ( 'NONE', #115, #99 ) ;
#135 = DIMENSIONAL_EXPONENTS ( 1.000000000000000000, 0.0000000000000000000, 0.0000000000000000000, 0.0000000000000000000, 0.0000000000000000000, 0.0000000000000000000, 0.0000000000000000000 ) ;
#136 = STYLED_ITEM ( 'NONE', ( #174 ), #41 ) ;
#137 = ADVANCED_FACE ( 'NONE', ( #30 ), #28, .T. ) ;
#138 = ORIENTED_EDGE ( 'NONE', *, *, #6, .T. ) ;
#139 = CARTESIAN_POINT ( 'NONE',  ( 0.0000000000000000000, 0.0000000000000000000, 0.0000000000000000000 ) ) ;
#140 = DIRECTION ( 'NONE',  ( -1.000000000000000000, 0.0000000000000000000, 0.0000000000000000000 ) ) ;
#141 = ADVANCED_FACE ( 'NONE', ( #63 ), #121, .T. ) ;
#142 = FILL_AREA_STYLE_COLOUR ( '', #172 ) ;
#143 = DIRECTION ( 'NONE',  ( 0.0000000000000000000, 0.0000000000000000000, 1.000000000000000000 ) ) ;
#144 = PRESENTATION_LAYER_ASSIGNMENT (  '', '', ( #136 ) ) ;
#145 = CARTESIAN_POINT ( 'NONE',  ( 0.0000000000000000000, 0.0000000000000000000, 2.500000000000000000 ) ) ;
#146 = SHAPE_DEFINITION_REPRESENTATION ( #9, #118 ) ;
#147 =( LENGTH_UNIT ( ) NAMED_UNIT ( * ) SI_UNIT ( $, .METRE. ) );
#148 = ORIENTED_EDGE ( 'NONE', *, *, #196, .T. ) ;
#149 = PRESENTATION_LAYER_ASSIGNMENT (  '', '', ( #62 ) ) ;
#150 = DIRECTION ( 'NONE',  ( 0.0000000000000000000, 0.0000000000000000000, 1.000000000000000000 ) ) ;
#151 =( GEOMETRIC_REPRESENTATION_CONTEXT ( 3 ) GLOBAL_UNCERTAINTY_ASSIGNED_CONTEXT ( ( #86 ) ) GLOBAL_UNIT_ASSIGNED_CONTEXT ( ( #171, #4, #79 ) ) REPRESENTATION_CONTEXT ( 'NONE', 'WORKASPACE' ) );
#152 = CARTESIAN_POINT ( 'NONE',  ( -0.1250000000000000000, 0.0000000000000000000, 2.485000000000000320 ) ) ;
#153 = ORIENTED_EDGE ( 'NONE', *, *, #26, .F. ) ;
#154 = VERTEX_POINT ( 'NONE', #45 ) ;
#155 = DIRECTION ( 'NONE',  ( -0.0000000000000000000, -0.0000000000000000000, -1.000000000000000000 ) ) ;
#156 = LENGTH_MEASURE_WITH_UNIT ( LENGTH_MEASURE( 0.02539999999999999897 ), #21 );
#157 = EDGE_LOOP ( 'NONE', ( #93, #65, #192, #165 ) ) ;
#158 = EDGE_CURVE ( 'NONE', #3, #91, #40, .T. ) ;
#159 = CIRCLE ( 'NONE', #184, 0.1250000000000000000 ) ;
#160 = VERTEX_POINT ( 'NONE', #152 ) ;
#161 =( NAMED_UNIT ( * ) SI_UNIT ( $, .STERADIAN. ) SOLID_ANGLE_UNIT ( ) );
#162 = EDGE_CURVE ( 'NONE', #91, #3, #126, .T. ) ;
#163 = DIRECTION ( 'NONE',  ( 1.000000000000000000, 0.0000000000000000000, -0.0000000000000000000 ) ) ;
#164 = EDGE_CURVE ( 'NONE', #154, #160, #198, .T. ) ;
#165 = ORIENTED_EDGE ( 'NONE', *, *, #164, .F. ) ;
#166 = AXIS2_PLACEMENT_3D ( 'NONE', #29, #56, #46 ) ;
#167 = ORIENTED_EDGE ( 'NONE', *, *, #59, .F. ) ;
#168 = APPLICATION_PROTOCOL_DEFINITION ( 'draft international standard', 'automotive_design', 1998, #179 ) ;
#169 = ORIENTED_EDGE ( 'NONE', *, *, #193, .F. ) ;
#170 = SURFACE_SIDE_STYLE ('',( #187 ) ) ;
#171 =( CONVERSION_BASED_UNIT ( 'INCH', #2 ) LENGTH_UNIT ( ) NAMED_UNIT ( #101 ) );
#172 = COLOUR_RGB ( '',0.7921568627450980005, 0.8196078431372548767, 0.9333333333333333481 ) ;
#173 = CONICAL_SURFACE ( 'NONE', #191, 0.1100000000000001948, 0.7853981633974517207 ) ;
#174 = PRESENTATION_STYLE_ASSIGNMENT (( #34 ) ) ;
#175 = DIRECTION ( 'NONE',  ( 1.000000000000000000, 0.0000000000000000000, 0.0000000000000000000 ) ) ;
#176 = CARTESIAN_POINT ( 'NONE',  ( 0.1250000000000000000, 1.530808498934191509E-17, 0.0000000000000000000 ) ) ;
#177 = DIRECTION ( 'NONE',  ( 0.0000000000000000000, 0.0000000000000000000, -1.000000000000000000 ) ) ;
#178 = PLANE ( 'NONE',  #195 ) ;
#179 = APPLICATION_CONTEXT ( 'automotive_design' ) ;
#180 = COLOUR_RGB ( '',0.7921568627450980005, 0.8196078431372548767, 0.9333333333333333481 ) ;
#181 = DIRECTION ( 'NONE',  ( -1.000000000000000000, 0.0000000000000000000, 0.0000000000000000000 ) ) ;
#182 = EDGE_CURVE ( 'NONE', #160, #3, #134, .T. ) ;
#183 = MECHANICAL_DESIGN_GEOMETRIC_PRESENTATION_REPRESENTATION (  '', ( #136 ), #27 ) ;
#184 = AXIS2_PLACEMENT_3D ( 'NONE', #109, #117, #55 ) ;
#185 = CARTESIAN_POINT ( 'NONE',  ( 0.0000000000000000000, 0.0000000000000000000, 2.500000000000000000 ) ) ;
#186 = EDGE_CURVE ( 'NONE', #116, #91, #97, .T. ) ;
#187 = SURFACE_STYLE_FILL_AREA ( #67 ) ;
#188 = CARTESIAN_POINT ( 'NONE',  ( 0.0000000000000000000, 0.0000000000000000000, 0.0000000000000000000 ) ) ;
#189 = PRODUCT_CONTEXT ( 'NONE', #179, 'mechanical' ) ;
#190 = VECTOR ( 'NONE', #31, 39.37007874015748143 ) ;
#191 = AXIS2_PLACEMENT_3D ( 'NONE', #185, #32, #58 ) ;
#192 = ORIENTED_EDGE ( 'NONE', *, *, #6, .F. ) ;
#193 = EDGE_CURVE ( 'NONE', #116, #160, #159, .T. ) ;
#194 = FACE_OUTER_BOUND ( 'NONE', #157, .T. ) ;
#195 = AXIS2_PLACEMENT_3D ( 'NONE', #57, #132, #163 ) ;
#196 = EDGE_CURVE ( 'NONE', #14, #154, #22, .T. ) ;
#197 = DIRECTION ( 'NONE',  ( 0.0000000000000000000, 0.0000000000000000000, 1.000000000000000000 ) ) ;
#198 = LINE ( 'NONE', #60, #66 ) ;
#199 = FACE_OUTER_BOUND ( 'NONE', #49, .T. ) ;
ENDSEC;
END-ISO-10303-21;
