ISO-10303-21;
HEADER;
FILE_DESCRIPTION (( 'STEP AP214' ),
    '1' );
FILE_NAME ('00377.STEP',
    '2023-06-22T14:07:12',
    ( '' ),
    ( '' ),
    'SwSTEP 2.0',
    'SolidWorks 2023',
    '' );
FILE_SCHEMA (( 'AUTOMOTIVE_DESIGN' ));
ENDSEC;

DATA;
#1 = EDGE_LOOP ( 'NONE', ( #240, #51, #134, #175 ) ) ;
#2 = CIRCLE ( 'NONE', #50, 0.1875000000000000278 ) ;
#3 = CARTESIAN_POINT ( 'NONE',  ( -0.1875000000000001110, 4.000000000000000000, 0.000000000000000000 ) ) ;
#4 = MANIFOLD_SOLID_BREP ( 'Revolve - Cutting Edge', #206 ) ;
#5 = MANIFOLD_SOLID_BREP ( 'Revolve - Tool Body (Straight Shanked)', #216 ) ;
#6 = LENGTH_MEASURE_WITH_UNIT ( LENGTH_MEASURE( 0.02539999999999999897 ), #118 );
#7 = EDGE_LOOP ( 'NONE', ( #119, #270, #265, #95 ) ) ;
#8 = SURFACE_STYLE_USAGE ( .BOTH. , #176 ) ;
#9 = PRESENTATION_STYLE_ASSIGNMENT (( #254 ) ) ;
#10 = DIRECTION ( 'NONE',  ( -2.449293598294706229E-17, 1.000000000000000000, -0.000000000000000000 ) ) ;
#11 = STYLED_ITEM ( 'NONE', ( #295 ), #244 ) ;
#12 = SURFACE_STYLE_FILL_AREA ( #234 ) ;
#13 =( LENGTH_UNIT ( ) NAMED_UNIT ( * ) SI_UNIT ( $, .METRE. ) );
#14 = LENGTH_MEASURE_WITH_UNIT ( LENGTH_MEASURE( 0.02539999999999999897 ), #13 );
#15 = PRESENTATION_STYLE_ASSIGNMENT (( #129 ) ) ;
#16 = DIRECTION ( 'NONE',  ( -1.000000000000000000, 0.000000000000000000, 0.000000000000000000 ) ) ;
#17 =( NAMED_UNIT ( * ) PLANE_ANGLE_UNIT ( ) SI_UNIT ( $, .RADIAN. ) );
#18 = AXIS2_PLACEMENT_3D ( 'NONE', #307, #154, #20 ) ;
#19 = COLOUR_RGB ( '',1.000000000000000000, 0.000000000000000000, 0.000000000000000000 ) ;
#20 = DIRECTION ( 'NONE',  ( 1.000000000000000000, 0.000000000000000000, 0.000000000000000000 ) ) ;
#21 = AXIS2_PLACEMENT_3D ( 'NONE', #145, #65, #236 ) ;
#22 = DIRECTION ( 'NONE',  ( 0.000000000000000000, 0.000000000000000000, -1.000000000000000000 ) ) ;
#23 = DIRECTION ( 'NONE',  ( -1.000000000000000000, -2.449293598294706229E-17, 0.000000000000000000 ) ) ;
#24 = EDGE_CURVE ( 'NONE', #55, #250, #123, .T. ) ;
#25 =( CONVERSION_BASED_UNIT ( 'INCH', #225 ) LENGTH_UNIT ( ) NAMED_UNIT ( #111 ) );
#26 = FILL_AREA_STYLE_COLOUR ( '', #92 ) ;
#27 = ORIENTED_EDGE ( 'NONE', *, *, #309, .T. ) ;
#28 = FILL_AREA_STYLE_COLOUR ( '', #19 ) ;
#29 = FILL_AREA_STYLE_COLOUR ( '', #247 ) ;
#30 = DIRECTION ( 'NONE',  ( -1.000000000000000000, 0.000000000000000000, 0.000000000000000000 ) ) ;
#31 = ORIENTED_EDGE ( 'NONE', *, *, #195, .F. ) ;
#32 = CARTESIAN_POINT ( 'NONE',  ( 0.000000000000000000, 1.500000000000000222, 0.000000000000000000 ) ) ;
#33 =( LENGTH_UNIT ( ) NAMED_UNIT ( * ) SI_UNIT ( $, .METRE. ) );
#34 = VECTOR ( 'NONE', #10, 39.37007874015748143 ) ;
#35 = AXIS2_PLACEMENT_3D ( 'NONE', #173, #227, #308 ) ;
#36 =( NAMED_UNIT ( * ) PLANE_ANGLE_UNIT ( ) SI_UNIT ( $, .RADIAN. ) );
#37 = CARTESIAN_POINT ( 'NONE',  ( 0.000000000000000000, 1.500000000000000222, -0.1875000000000000278 ) ) ;
#38 = SURFACE_STYLE_FILL_AREA ( #205 ) ;
#39 = PRESENTATION_LAYER_ASSIGNMENT (  '', '', ( #90 ) ) ;
#40 = PRODUCT_DEFINITION_CONTEXT ( 'detailed design', #143, 'design' ) ;
#41 = DIRECTION ( 'NONE',  ( -2.449293598294706538E-17, 1.000000000000000000, -0.000000000000000000 ) ) ;
#42 = APPLICATION_CONTEXT ( 'automotive_design' ) ;
#43 =( NAMED_UNIT ( * ) SI_UNIT ( $, .STERADIAN. ) SOLID_ANGLE_UNIT ( ) );
#44 = UNCERTAINTY_MEASURE_WITH_UNIT (LENGTH_MEASURE( 1.000000000000000082E-05 ), #105, 'distance_accuracy_value', 'NONE');
#45 =( NAMED_UNIT ( * ) SI_UNIT ( $, .STERADIAN. ) SOLID_ANGLE_UNIT ( ) );
#46 = COLOUR_RGB ( '',1.000000000000000000, 0.000000000000000000, 0.000000000000000000 ) ;
#47 = COLOUR_RGB ( '',0.7921568627450980005, 0.8196078431372548767, 0.9333333333333333481 ) ;
#48 = ORIENTED_EDGE ( 'NONE', *, *, #91, .T. ) ;
#49 = AXIS2_PLACEMENT_3D ( 'NONE', #296, #200, #30 ) ;
#50 = AXIS2_PLACEMENT_3D ( 'NONE', #168, #196, #73 ) ;
#51 = ORIENTED_EDGE ( 'NONE', *, *, #146, .T. ) ;
#52 = AXIS2_PLACEMENT_3D ( 'NONE', #164, #139, #269 ) ;
#53 = CARTESIAN_POINT ( 'NONE',  ( 2.296212748401287726E-17, 0.000000000000000000, 0.1875000000000000278 ) ) ;
#54 = DIRECTION ( 'NONE',  ( -1.000000000000000000, 0.000000000000000000, 0.000000000000000000 ) ) ;
#55 = VERTEX_POINT ( 'NONE', #170 ) ;
#56 =( GEOMETRIC_REPRESENTATION_CONTEXT ( 3 ) GLOBAL_UNCERTAINTY_ASSIGNED_CONTEXT ( ( #156 ) ) GLOBAL_UNIT_ASSIGNED_CONTEXT ( ( #25, #177, #59 ) ) REPRESENTATION_CONTEXT ( 'NONE', 'WORKASPACE' ) );
#57 = CARTESIAN_POINT ( 'NONE',  ( 7.582401355855259480E-33, 1.499999999999999778, 0.000000000000000000 ) ) ;
#58 = CIRCLE ( 'NONE', #267, 0.1875000000000000278 ) ;
#59 =( NAMED_UNIT ( * ) SI_UNIT ( $, .STERADIAN. ) SOLID_ANGLE_UNIT ( ) );
#60 = SURFACE_SIDE_STYLE ('',( #181 ) ) ;
#61 = CYLINDRICAL_SURFACE ( 'NONE', #293, 0.1875000000000000278 ) ;
#62 = CARTESIAN_POINT ( 'NONE',  ( 0.1874999999999999722, 4.000000000000000000, 2.296212748401288034E-17 ) ) ;
#63 = DIRECTION ( 'NONE',  ( 0.000000000000000000, 0.000000000000000000, -1.000000000000000000 ) ) ;
#64 = CIRCLE ( 'NONE', #66, 0.1875000000000000833 ) ;
#65 = DIRECTION ( 'NONE',  ( -0.000000000000000000, -1.000000000000000000, -0.000000000000000000 ) ) ;
#66 = AXIS2_PLACEMENT_3D ( 'NONE', #97, #219, #248 ) ;
#67 = FILL_AREA_STYLE_COLOUR ( '', #46 ) ;
#68 = FACE_OUTER_BOUND ( 'NONE', #1, .T. ) ;
#69 = EDGE_CURVE ( 'NONE', #55, #249, #58, .T. ) ;
#70 = MECHANICAL_DESIGN_GEOMETRIC_PRESENTATION_REPRESENTATION (  '', ( #153 ), #238 ) ;
#71 =( GEOMETRIC_REPRESENTATION_CONTEXT ( 3 ) GLOBAL_UNCERTAINTY_ASSIGNED_CONTEXT ( ( #264 ) ) GLOBAL_UNIT_ASSIGNED_CONTEXT ( ( #299, #276, #87 ) ) REPRESENTATION_CONTEXT ( 'NONE', 'WORKASPACE' ) );
#72 = EDGE_CURVE ( 'NONE', #250, #77, #192, .T. ) ;
#73 = DIRECTION ( 'NONE',  ( 0.000000000000000000, 0.000000000000000000, -1.000000000000000000 ) ) ;
#74 = SURFACE_STYLE_FILL_AREA ( #224 ) ;
#75 =( GEOMETRIC_REPRESENTATION_CONTEXT ( 3 ) GLOBAL_UNCERTAINTY_ASSIGNED_CONTEXT ( ( #44 ) ) GLOBAL_UNIT_ASSIGNED_CONTEXT ( ( #105, #126, #151 ) ) REPRESENTATION_CONTEXT ( 'NONE', 'WORKASPACE' ) );
#76 = CIRCLE ( 'NONE', #178, 0.1875000000000000278 ) ;
#77 = VERTEX_POINT ( 'NONE', #93 ) ;
#78 = FACE_OUTER_BOUND ( 'NONE', #245, .T. ) ;
#79 = DIRECTION ( 'NONE',  ( 0.000000000000000000, 0.000000000000000000, -1.000000000000000000 ) ) ;
#80 = MECHANICAL_DESIGN_GEOMETRIC_PRESENTATION_REPRESENTATION (  '', ( #180 ), #171 ) ;
#81 = VECTOR ( 'NONE', #199, 39.37007874015748143 ) ;
#82 =( LENGTH_UNIT ( ) NAMED_UNIT ( * ) SI_UNIT ( $, .METRE. ) );
#83 = PRESENTATION_STYLE_ASSIGNMENT (( #261 ) ) ;
#84 = EDGE_CURVE ( 'NONE', #162, #94, #2, .T. ) ;
#85 = FILL_AREA_STYLE ('',( #152 ) ) ;
#86 = DIMENSIONAL_EXPONENTS ( 1.000000000000000000, 0.000000000000000000, 0.000000000000000000, 0.000000000000000000, 0.000000000000000000, 0.000000000000000000, 0.000000000000000000 ) ;
#87 =( NAMED_UNIT ( * ) SI_UNIT ( $, .STERADIAN. ) SOLID_ANGLE_UNIT ( ) );
#88 =( NAMED_UNIT ( * ) PLANE_ANGLE_UNIT ( ) SI_UNIT ( $, .RADIAN. ) );
#89 = APPLICATION_PROTOCOL_DEFINITION ( 'draft international standard', 'automotive_design', 1998, #42 ) ;
#90 = STYLED_ITEM ( 'NONE', ( #15 ), #5 ) ;
#91 = EDGE_CURVE ( 'NONE', #94, #162, #241, .T. ) ;
#92 = COLOUR_RGB ( '',1.000000000000000000, 0.000000000000000000, 0.000000000000000000 ) ;
#93 = CARTESIAN_POINT ( 'NONE',  ( 0.1875000000000000278, 4.000000000000000000, 2.296212748401288342E-17 ) ) ;
#94 = VERTEX_POINT ( 'NONE', #53 ) ;
#95 = ORIENTED_EDGE ( 'NONE', *, *, #213, .F. ) ;
#96 = ADVANCED_FACE ( 'NONE', ( #135 ), #116, .T. ) ;
#97 = CARTESIAN_POINT ( 'NONE',  ( -6.123233995736766036E-17, 4.000000000000000000, 0.000000000000000000 ) ) ;
#98 = ORIENTED_EDGE ( 'NONE', *, *, #309, .F. ) ;
#99 =( LENGTH_UNIT ( ) NAMED_UNIT ( * ) SI_UNIT ( $, .METRE. ) );
#100 = PRESENTATION_STYLE_ASSIGNMENT (( #8 ) ) ;
#101 = ADVANCED_FACE ( 'NONE', ( #246 ), #273, .T. ) ;
#102 = DIRECTION ( 'NONE',  ( -0.000000000000000000, -1.000000000000000000, -0.000000000000000000 ) ) ;
#103 =( CONVERSION_BASED_UNIT ( 'INCH', #14 ) LENGTH_UNIT ( ) NAMED_UNIT ( #104 ) );
#104 = DIMENSIONAL_EXPONENTS ( 1.000000000000000000, 0.000000000000000000, 0.000000000000000000, 0.000000000000000000, 0.000000000000000000, 0.000000000000000000, 0.000000000000000000 ) ;
#105 =( CONVERSION_BASED_UNIT ( 'INCH', #144 ) LENGTH_UNIT ( ) NAMED_UNIT ( #121 ) );
#106 = STYLED_ITEM ( 'NONE', ( #100 ), #4 ) ;
#107 = DIMENSIONAL_EXPONENTS ( 1.000000000000000000, 0.000000000000000000, 0.000000000000000000, 0.000000000000000000, 0.000000000000000000, 0.000000000000000000, 0.000000000000000000 ) ;
#108 = DIRECTION ( 'NONE',  ( -0.000000000000000000, -1.000000000000000000, -0.000000000000000000 ) ) ;
#109 = DIRECTION ( 'NONE',  ( -0.000000000000000000, -1.000000000000000000, -0.000000000000000000 ) ) ;
#110 = LINE ( 'NONE', #124, #113 ) ;
#111 = DIMENSIONAL_EXPONENTS ( 1.000000000000000000, 0.000000000000000000, 0.000000000000000000, 0.000000000000000000, 0.000000000000000000, 0.000000000000000000, 0.000000000000000000 ) ;
#112 = FACE_OUTER_BOUND ( 'NONE', #201, .T. ) ;
#113 = VECTOR ( 'NONE', #229, 39.37007874015748143 ) ;
#114 = APPLICATION_PROTOCOL_DEFINITION ( 'draft international standard', 'automotive_design', 1998, #143 ) ;
#115 = FACE_OUTER_BOUND ( 'NONE', #203, .T. ) ;
#116 = CYLINDRICAL_SURFACE ( 'NONE', #215, 0.1875000000000000555 ) ;
#117 = SURFACE_SIDE_STYLE ('',( #74 ) ) ;
#118 =( LENGTH_UNIT ( ) NAMED_UNIT ( * ) SI_UNIT ( $, .METRE. ) );
#119 = ORIENTED_EDGE ( 'NONE', *, *, #146, .F. ) ;
#120 = AXIS2_PLACEMENT_3D ( 'NONE', #277, #189, #183 ) ;
#121 = DIMENSIONAL_EXPONENTS ( 1.000000000000000000, 0.000000000000000000, 0.000000000000000000, 0.000000000000000000, 0.000000000000000000, 0.000000000000000000, 0.000000000000000000 ) ;
#122 = ADVANCED_FACE ( 'NONE', ( #112 ), #207, .F. ) ;
#123 = LINE ( 'NONE', #3, #81 ) ;
#124 = CARTESIAN_POINT ( 'NONE',  ( 0.000000000000000000, 0.000000000000000000, -0.1875000000000000278 ) ) ;
#125 = FACE_OUTER_BOUND ( 'NONE', #163, .T. ) ;
#126 =( NAMED_UNIT ( * ) PLANE_ANGLE_UNIT ( ) SI_UNIT ( $, .RADIAN. ) );
#127 = MECHANICAL_DESIGN_GEOMETRIC_PRESENTATION_REPRESENTATION (  '', ( #11 ), #75 ) ;
#128 = PRESENTATION_STYLE_ASSIGNMENT (( #259 ) ) ;
#129 = SURFACE_STYLE_USAGE ( .BOTH. , #279 ) ;
#130 = CARTESIAN_POINT ( 'NONE',  ( 0.000000000000000000, 0.000000000000000000, 0.000000000000000000 ) ) ;
#131 = LINE ( 'NONE', #62, #34 ) ;
#132 = LENGTH_MEASURE_WITH_UNIT ( LENGTH_MEASURE( 0.02539999999999999897 ), #33 );
#133 = ORIENTED_EDGE ( 'NONE', *, *, #213, .T. ) ;
#134 = ORIENTED_EDGE ( 'NONE', *, *, #72, .F. ) ;
#135 = FACE_OUTER_BOUND ( 'NONE', #7, .T. ) ;
#136 = ORIENTED_EDGE ( 'NONE', *, *, #195, .T. ) ;
#137 = CARTESIAN_POINT ( 'NONE',  ( 2.296212748401287726E-17, 1.500000000000000222, 0.1875000000000000278 ) ) ;
#138 = ORIENTED_EDGE ( 'NONE', *, *, #301, .T. ) ;
#139 = DIRECTION ( 'NONE',  ( -0.000000000000000000, -1.000000000000000000, -0.000000000000000000 ) ) ;
#140 = EDGE_LOOP ( 'NONE', ( #31, #27, #138, #268 ) ) ;
#141 = ADVANCED_FACE ( 'NONE', ( #125 ), #303, .T. ) ;
#142 =( NAMED_UNIT ( * ) SI_UNIT ( $, .STERADIAN. ) SOLID_ANGLE_UNIT ( ) );
#143 = APPLICATION_CONTEXT ( 'automotive_design' ) ;
#144 = LENGTH_MEASURE_WITH_UNIT ( LENGTH_MEASURE( 0.02539999999999999897 ), #82 );
#145 = CARTESIAN_POINT ( 'NONE',  ( 0.000000000000000000, 1.500000000000000222, 0.000000000000000000 ) ) ;
#146 = EDGE_CURVE ( 'NONE', #249, #77, #131, .T. ) ;
#147 = CIRCLE ( 'NONE', #21, 0.1875000000000000278 ) ;
#148 = SURFACE_SIDE_STYLE ('',( #204 ) ) ;
#149 = CARTESIAN_POINT ( 'NONE',  ( 0.000000000000000000, 0.000000000000000000, -0.1875000000000000278 ) ) ;
#150 = DIRECTION ( 'NONE',  ( 0.000000000000000000, -0.000000000000000000, 1.000000000000000000 ) ) ;
#151 =( NAMED_UNIT ( * ) SI_UNIT ( $, .STERADIAN. ) SOLID_ANGLE_UNIT ( ) );
#152 = FILL_AREA_STYLE_COLOUR ( '', #208 ) ;
#153 = STYLED_ITEM ( 'NONE', ( #83 ), #141 ) ;
#154 = DIRECTION ( 'NONE',  ( 0.000000000000000000, 0.000000000000000000, 1.000000000000000000 ) ) ;
#155 = EDGE_CURVE ( 'NONE', #167, #197, #147, .T. ) ;
#156 = UNCERTAINTY_MEASURE_WITH_UNIT (LENGTH_MEASURE( 1.000000000000000082E-05 ), #25, 'distance_accuracy_value', 'NONE');
#157 =( LENGTH_UNIT ( ) NAMED_UNIT ( * ) SI_UNIT ( $, .METRE. ) );
#158 = PRODUCT ( '00377', '00377', '', ( #263 ) ) ;
#159 = PRODUCT_DEFINITION ( 'UNKNOWN', '', #185, #40 ) ;
#160 = UNCERTAINTY_MEASURE_WITH_UNIT (LENGTH_MEASURE( 1.000000000000000082E-05 ), #191, 'distance_accuracy_value', 'NONE');
#161 = AXIS2_PLACEMENT_3D ( 'NONE', #255, #109, #79 ) ;
#162 = VERTEX_POINT ( 'NONE', #149 ) ;
#163 = EDGE_LOOP ( 'NONE', ( #165, #98 ) ) ;
#164 = CARTESIAN_POINT ( 'NONE',  ( 0.000000000000000000, 0.000000000000000000, 0.000000000000000000 ) ) ;
#165 = ORIENTED_EDGE ( 'NONE', *, *, #155, .F. ) ;
#166 = SURFACE_STYLE_USAGE ( .BOTH. , #117 ) ;
#167 = VERTEX_POINT ( 'NONE', #37 ) ;
#168 = CARTESIAN_POINT ( 'NONE',  ( 0.000000000000000000, 0.000000000000000000, 0.000000000000000000 ) ) ;
#169 = MECHANICAL_DESIGN_GEOMETRIC_PRESENTATION_REPRESENTATION (  '', ( #190 ), #71 ) ;
#170 = CARTESIAN_POINT ( 'NONE',  ( -0.1875000000000000278, 1.499999999999999778, 0.000000000000000000 ) ) ;
#171 =( GEOMETRIC_REPRESENTATION_CONTEXT ( 3 ) GLOBAL_UNCERTAINTY_ASSIGNED_CONTEXT ( ( #286 ) ) GLOBAL_UNIT_ASSIGNED_CONTEXT ( ( #103, #17, #43 ) ) REPRESENTATION_CONTEXT ( 'NONE', 'WORKASPACE' ) );
#172 = ORIENTED_EDGE ( 'NONE', *, *, #72, .T. ) ;
#173 = CARTESIAN_POINT ( 'NONE',  ( -6.123233995736766036E-17, 4.000000000000000000, 0.000000000000000000 ) ) ;
#174 = MECHANICAL_DESIGN_GEOMETRIC_PRESENTATION_REPRESENTATION (  '', ( #90 ), #56 ) ;
#175 = ORIENTED_EDGE ( 'NONE', *, *, #24, .F. ) ;
#176 = SURFACE_SIDE_STYLE ('',( #221 ) ) ;
#177 =( NAMED_UNIT ( * ) PLANE_ANGLE_UNIT ( ) SI_UNIT ( $, .RADIAN. ) );
#178 = AXIS2_PLACEMENT_3D ( 'NONE', #232, #102, #22 ) ;
#179 = FILL_AREA_STYLE ('',( #67 ) ) ;
#180 = STYLED_ITEM ( 'NONE', ( #128 ), #101 ) ;
#181 = SURFACE_STYLE_FILL_AREA ( #85 ) ;
#182 = PRODUCT_RELATED_PRODUCT_CATEGORY ( 'part', '', ( #158 ) ) ;
#183 = DIRECTION ( 'NONE',  ( 1.000000000000000000, 2.449293598294706229E-17, 0.000000000000000000 ) ) ;
#184 = CARTESIAN_POINT ( 'NONE',  ( 0.000000000000000000, 0.000000000000000000, 0.000000000000000000 ) ) ;
#185 = PRODUCT_DEFINITION_FORMATION_WITH_SPECIFIED_SOURCE ( 'ANY', '', #158, .NOT_KNOWN. ) ;
#186 =( CONVERSION_BASED_UNIT ( 'INCH', #237 ) LENGTH_UNIT ( ) NAMED_UNIT ( #86 ) );
#187 = CYLINDRICAL_SURFACE ( 'NONE', #252, 0.1875000000000000555 ) ;
#188 = PRESENTATION_LAYER_ASSIGNMENT (  '', '', ( #106 ) ) ;
#189 = DIRECTION ( 'NONE',  ( 2.449293598294706229E-17, -1.000000000000000000, 0.000000000000000000 ) ) ;
#190 = STYLED_ITEM ( 'NONE', ( #9 ), #258 ) ;
#191 =( CONVERSION_BASED_UNIT ( 'INCH', #212 ) LENGTH_UNIT ( ) NAMED_UNIT ( #202 ) );
#192 = CIRCLE ( 'NONE', #35, 0.1875000000000000833 ) ;
#193 = SHAPE_DEFINITION_REPRESENTATION ( #283, #282 ) ;
#194 = CARTESIAN_POINT ( 'NONE',  ( 2.296212748401287726E-17, 0.000000000000000000, 0.1875000000000000278 ) ) ;
#195 = EDGE_CURVE ( 'NONE', #197, #94, #239, .T. ) ;
#196 = DIRECTION ( 'NONE',  ( -0.000000000000000000, -1.000000000000000000, -0.000000000000000000 ) ) ;
#197 = VERTEX_POINT ( 'NONE', #137 ) ;
#198 = VECTOR ( 'NONE', #222, 39.37007874015748143 ) ;
#199 = DIRECTION ( 'NONE',  ( -2.449293598294706229E-17, 1.000000000000000000, -0.000000000000000000 ) ) ;
#200 = DIRECTION ( 'NONE',  ( -2.449293598294706538E-17, 1.000000000000000000, -0.000000000000000000 ) ) ;
#201 = EDGE_LOOP ( 'NONE', ( #172, #133 ) ) ;
#202 = DIMENSIONAL_EXPONENTS ( 1.000000000000000000, 0.000000000000000000, 0.000000000000000000, 0.000000000000000000, 0.000000000000000000, 0.000000000000000000, 0.000000000000000000 ) ;
#203 = EDGE_LOOP ( 'NONE', ( #243, #48 ) ) ;
#204 = SURFACE_STYLE_FILL_AREA ( #179 ) ;
#205 = FILL_AREA_STYLE ('',( #284 ) ) ;
#206 = CLOSED_SHELL ( 'NONE', ( #258, #141, #101, #244 ) ) ;
#207 = PLANE ( 'NONE',  #120 ) ;
#208 = COLOUR_RGB ( '',1.000000000000000000, 0.000000000000000000, 0.000000000000000000 ) ;
#209 = AXIS2_PLACEMENT_3D ( 'NONE', #32, #230, #150 ) ;
#210 = CARTESIAN_POINT ( 'NONE',  ( 0.1875000000000000278, 1.499999999999999778, 2.296212748401288342E-17 ) ) ;
#211 = SURFACE_SIDE_STYLE ('',( #12 ) ) ;
#212 = LENGTH_MEASURE_WITH_UNIT ( LENGTH_MEASURE( 0.02539999999999999897 ), #157 );
#213 = EDGE_CURVE ( 'NONE', #77, #250, #64, .T. ) ;
#214 = PRESENTATION_LAYER_ASSIGNMENT (  '', '', ( #11 ) ) ;
#215 = AXIS2_PLACEMENT_3D ( 'NONE', #220, #271, #54 ) ;
#216 = CLOSED_SHELL ( 'NONE', ( #262, #231, #96, #122 ) ) ;
#217 = CIRCLE ( 'NONE', #49, 0.1875000000000000278 ) ;
#218 = EDGE_CURVE ( 'NONE', #249, #55, #217, .T. ) ;
#219 = DIRECTION ( 'NONE',  ( -2.449293598294706538E-17, 1.000000000000000000, -0.000000000000000000 ) ) ;
#220 = CARTESIAN_POINT ( 'NONE',  ( -6.123233995736766036E-17, 4.000000000000000000, 0.000000000000000000 ) ) ;
#221 = SURFACE_STYLE_FILL_AREA ( #228 ) ;
#222 = DIRECTION ( 'NONE',  ( -0.000000000000000000, -1.000000000000000000, -0.000000000000000000 ) ) ;
#223 = EDGE_LOOP ( 'NONE', ( #272, #136, #291, #253 ) ) ;
#224 = FILL_AREA_STYLE ('',( #26 ) ) ;
#225 = LENGTH_MEASURE_WITH_UNIT ( LENGTH_MEASURE( 0.02539999999999999897 ), #99 );
#226 = DIRECTION ( 'NONE',  ( -2.449293598294706229E-17, 1.000000000000000000, 0.000000000000000000 ) ) ;
#227 = DIRECTION ( 'NONE',  ( -2.449293598294706538E-17, 1.000000000000000000, -0.000000000000000000 ) ) ;
#228 = FILL_AREA_STYLE ('',( #29 ) ) ;
#229 = DIRECTION ( 'NONE',  ( -0.000000000000000000, -1.000000000000000000, -0.000000000000000000 ) ) ;
#230 = DIRECTION ( 'NONE',  ( 0.000000000000000000, 1.000000000000000000, 0.000000000000000000 ) ) ;
#231 = ADVANCED_FACE ( 'NONE', ( #78 ), #292, .F. ) ;
#232 = CARTESIAN_POINT ( 'NONE',  ( 0.000000000000000000, 1.500000000000000222, 0.000000000000000000 ) ) ;
#233 =( LENGTH_UNIT ( ) NAMED_UNIT ( * ) SI_UNIT ( $, .METRE. ) );
#234 = FILL_AREA_STYLE ('',( #28 ) ) ;
#235 =( GEOMETRIC_REPRESENTATION_CONTEXT ( 3 ) GLOBAL_UNCERTAINTY_ASSIGNED_CONTEXT ( ( #266 ) ) GLOBAL_UNIT_ASSIGNED_CONTEXT ( ( #298, #275, #142 ) ) REPRESENTATION_CONTEXT ( 'NONE', 'WORKASPACE' ) );
#236 = DIRECTION ( 'NONE',  ( 0.000000000000000000, 0.000000000000000000, -1.000000000000000000 ) ) ;
#237 = LENGTH_MEASURE_WITH_UNIT ( LENGTH_MEASURE( 0.02539999999999999897 ), #233 );
#238 =( GEOMETRIC_REPRESENTATION_CONTEXT ( 3 ) GLOBAL_UNCERTAINTY_ASSIGNED_CONTEXT ( ( #256 ) ) GLOBAL_UNIT_ASSIGNED_CONTEXT ( ( #186, #36, #300 ) ) REPRESENTATION_CONTEXT ( 'NONE', 'WORKASPACE' ) );
#239 = LINE ( 'NONE', #194, #198 ) ;
#240 = ORIENTED_EDGE ( 'NONE', *, *, #69, .T. ) ;
#241 = CIRCLE ( 'NONE', #52, 0.1875000000000000278 ) ;
#242 = PLANE ( 'NONE',  #287 ) ;
#243 = ORIENTED_EDGE ( 'NONE', *, *, #84, .T. ) ;
#244 = ADVANCED_FACE ( 'NONE', ( #115 ), #242, .T. ) ;
#245 = EDGE_LOOP ( 'NONE', ( #289, #251 ) ) ;
#246 = FACE_OUTER_BOUND ( 'NONE', #140, .T. ) ;
#247 = COLOUR_RGB ( '',0.7921568627450980005, 0.8196078431372548767, 0.9333333333333333481 ) ;
#248 = DIRECTION ( 'NONE',  ( -1.000000000000000000, 0.000000000000000000, 0.000000000000000000 ) ) ;
#249 = VERTEX_POINT ( 'NONE', #210 ) ;
#250 = VERTEX_POINT ( 'NONE', #280 ) ;
#251 = ORIENTED_EDGE ( 'NONE', *, *, #218, .F. ) ;
#252 = AXIS2_PLACEMENT_3D ( 'NONE', #260, #41, #16 ) ;
#253 = ORIENTED_EDGE ( 'NONE', *, *, #301, .F. ) ;
#254 = SURFACE_STYLE_USAGE ( .BOTH. , #148 ) ;
#255 = CARTESIAN_POINT ( 'NONE',  ( 0.000000000000000000, 0.000000000000000000, 0.000000000000000000 ) ) ;
#256 = UNCERTAINTY_MEASURE_WITH_UNIT (LENGTH_MEASURE( 1.000000000000000082E-05 ), #186, 'distance_accuracy_value', 'NONE');
#257 = FACE_OUTER_BOUND ( 'NONE', #223, .T. ) ;
#258 = ADVANCED_FACE ( 'NONE', ( #257 ), #61, .T. ) ;
#259 = SURFACE_STYLE_USAGE ( .BOTH. , #211 ) ;
#260 = CARTESIAN_POINT ( 'NONE',  ( -6.123233995736766036E-17, 4.000000000000000000, 0.000000000000000000 ) ) ;
#261 = SURFACE_STYLE_USAGE ( .BOTH. , #60 ) ;
#262 = ADVANCED_FACE ( 'NONE', ( #68 ), #187, .T. ) ;
#263 = PRODUCT_CONTEXT ( 'NONE', #42, 'mechanical' ) ;
#264 = UNCERTAINTY_MEASURE_WITH_UNIT (LENGTH_MEASURE( 1.000000000000000082E-05 ), #299, 'distance_accuracy_value', 'NONE');
#265 = ORIENTED_EDGE ( 'NONE', *, *, #24, .T. ) ;
#266 = UNCERTAINTY_MEASURE_WITH_UNIT (LENGTH_MEASURE( 1.000000000000000082E-05 ), #298, 'distance_accuracy_value', 'NONE');
#267 = AXIS2_PLACEMENT_3D ( 'NONE', #57, #297, #294 ) ;
#268 = ORIENTED_EDGE ( 'NONE', *, *, #91, .F. ) ;
#269 = DIRECTION ( 'NONE',  ( 0.000000000000000000, 0.000000000000000000, -1.000000000000000000 ) ) ;
#270 = ORIENTED_EDGE ( 'NONE', *, *, #218, .T. ) ;
#271 = DIRECTION ( 'NONE',  ( -2.449293598294706538E-17, 1.000000000000000000, -0.000000000000000000 ) ) ;
#272 = ORIENTED_EDGE ( 'NONE', *, *, #155, .T. ) ;
#273 = CYLINDRICAL_SURFACE ( 'NONE', #161, 0.1875000000000000278 ) ;
#274 =( GEOMETRIC_REPRESENTATION_CONTEXT ( 3 ) GLOBAL_UNCERTAINTY_ASSIGNED_CONTEXT ( ( #160 ) ) GLOBAL_UNIT_ASSIGNED_CONTEXT ( ( #191, #88, #45 ) ) REPRESENTATION_CONTEXT ( 'NONE', 'WORKASPACE' ) );
#275 =( NAMED_UNIT ( * ) PLANE_ANGLE_UNIT ( ) SI_UNIT ( $, .RADIAN. ) );
#276 =( NAMED_UNIT ( * ) PLANE_ANGLE_UNIT ( ) SI_UNIT ( $, .RADIAN. ) );
#277 = CARTESIAN_POINT ( 'NONE',  ( 0.1875000000000000278, 4.000000000000000000, 0.000000000000000000 ) ) ;
#278 = DIRECTION ( 'NONE',  ( 0.000000000000000000, 0.000000000000000000, -1.000000000000000000 ) ) ;
#279 = SURFACE_SIDE_STYLE ('',( #38 ) ) ;
#280 = CARTESIAN_POINT ( 'NONE',  ( -0.1875000000000001388, 4.000000000000000000, 0.000000000000000000 ) ) ;
#281 = DIMENSIONAL_EXPONENTS ( 1.000000000000000000, 0.000000000000000000, 0.000000000000000000, 0.000000000000000000, 0.000000000000000000, 0.000000000000000000, 0.000000000000000000 ) ;
#282 = ADVANCED_BREP_SHAPE_REPRESENTATION ( '00377', ( #4, #5, #18 ), #274 ) ;
#283 = PRODUCT_DEFINITION_SHAPE ( 'NONE', 'NONE',  #159 ) ;
#284 = FILL_AREA_STYLE_COLOUR ( '', #47 ) ;
#285 = PRESENTATION_LAYER_ASSIGNMENT (  '', '', ( #153 ) ) ;
#286 = UNCERTAINTY_MEASURE_WITH_UNIT (LENGTH_MEASURE( 1.000000000000000082E-05 ), #103, 'distance_accuracy_value', 'NONE');
#287 = AXIS2_PLACEMENT_3D ( 'NONE', #184, #302, #278 ) ;
#288 = MECHANICAL_DESIGN_GEOMETRIC_PRESENTATION_REPRESENTATION (  '', ( #106 ), #235 ) ;
#289 = ORIENTED_EDGE ( 'NONE', *, *, #69, .F. ) ;
#290 = CARTESIAN_POINT ( 'NONE',  ( 5.624099184981966457E-35, 1.500000000000000222, 0.000000000000000000 ) ) ;
#291 = ORIENTED_EDGE ( 'NONE', *, *, #84, .F. ) ;
#292 = PLANE ( 'NONE',  #304 ) ;
#293 = AXIS2_PLACEMENT_3D ( 'NONE', #130, #108, #63 ) ;
#294 = DIRECTION ( 'NONE',  ( -1.000000000000000000, 0.000000000000000000, 0.000000000000000000 ) ) ;
#295 = PRESENTATION_STYLE_ASSIGNMENT (( #166 ) ) ;
#296 = CARTESIAN_POINT ( 'NONE',  ( 7.582401355855259480E-33, 1.499999999999999778, 0.000000000000000000 ) ) ;
#297 = DIRECTION ( 'NONE',  ( -2.449293598294706538E-17, 1.000000000000000000, -0.000000000000000000 ) ) ;
#298 =( CONVERSION_BASED_UNIT ( 'INCH', #6 ) LENGTH_UNIT ( ) NAMED_UNIT ( #281 ) );
#299 =( CONVERSION_BASED_UNIT ( 'INCH', #132 ) LENGTH_UNIT ( ) NAMED_UNIT ( #107 ) );
#300 =( NAMED_UNIT ( * ) SI_UNIT ( $, .STERADIAN. ) SOLID_ANGLE_UNIT ( ) );
#301 = EDGE_CURVE ( 'NONE', #167, #162, #110, .T. ) ;
#302 = DIRECTION ( 'NONE',  ( 0.000000000000000000, -1.000000000000000000, -0.000000000000000000 ) ) ;
#303 = PLANE ( 'NONE',  #209 ) ;
#304 = AXIS2_PLACEMENT_3D ( 'NONE', #290, #226, #23 ) ;
#305 = PRESENTATION_LAYER_ASSIGNMENT (  '', '', ( #190 ) ) ;
#306 = PRESENTATION_LAYER_ASSIGNMENT (  '', '', ( #180 ) ) ;
#307 = CARTESIAN_POINT ( 'NONE',  ( 0.000000000000000000, 0.000000000000000000, 0.000000000000000000 ) ) ;
#308 = DIRECTION ( 'NONE',  ( -1.000000000000000000, 0.000000000000000000, 0.000000000000000000 ) ) ;
#309 = EDGE_CURVE ( 'NONE', #197, #167, #76, .T. ) ;
ENDSEC;
END-ISO-10303-21;
