ISO-10303-21;
HEADER;
FILE_DESCRIPTION (( 'STEP AP214' ),
    '1' );
FILE_NAME ('Micro_GEMM-100-2.STEP',
    '2021-09-01T21:49:56',
    ( '' ),
    ( '' ),
    'SwSTEP 2.0',
    'SolidWorks 2020',
    '' );
FILE_SCHEMA (( 'AUTOMOTIVE_DESIGN' ));
ENDSEC;

DATA;
#1 = DIRECTION ( 'NONE',  ( 0.0000000000000000000, 0.0000000000000000000, 1.000000000000000000 ) ) ;
#2 = ADVANCED_FACE ( 'NONE', ( #260 ), #10, .T. ) ;
#3 = VERTEX_POINT ( 'NONE', #44 ) ;
#4 = CIRCLE ( 'NONE', #120, 0.1968504999999999838 ) ;
#5 = DIRECTION ( 'NONE',  ( -1.000000000000000000, 0.0000000000000000000, 0.0000000000000000000 ) ) ;
#6 = EDGE_CURVE ( 'NONE', #145, #236, #46, .T. ) ;
#7 = ORIENTED_EDGE ( 'NONE', *, *, #54, .T. ) ;
#8 = ORIENTED_EDGE ( 'NONE', *, *, #283, .T. ) ;
#9 = FACE_OUTER_BOUND ( 'NONE', #27, .T. ) ;
#10 = CONICAL_SURFACE ( 'NONE', #255, 0.1818505000000002481, 0.7853981633974312926 ) ;
#11 = SURFACE_STYLE_FILL_AREA ( #157 ) ;
#12 = CARTESIAN_POINT ( 'NONE',  ( 9.174409589621918238E-17, 0.0000000000000000000, 0.7491473946618323332 ) ) ;
#13 = CYLINDRICAL_SURFACE ( 'NONE', #275, 0.1966536495000000273 ) ;
#14 = CIRCLE ( 'NONE', #26, 0.1818505000000002481 ) ;
#15 = DIRECTION ( 'NONE',  ( 0.0000000000000000000, 0.0000000000000000000, 1.000000000000000000 ) ) ;
#16 = FILL_AREA_STYLE_COLOUR ( '', #17 ) ;
#17 = COLOUR_RGB ( '',0.7921568627450980005, 0.8196078431372548767, 0.9333333333333333481 ) ;
#18 = DIRECTION ( 'NONE',  ( -1.000000000000000000, 0.0000000000000000000, 1.224646799147353207E-16 ) ) ;
#19 = LENGTH_MEASURE_WITH_UNIT ( LENGTH_MEASURE( 0.02539999999999999897 ), #138 );
#20 = FILL_AREA_STYLE ('',( #209 ) ) ;
#21 = MECHANICAL_DESIGN_GEOMETRIC_PRESENTATION_REPRESENTATION (  '', ( #160 ), #148 ) ;
#22 = EDGE_CURVE ( 'NONE', #30, #145, #178, .T. ) ;
#23 = VERTEX_POINT ( 'NONE', #24 ) ;
#24 = CARTESIAN_POINT ( 'NONE',  ( 0.1818505000000002481, 2.318874837419510283E-17, 2.834646000000000665 ) ) ;
#25 = UNCERTAINTY_MEASURE_WITH_UNIT (LENGTH_MEASURE( 1.000000000000000082E-05 ), #59, 'distance_accuracy_value', 'NONE');
#26 = AXIS2_PLACEMENT_3D ( 'NONE', #228, #15, #111 ) ;
#27 = EDGE_LOOP ( 'NONE', ( #245, #99, #48, #91 ) ) ;
#28 = ORIENTED_EDGE ( 'NONE', *, *, #253, .T. ) ;
#29 = ORIENTED_EDGE ( 'NONE', *, *, #253, .F. ) ;
#30 = VERTEX_POINT ( 'NONE', #127 ) ;
#31 = AXIS2_PLACEMENT_3D ( 'NONE', #210, #64, #273 ) ;
#32 = EDGE_LOOP ( 'NONE', ( #205, #7 ) ) ;
#33 = PRESENTATION_LAYER_ASSIGNMENT (  '', '', ( #247 ) ) ;
#34 = LINE ( 'NONE', #179, #299 ) ;
#35 = FACE_OUTER_BOUND ( 'NONE', #176, .T. ) ;
#36 = DIRECTION ( 'NONE',  ( -1.000000000000000000, 0.0000000000000000000, 0.0000000000000000000 ) ) ;
#37 = VECTOR ( 'NONE', #161, 39.37007874015748143 ) ;
#38 = DIRECTION ( 'NONE',  ( -1.000000000000000000, 0.0000000000000000000, 1.224646799147353207E-16 ) ) ;
#39 = CYLINDRICAL_SURFACE ( 'NONE', #51, 0.1966536495000000273 ) ;
#40 = APPLICATION_PROTOCOL_DEFINITION ( 'draft international standard', 'automotive_design', 1998, #108 ) ;
#41 = ADVANCED_FACE ( 'NONE', ( #9 ), #220, .T. ) ;
#42 = DIRECTION ( 'NONE',  ( 1.224646799147353207E-16, 0.0000000000000000000, 1.000000000000000000 ) ) ;
#43 = CIRCLE ( 'NONE', #129, 0.1818505000000002481 ) ;
#44 = CARTESIAN_POINT ( 'NONE',  ( 0.1966536494999999996, 2.408312624008205170E-17, 3.791200677927629740E-33 ) ) ;
#45 = EDGE_CURVE ( 'NONE', #23, #98, #173, .T. ) ;
#46 = LINE ( 'NONE', #235, #88 ) ;
#47 = ORIENTED_EDGE ( 'NONE', *, *, #75, .T. ) ;
#48 = ORIENTED_EDGE ( 'NONE', *, *, #89, .T. ) ;
#49 = EDGE_CURVE ( 'NONE', #98, #182, #290, .T. ) ;
#50 = ORIENTED_EDGE ( 'NONE', *, *, #45, .F. ) ;
#51 = AXIS2_PLACEMENT_3D ( 'NONE', #97, #232, #38 ) ;
#52 = PRESENTATION_STYLE_ASSIGNMENT (( #244 ) ) ;
#53 = CARTESIAN_POINT ( 'NONE',  ( -0.1966536494999999996, 0.0000000000000000000, 4.816625248016410340E-17 ) ) ;
#54 = EDGE_CURVE ( 'NONE', #23, #68, #43, .T. ) ;
#55 = ORIENTED_EDGE ( 'NONE', *, *, #143, .T. ) ;
#56 = CARTESIAN_POINT ( 'NONE',  ( -0.1968504999999999838, 0.0000000000000000000, 2.819646000000000097 ) ) ;
#57 = CARTESIAN_POINT ( 'NONE',  ( -0.1968504999999999838, 0.0000000000000000000, 2.834646000000000665 ) ) ;
#58 = VECTOR ( 'NONE', #87, 39.37007874015748143 ) ;
#59 =( CONVERSION_BASED_UNIT ( 'INCH', #230 ) LENGTH_UNIT ( ) NAMED_UNIT ( #184 ) );
#60 = EDGE_LOOP ( 'NONE', ( #266, #171, #227, #282 ) ) ;
#61 = CARTESIAN_POINT ( 'NONE',  ( -0.1966536495000000273, 0.0000000000000000000, 2.408312624008205478E-17 ) ) ;
#62 = AXIS2_PLACEMENT_3D ( 'NONE', #12, #107, #135 ) ;
#63 = ORIENTED_EDGE ( 'NONE', *, *, #6, .T. ) ;
#64 = DIRECTION ( 'NONE',  ( 1.224646799147353207E-16, 0.0000000000000000000, 1.000000000000000000 ) ) ;
#65 = EDGE_CURVE ( 'NONE', #3, #85, #264, .T. ) ;
#66 = DIRECTION ( 'NONE',  ( -1.224646799147353207E-16, -0.0000000000000000000, -1.000000000000000000 ) ) ;
#67 = CONICAL_SURFACE ( 'NONE', #116, 0.1966536495000000273, 0.1745329251994338915 ) ;
#68 = VERTEX_POINT ( 'NONE', #147 ) ;
#69 = ADVANCED_BREP_SHAPE_REPRESENTATION ( 'Micro_GEMM-100-2', ( #133, #95 ), #202 ) ;
#70 = DIRECTION ( 'NONE',  ( -1.000000000000000000, 0.0000000000000000000, 1.224646799147353207E-16 ) ) ;
#71 = CARTESIAN_POINT ( 'NONE',  ( 0.0000000000000000000, 0.0000000000000000000, 0.0000000000000000000 ) ) ;
#72 = ORIENTED_EDGE ( 'NONE', *, *, #89, .F. ) ;
#73 = AXIS2_PLACEMENT_3D ( 'NONE', #118, #298, #277 ) ;
#74 = DIRECTION ( 'NONE',  ( 0.0000000000000000000, 0.0000000000000000000, -1.000000000000000000 ) ) ;
#75 = EDGE_CURVE ( 'NONE', #80, #236, #4, .T. ) ;
#76 = DIRECTION ( 'NONE',  ( 1.000000000000000000, 0.0000000000000000000, 0.0000000000000000000 ) ) ;
#77 = DIRECTION ( 'NONE',  ( -1.224646799147353207E-16, -0.0000000000000000000, -1.000000000000000000 ) ) ;
#78 = AXIS2_PLACEMENT_3D ( 'NONE', #295, #66, #18 ) ;
#79 = CARTESIAN_POINT ( 'NONE',  ( 0.1968504999999999838, 2.410723347355560646E-17, 2.819646000000000097 ) ) ;
#80 = VERTEX_POINT ( 'NONE', #272 ) ;
#81 = CARTESIAN_POINT ( 'NONE',  ( 0.0000000000000000000, 0.0000000000000000000, 0.0000000000000000000 ) ) ;
#82 = ORIENTED_EDGE ( 'NONE', *, *, #168, .F. ) ;
#83 = DIMENSIONAL_EXPONENTS ( 1.000000000000000000, 0.0000000000000000000, 0.0000000000000000000, 0.0000000000000000000, 0.0000000000000000000, 0.0000000000000000000, 0.0000000000000000000 ) ;
#84 = DIRECTION ( 'NONE',  ( 1.000000000000000000, 0.0000000000000000000, 0.0000000000000000000 ) ) ;
#85 = VERTEX_POINT ( 'NONE', #53 ) ;
#86 = PRODUCT_DEFINITION_SHAPE ( 'NONE', 'NONE',  #153 ) ;
#87 = DIRECTION ( 'NONE',  ( 0.1736481776669313859, 0.0000000000000000000, 0.9848077530122077983 ) ) ;
#88 = VECTOR ( 'NONE', #151, 39.37007874015747433 ) ;
#89 = EDGE_CURVE ( 'NONE', #182, #236, #203, .T. ) ;
#90 =( NAMED_UNIT ( * ) PLANE_ANGLE_UNIT ( ) SI_UNIT ( $, .RADIAN. ) );
#91 = ORIENTED_EDGE ( 'NONE', *, *, #75, .F. ) ;
#92 = CARTESIAN_POINT ( 'NONE',  ( -0.1818505000000002481, 0.0000000000000000000, 2.834646000000000665 ) ) ;
#93 = PRODUCT_RELATED_PRODUCT_CATEGORY ( 'part', '', ( #109 ) ) ;
#94 = VECTOR ( 'NONE', #117, 39.37007874015748854 ) ;
#95 = AXIS2_PLACEMENT_3D ( 'NONE', #71, #150, #197 ) ;
#96 = SURFACE_SIDE_STYLE ('',( #119 ) ) ;
#97 = CARTESIAN_POINT ( 'NONE',  ( 0.0000000000000000000, 0.0000000000000000000, 0.0000000000000000000 ) ) ;
#98 = VERTEX_POINT ( 'NONE', #79 ) ;
#99 = ORIENTED_EDGE ( 'NONE', *, *, #49, .T. ) ;
#100 = AXIS2_PLACEMENT_3D ( 'NONE', #289, #292, #158 ) ;
#101 = DIRECTION ( 'NONE',  ( 0.7071067811865354713, 8.659560562354783714E-17, -0.7071067811865594521 ) ) ;
#102 = ORIENTED_EDGE ( 'NONE', *, *, #233, .T. ) ;
#103 = ORIENTED_EDGE ( 'NONE', *, *, #22, .F. ) ;
#104 = AXIS2_PLACEMENT_3D ( 'NONE', #152, #198, #215 ) ;
#105 =( NAMED_UNIT ( * ) SI_UNIT ( $, .STERADIAN. ) SOLID_ANGLE_UNIT ( ) );
#106 = ORIENTED_EDGE ( 'NONE', *, *, #45, .T. ) ;
#107 = DIRECTION ( 'NONE',  ( -1.224646799147353207E-16, -0.0000000000000000000, -1.000000000000000000 ) ) ;
#108 = APPLICATION_CONTEXT ( 'automotive_design' ) ;
#109 = PRODUCT ( 'Micro_GEMM-100-2', 'Micro_GEMM-100-2', '', ( #217 ) ) ;
#110 =( NAMED_UNIT ( * ) PLANE_ANGLE_UNIT ( ) SI_UNIT ( $, .RADIAN. ) );
#111 = DIRECTION ( 'NONE',  ( 1.000000000000000000, 0.0000000000000000000, 0.0000000000000000000 ) ) ;
#112 =( NAMED_UNIT ( * ) SI_UNIT ( $, .STERADIAN. ) SOLID_ANGLE_UNIT ( ) );
#113 = ADVANCED_FACE ( 'NONE', ( #204 ), #181, .T. ) ;
#114 = ORIENTED_EDGE ( 'NONE', *, *, #136, .T. ) ;
#115 = FACE_OUTER_BOUND ( 'NONE', #170, .T. ) ;
#116 = AXIS2_PLACEMENT_3D ( 'NONE', #213, #42, #278 ) ;
#117 = DIRECTION ( 'NONE',  ( -0.7071067811865354713, 0.0000000000000000000, -0.7071067811865594521 ) ) ;
#118 = CARTESIAN_POINT ( 'NONE',  ( 9.160737698129936696E-17, 0.0000000000000000000, 0.7480309999999998904 ) ) ;
#119 = SURFACE_STYLE_FILL_AREA ( #20 ) ;
#120 = AXIS2_PLACEMENT_3D ( 'NONE', #269, #77, #84 ) ;
#121 = CARTESIAN_POINT ( 'NONE',  ( -0.1968504999999999006, 0.0000000000000000000, 0.7491473946618323332 ) ) ;
#122 = ORIENTED_EDGE ( 'NONE', *, *, #54, .F. ) ;
#123 = CARTESIAN_POINT ( 'NONE',  ( 9.160737698129936696E-17, 0.0000000000000000000, 0.7480309999999998904 ) ) ;
#124 = AXIS2_PLACEMENT_3D ( 'NONE', #141, #1, #274 ) ;
#125 = ORIENTED_EDGE ( 'NONE', *, *, #231, .F. ) ;
#126 = UNCERTAINTY_MEASURE_WITH_UNIT (LENGTH_MEASURE( 1.000000000000000082E-05 ), #254, 'distance_accuracy_value', 'NONE');
#127 = CARTESIAN_POINT ( 'NONE',  ( 0.1966536495000001383, 0.0000000000000000000, 0.7480309999999998904 ) ) ;
#128 = CARTESIAN_POINT ( 'NONE',  ( 0.0000000000000000000, 0.0000000000000000000, 2.819646000000000097 ) ) ;
#129 = AXIS2_PLACEMENT_3D ( 'NONE', #193, #281, #76 ) ;
#130 = DIRECTION ( 'NONE',  ( 0.0000000000000000000, 0.0000000000000000000, -1.000000000000000000 ) ) ;
#131 = DIRECTION ( 'NONE',  ( -1.000000000000000000, 0.0000000000000000000, 0.0000000000000000000 ) ) ;
#132 = FACE_OUTER_BOUND ( 'NONE', #60, .T. ) ;
#133 = MANIFOLD_SOLID_BREP ( 'Cut-Revolve1', #165 ) ;
#134 = AXIS2_PLACEMENT_3D ( 'NONE', #128, #74, #241 ) ;
#135 = DIRECTION ( 'NONE',  ( 1.000000000000000000, 0.0000000000000000000, 0.0000000000000000000 ) ) ;
#136 = EDGE_CURVE ( 'NONE', #98, #80, #34, .T. ) ;
#137 = DIRECTION ( 'NONE',  ( -0.0000000000000000000, -0.0000000000000000000, -1.000000000000000000 ) ) ;
#138 =( LENGTH_UNIT ( ) NAMED_UNIT ( * ) SI_UNIT ( $, .METRE. ) );
#139 = LINE ( 'NONE', #92, #94 ) ;
#140 = FACE_OUTER_BOUND ( 'NONE', #195, .T. ) ;
#141 = CARTESIAN_POINT ( 'NONE',  ( 0.0000000000000000000, 0.0000000000000000000, 0.0000000000000000000 ) ) ;
#142 = AXIS2_PLACEMENT_3D ( 'NONE', #288, #226, #36 ) ;
#143 = EDGE_CURVE ( 'NONE', #30, #80, #265, .T. ) ;
#144 = SHAPE_DEFINITION_REPRESENTATION ( #86, #69 ) ;
#145 = VERTEX_POINT ( 'NONE', #291 ) ;
#146 = PRODUCT_DEFINITION_CONTEXT ( 'detailed design', #229, 'design' ) ;
#147 = CARTESIAN_POINT ( 'NONE',  ( -0.1818505000000002481, 0.0000000000000000000, 2.834646000000000665 ) ) ;
#148 =( GEOMETRIC_REPRESENTATION_CONTEXT ( 3 ) GLOBAL_UNCERTAINTY_ASSIGNED_CONTEXT ( ( #25 ) ) GLOBAL_UNIT_ASSIGNED_CONTEXT ( ( #59, #110, #112 ) ) REPRESENTATION_CONTEXT ( 'NONE', 'WORKASPACE' ) );
#149 = ADVANCED_FACE ( 'NONE', ( #35 ), #223, .T. ) ;
#150 = DIRECTION ( 'NONE',  ( 0.0000000000000000000, 0.0000000000000000000, 1.000000000000000000 ) ) ;
#151 = DIRECTION ( 'NONE',  ( -0.1736481776669311916, 2.126576849575783316E-17, 0.9848077530122080203 ) ) ;
#152 = CARTESIAN_POINT ( 'NONE',  ( 0.0000000000000000000, 0.0000000000000000000, 2.834646000000000665 ) ) ;
#153 = PRODUCT_DEFINITION ( 'UNKNOWN', '', #271, #146 ) ;
#154 = ORIENTED_EDGE ( 'NONE', *, *, #143, .F. ) ;
#155 = ORIENTED_EDGE ( 'NONE', *, *, #188, .F. ) ;
#156 = CARTESIAN_POINT ( 'NONE',  ( 0.0000000000000000000, 0.0000000000000000000, 2.834646000000000665 ) ) ;
#157 = FILL_AREA_STYLE ('',( #16 ) ) ;
#158 = DIRECTION ( 'NONE',  ( 1.000000000000000000, 0.0000000000000000000, -0.0000000000000000000 ) ) ;
#159 = ADVANCED_FACE ( 'NONE', ( #225 ), #201, .T. ) ;
#160 = STYLED_ITEM ( 'NONE', ( #52 ), #133 ) ;
#161 = DIRECTION ( 'NONE',  ( -1.224646799147353207E-16, -0.0000000000000000000, -1.000000000000000000 ) ) ;
#162 = FACE_OUTER_BOUND ( 'NONE', #218, .T. ) ;
#163 = VECTOR ( 'NONE', #137, 39.37007874015748143 ) ;
#164 = COLOUR_RGB ( '',0.7921568627450980005, 0.8196078431372548767, 0.9333333333333333481 ) ;
#165 = CLOSED_SHELL ( 'NONE', ( #270, #250, #149, #159, #41, #113, #2, #199, #174, #296 ) ) ;
#166 = DIRECTION ( 'NONE',  ( 0.0000000000000000000, 0.0000000000000000000, -1.000000000000000000 ) ) ;
#167 = PRESENTATION_STYLE_ASSIGNMENT (( #187 ) ) ;
#168 = EDGE_CURVE ( 'NONE', #236, #80, #216, .T. ) ;
#169 = ORIENTED_EDGE ( 'NONE', *, *, #65, .T. ) ;
#170 = EDGE_LOOP ( 'NONE', ( #267, #63, #224, #154 ) ) ;
#171 = ORIENTED_EDGE ( 'NONE', *, *, #22, .T. ) ;
#172 =( LENGTH_UNIT ( ) NAMED_UNIT ( * ) SI_UNIT ( $, .METRE. ) );
#173 = LINE ( 'NONE', #287, #237 ) ;
#174 = ADVANCED_FACE ( 'NONE', ( #132 ), #13, .T. ) ;
#175 = EDGE_LOOP ( 'NONE', ( #50, #155, #262, #194 ) ) ;
#176 = EDGE_LOOP ( 'NONE', ( #122, #106, #29, #200 ) ) ;
#177 = CARTESIAN_POINT ( 'NONE',  ( 2.949332346337811403E-33, 0.0000000000000000000, 2.408312624008205170E-17 ) ) ;
#178 = CIRCLE ( 'NONE', #183, 0.1966536495000000273 ) ;
#179 = CARTESIAN_POINT ( 'NONE',  ( 0.1968504999999999838, 2.410723347355560646E-17, 2.834646000000000665 ) ) ;
#180 = DIRECTION ( 'NONE',  ( -1.224646799147353207E-16, -0.0000000000000000000, -1.000000000000000000 ) ) ;
#181 = PLANE ( 'NONE',  #100 ) ;
#182 = VERTEX_POINT ( 'NONE', #56 ) ;
#183 = AXIS2_PLACEMENT_3D ( 'NONE', #123, #221, #5 ) ;
#184 = DIMENSIONAL_EXPONENTS ( 1.000000000000000000, 0.0000000000000000000, 0.0000000000000000000, 0.0000000000000000000, 0.0000000000000000000, 0.0000000000000000000, 0.0000000000000000000 ) ;
#185 = DIRECTION ( 'NONE',  ( 1.000000000000000000, 0.0000000000000000000, 0.0000000000000000000 ) ) ;
#186 = CARTESIAN_POINT ( 'NONE',  ( 0.0000000000000000000, 0.0000000000000000000, 2.819646000000000097 ) ) ;
#187 = SURFACE_STYLE_USAGE ( .BOTH. , #96 ) ;
#188 = EDGE_CURVE ( 'NONE', #68, #23, #14, .T. ) ;
#189 = CARTESIAN_POINT ( 'NONE',  ( 0.1966536495000000273, 2.408312624008205478E-17, -2.408312624008205478E-17 ) ) ;
#190 = EDGE_LOOP ( 'NONE', ( #28, #114, #82, #72 ) ) ;
#191 = CIRCLE ( 'NONE', #78, 0.1966536494999999996 ) ;
#192 = MECHANICAL_DESIGN_GEOMETRIC_PRESENTATION_REPRESENTATION (  '', ( #247 ), #212 ) ;
#193 = CARTESIAN_POINT ( 'NONE',  ( 0.0000000000000000000, 0.0000000000000000000, 2.834646000000000665 ) ) ;
#194 = ORIENTED_EDGE ( 'NONE', *, *, #49, .F. ) ;
#195 = EDGE_LOOP ( 'NONE', ( #280, #103, #55, #47 ) ) ;
#196 = AXIS2_PLACEMENT_3D ( 'NONE', #156, #130, #131 ) ;
#197 = DIRECTION ( 'NONE',  ( 1.000000000000000000, 0.0000000000000000000, 0.0000000000000000000 ) ) ;
#198 = DIRECTION ( 'NONE',  ( -0.0000000000000000000, -0.0000000000000000000, -1.000000000000000000 ) ) ;
#199 = ADVANCED_FACE ( 'NONE', ( #140 ), #252, .T. ) ;
#200 = ORIENTED_EDGE ( 'NONE', *, *, #222, .F. ) ;
#201 = CYLINDRICAL_SURFACE ( 'NONE', #142, 0.1968504999999999838 ) ;
#202 =( GEOMETRIC_REPRESENTATION_CONTEXT ( 3 ) GLOBAL_UNCERTAINTY_ASSIGNED_CONTEXT ( ( #126 ) ) GLOBAL_UNIT_ASSIGNED_CONTEXT ( ( #254, #90, #297 ) ) REPRESENTATION_CONTEXT ( 'NONE', 'WORKASPACE' ) );
#203 = LINE ( 'NONE', #57, #163 ) ;
#204 = FACE_OUTER_BOUND ( 'NONE', #32, .T. ) ;
#205 = ORIENTED_EDGE ( 'NONE', *, *, #188, .T. ) ;
#206 = CIRCLE ( 'NONE', #279, 0.1968504999999999838 ) ;
#207 = LINE ( 'NONE', #61, #37 ) ;
#208 = PLANE ( 'NONE',  #124 ) ;
#209 = FILL_AREA_STYLE_COLOUR ( '', #164 ) ;
#210 = CARTESIAN_POINT ( 'NONE',  ( 9.160737698129936696E-17, 0.0000000000000000000, 0.7480309999999998904 ) ) ;
#211 = CIRCLE ( 'NONE', #73, 0.1966536495000000273 ) ;
#212 =( GEOMETRIC_REPRESENTATION_CONTEXT ( 3 ) GLOBAL_UNCERTAINTY_ASSIGNED_CONTEXT ( ( #238 ) ) GLOBAL_UNIT_ASSIGNED_CONTEXT ( ( #259, #284, #105 ) ) REPRESENTATION_CONTEXT ( 'NONE', 'WORKASPACE' ) );
#213 = CARTESIAN_POINT ( 'NONE',  ( 9.160737698129936696E-17, 0.0000000000000000000, 0.7480309999999998904 ) ) ;
#214 = CARTESIAN_POINT ( 'NONE',  ( 0.0000000000000000000, 0.0000000000000000000, 2.834646000000000665 ) ) ;
#215 = DIRECTION ( 'NONE',  ( -1.000000000000000000, 0.0000000000000000000, 0.0000000000000000000 ) ) ;
#216 = CIRCLE ( 'NONE', #62, 0.1968504999999999838 ) ;
#217 = PRODUCT_CONTEXT ( 'NONE', #108, 'mechanical' ) ;
#218 = EDGE_LOOP ( 'NONE', ( #102, #258, #239, #125 ) ) ;
#219 = LENGTH_MEASURE_WITH_UNIT ( LENGTH_MEASURE( 0.02539999999999999897 ), #172 );
#220 = CYLINDRICAL_SURFACE ( 'NONE', #104, 0.1968504999999999838 ) ;
#221 = DIRECTION ( 'NONE',  ( -1.224646799147353207E-16, -0.0000000000000000000, -1.000000000000000000 ) ) ;
#222 = EDGE_CURVE ( 'NONE', #68, #182, #139, .T. ) ;
#223 = CONICAL_SURFACE ( 'NONE', #196, 0.1818505000000002481, 0.7853981633974312926 ) ;
#224 = ORIENTED_EDGE ( 'NONE', *, *, #168, .T. ) ;
#225 = FACE_OUTER_BOUND ( 'NONE', #190, .T. ) ;
#226 = DIRECTION ( 'NONE',  ( -0.0000000000000000000, -0.0000000000000000000, -1.000000000000000000 ) ) ;
#227 = ORIENTED_EDGE ( 'NONE', *, *, #231, .T. ) ;
#228 = CARTESIAN_POINT ( 'NONE',  ( 0.0000000000000000000, 0.0000000000000000000, 2.834646000000000665 ) ) ;
#229 = APPLICATION_CONTEXT ( 'automotive_design' ) ;
#230 = LENGTH_MEASURE_WITH_UNIT ( LENGTH_MEASURE( 0.02539999999999999897 ), #248 );
#231 = EDGE_CURVE ( 'NONE', #145, #85, #207, .T. ) ;
#232 = DIRECTION ( 'NONE',  ( -1.224646799147353207E-16, -0.0000000000000000000, -1.000000000000000000 ) ) ;
#233 = EDGE_CURVE ( 'NONE', #145, #30, #211, .T. ) ;
#234 = FACE_OUTER_BOUND ( 'NONE', #285, .T. ) ;
#235 = CARTESIAN_POINT ( 'NONE',  ( -0.1966536494999999440, 2.408312624008205478E-17, 0.7480309999999998904 ) ) ;
#236 = VERTEX_POINT ( 'NONE', #121 ) ;
#237 = VECTOR ( 'NONE', #101, 39.37007874015748854 ) ;
#238 = UNCERTAINTY_MEASURE_WITH_UNIT (LENGTH_MEASURE( 1.000000000000000082E-05 ), #259, 'distance_accuracy_value', 'NONE');
#239 = ORIENTED_EDGE ( 'NONE', *, *, #283, .F. ) ;
#240 = EDGE_CURVE ( 'NONE', #30, #3, #276, .T. ) ;
#241 = DIRECTION ( 'NONE',  ( 1.000000000000000000, 0.0000000000000000000, 0.0000000000000000000 ) ) ;
#242 = AXIS2_PLACEMENT_3D ( 'NONE', #177, #263, #70 ) ;
#243 = CARTESIAN_POINT ( 'NONE',  ( 0.1966536495000001383, 0.0000000000000000000, 0.7480309999999998904 ) ) ;
#244 = SURFACE_STYLE_USAGE ( .BOTH. , #246 ) ;
#245 = ORIENTED_EDGE ( 'NONE', *, *, #136, .F. ) ;
#246 = SURFACE_SIDE_STYLE ('',( #11 ) ) ;
#247 = STYLED_ITEM ( 'NONE', ( #167 ), #69 ) ;
#248 =( LENGTH_UNIT ( ) NAMED_UNIT ( * ) SI_UNIT ( $, .METRE. ) );
#249 = DIMENSIONAL_EXPONENTS ( 1.000000000000000000, 0.0000000000000000000, 0.0000000000000000000, 0.0000000000000000000, 0.0000000000000000000, 0.0000000000000000000, 0.0000000000000000000 ) ;
#250 = ADVANCED_FACE ( 'NONE', ( #115 ), #67, .T. ) ;
#251 = DIRECTION ( 'NONE',  ( -1.224646799147353207E-16, -0.0000000000000000000, -1.000000000000000000 ) ) ;
#252 = CONICAL_SURFACE ( 'NONE', #31, 0.1966536495000000273, 0.1745329251994338915 ) ;
#253 = EDGE_CURVE ( 'NONE', #182, #98, #206, .T. ) ;
#254 =( CONVERSION_BASED_UNIT ( 'INCH', #19 ) LENGTH_UNIT ( ) NAMED_UNIT ( #83 ) );
#255 = AXIS2_PLACEMENT_3D ( 'NONE', #214, #257, #261 ) ;
#256 = APPLICATION_PROTOCOL_DEFINITION ( 'draft international standard', 'automotive_design', 1998, #229 ) ;
#257 = DIRECTION ( 'NONE',  ( 0.0000000000000000000, 0.0000000000000000000, -1.000000000000000000 ) ) ;
#258 = ORIENTED_EDGE ( 'NONE', *, *, #240, .T. ) ;
#259 =( CONVERSION_BASED_UNIT ( 'INCH', #219 ) LENGTH_UNIT ( ) NAMED_UNIT ( #249 ) );
#260 = FACE_OUTER_BOUND ( 'NONE', #175, .T. ) ;
#261 = DIRECTION ( 'NONE',  ( -1.000000000000000000, 0.0000000000000000000, 0.0000000000000000000 ) ) ;
#262 = ORIENTED_EDGE ( 'NONE', *, *, #222, .T. ) ;
#263 = DIRECTION ( 'NONE',  ( -1.224646799147353207E-16, -0.0000000000000000000, -1.000000000000000000 ) ) ;
#264 = CIRCLE ( 'NONE', #242, 0.1966536494999999996 ) ;
#265 = LINE ( 'NONE', #243, #58 ) ;
#266 = ORIENTED_EDGE ( 'NONE', *, *, #240, .F. ) ;
#267 = ORIENTED_EDGE ( 'NONE', *, *, #233, .F. ) ;
#268 = DIRECTION ( 'NONE',  ( -1.000000000000000000, 0.0000000000000000000, 1.224646799147353207E-16 ) ) ;
#269 = CARTESIAN_POINT ( 'NONE',  ( 9.174409589621918238E-17, 0.0000000000000000000, 0.7491473946618323332 ) ) ;
#270 = ADVANCED_FACE ( 'NONE', ( #162 ), #39, .T. ) ;
#271 = PRODUCT_DEFINITION_FORMATION_WITH_SPECIFIED_SOURCE ( 'ANY', '', #109, .NOT_KNOWN. ) ;
#272 = CARTESIAN_POINT ( 'NONE',  ( 0.1968505000000000948, 2.410723347355561570E-17, 0.7491473946618323332 ) ) ;
#273 = DIRECTION ( 'NONE',  ( 1.000000000000000000, 0.0000000000000000000, 0.0000000000000000000 ) ) ;
#274 = DIRECTION ( 'NONE',  ( 1.000000000000000000, 0.0000000000000000000, -0.0000000000000000000 ) ) ;
#275 = AXIS2_PLACEMENT_3D ( 'NONE', #81, #180, #268 ) ;
#276 = LINE ( 'NONE', #189, #294 ) ;
#277 = DIRECTION ( 'NONE',  ( -1.000000000000000000, 0.0000000000000000000, 0.0000000000000000000 ) ) ;
#278 = DIRECTION ( 'NONE',  ( 1.000000000000000000, 0.0000000000000000000, 0.0000000000000000000 ) ) ;
#279 = AXIS2_PLACEMENT_3D ( 'NONE', #186, #166, #185 ) ;
#280 = ORIENTED_EDGE ( 'NONE', *, *, #6, .F. ) ;
#281 = DIRECTION ( 'NONE',  ( 0.0000000000000000000, 0.0000000000000000000, 1.000000000000000000 ) ) ;
#282 = ORIENTED_EDGE ( 'NONE', *, *, #65, .F. ) ;
#283 = EDGE_CURVE ( 'NONE', #85, #3, #191, .T. ) ;
#284 =( NAMED_UNIT ( * ) PLANE_ANGLE_UNIT ( ) SI_UNIT ( $, .RADIAN. ) );
#285 = EDGE_LOOP ( 'NONE', ( #8, #169 ) ) ;
#286 = PRESENTATION_LAYER_ASSIGNMENT (  '', '', ( #160 ) ) ;
#287 = CARTESIAN_POINT ( 'NONE',  ( 0.1818505000000002481, 2.227026327483460228E-17, 2.834646000000000665 ) ) ;
#288 = CARTESIAN_POINT ( 'NONE',  ( 0.0000000000000000000, 0.0000000000000000000, 2.834646000000000665 ) ) ;
#289 = CARTESIAN_POINT ( 'NONE',  ( 0.0000000000000000000, 0.0000000000000000000, 2.834646000000000665 ) ) ;
#290 = CIRCLE ( 'NONE', #134, 0.1968504999999999838 ) ;
#291 = CARTESIAN_POINT ( 'NONE',  ( -0.1966536494999999440, 2.409517985681882908E-17, 0.7480309999999998904 ) ) ;
#292 = DIRECTION ( 'NONE',  ( 0.0000000000000000000, 0.0000000000000000000, 1.000000000000000000 ) ) ;
#293 = DIRECTION ( 'NONE',  ( -0.0000000000000000000, -0.0000000000000000000, -1.000000000000000000 ) ) ;
#294 = VECTOR ( 'NONE', #251, 39.37007874015748143 ) ;
#295 = CARTESIAN_POINT ( 'NONE',  ( 2.949332346337811403E-33, 0.0000000000000000000, 2.408312624008205170E-17 ) ) ;
#296 = ADVANCED_FACE ( 'NONE', ( #234 ), #208, .F. ) ;
#297 =( NAMED_UNIT ( * ) SI_UNIT ( $, .STERADIAN. ) SOLID_ANGLE_UNIT ( ) );
#298 = DIRECTION ( 'NONE',  ( -1.224646799147353207E-16, -0.0000000000000000000, -1.000000000000000000 ) ) ;
#299 = VECTOR ( 'NONE', #293, 39.37007874015748143 ) ;
ENDSEC;
END-ISO-10303-21;
