ISO-10303-21;
HEADER;
FILE_DESCRIPTION (( 'STEP AP214' ),
    '1' );
FILE_NAME ('Micro_RME-015-2X.STEP',
    '2021-09-01T22:34:13',
    ( '' ),
    ( '' ),
    'SwSTEP 2.0',
    'SolidWorks 2020',
    '' );
FILE_SCHEMA (( 'AUTOMOTIVE_DESIGN' ));
ENDSEC;

DATA;
#1 = PRODUCT_DEFINITION_CONTEXT ( 'detailed design', #47, 'design' ) ;
#2 = DIRECTION ( 'NONE',  ( -1.000000000000000000, 0.0000000000000000000, 1.224646799147353454E-16 ) ) ;
#3 = AXIS2_PLACEMENT_3D ( 'NONE', #27, #34, #177 ) ;
#4 = AXIS2_PLACEMENT_3D ( 'NONE', #110, #180, #267 ) ;
#5 = DIRECTION ( 'NONE',  ( -1.224646799147353454E-16, -0.0000000000000000000, -1.000000000000000000 ) ) ;
#6 = EDGE_CURVE ( 'NONE', #191, #51, #48, .T. ) ;
#7 = CARTESIAN_POINT ( 'NONE',  ( 0.007492500000000006100, 0.0000000000000000000, 0.04499999999999999833 ) ) ;
#8 = CARTESIAN_POINT ( 'NONE',  ( 0.04750000000000064587, 5.817072295950006528E-18, 1.500000000000000222 ) ) ;
#9 = CARTESIAN_POINT ( 'NONE',  ( 0.06250000000000002776, 7.654042494670959086E-18, 1.500000000000000222 ) ) ;
#10 = CIRCLE ( 'NONE', #115, 0.06250000000000002776 ) ;
#11 = CARTESIAN_POINT ( 'NONE',  ( 4.371536378502421744E-17, 0.0000000000000000000, 0.3569630346926195297 ) ) ;
#12 = DIRECTION ( 'NONE',  ( 0.0000000000000000000, 0.0000000000000000000, -1.000000000000000000 ) ) ;
#13 = VERTEX_POINT ( 'NONE', #238 ) ;
#14 = EDGE_CURVE ( 'NONE', #289, #271, #213, .T. ) ;
#15 = CYLINDRICAL_SURFACE ( 'NONE', #4, 0.007492500000000000028 ) ;
#16 = EDGE_LOOP ( 'NONE', ( #92, #91, #23, #275 ) ) ;
#17 = EDGE_CURVE ( 'NONE', #191, #274, #206, .T. ) ;
#18 = CIRCLE ( 'NONE', #228, 0.06250000000000002776 ) ;
#19 = FACE_OUTER_BOUND ( 'NONE', #208, .T. ) ;
#20 =( LENGTH_UNIT ( ) NAMED_UNIT ( * ) SI_UNIT ( $, .METRE. ) );
#21 = ORIENTED_EDGE ( 'NONE', *, *, #268, .F. ) ;
#22 =( NAMED_UNIT ( * ) SI_UNIT ( $, .STERADIAN. ) SOLID_ANGLE_UNIT ( ) );
#23 = ORIENTED_EDGE ( 'NONE', *, *, #298, .F. ) ;
#24 = COLOUR_RGB ( '',0.7921568627450980005, 0.8196078431372548767, 0.9333333333333333481 ) ;
#25 =( NAMED_UNIT ( * ) SI_UNIT ( $, .STERADIAN. ) SOLID_ANGLE_UNIT ( ) );
#26 = CARTESIAN_POINT ( 'NONE',  ( 5.510910596163090326E-18, 0.0000000000000000000, 0.04499999999999999833 ) ) ;
#27 = CARTESIAN_POINT ( 'NONE',  ( 0.0000000000000000000, 0.0000000000000000000, 1.500000000000000222 ) ) ;
#28 = APPLICATION_CONTEXT ( 'automotive_design' ) ;
#29 = AXIS2_PLACEMENT_3D ( 'NONE', #49, #5, #2 ) ;
#30 = FACE_OUTER_BOUND ( 'NONE', #111, .T. ) ;
#31 = AXIS2_PLACEMENT_3D ( 'NONE', #26, #79, #120 ) ;
#32 = CARTESIAN_POINT ( 'NONE',  ( 0.007492500000000006100, 0.0000000000000000000, 0.04499999999999999833 ) ) ;
#33 = CARTESIAN_POINT ( 'NONE',  ( -0.06250000000000002776, 0.0000000000000000000, 1.485000000000000764 ) ) ;
#34 = DIRECTION ( 'NONE',  ( 0.0000000000000000000, 0.0000000000000000000, 1.000000000000000000 ) ) ;
#35 = EDGE_CURVE ( 'NONE', #289, #36, #54, .T. ) ;
#36 = VERTEX_POINT ( 'NONE', #233 ) ;
#37 = AXIS2_PLACEMENT_3D ( 'NONE', #170, #138, #122 ) ;
#38 = ORIENTED_EDGE ( 'NONE', *, *, #181, .F. ) ;
#39 = DIRECTION ( 'NONE',  ( 0.0000000000000000000, 0.0000000000000000000, 1.000000000000000000 ) ) ;
#40 = EDGE_LOOP ( 'NONE', ( #236, #136 ) ) ;
#41 = ORIENTED_EDGE ( 'NONE', *, *, #35, .F. ) ;
#42 = VECTOR ( 'NONE', #130, 39.37007874015748143 ) ;
#43 = ORIENTED_EDGE ( 'NONE', *, *, #171, .F. ) ;
#44 = COLOUR_RGB ( '',0.7921568627450980005, 0.8196078431372548767, 0.9333333333333333481 ) ;
#45 = CARTESIAN_POINT ( 'NONE',  ( -0.007492500000000000028, 0.0000000000000000000, 9.175666142611546005E-19 ) ) ;
#46 =( NAMED_UNIT ( * ) PLANE_ANGLE_UNIT ( ) SI_UNIT ( $, .RADIAN. ) );
#47 = APPLICATION_CONTEXT ( 'automotive_design' ) ;
#48 = LINE ( 'NONE', #142, #270 ) ;
#49 = CARTESIAN_POINT ( 'NONE',  ( 1.123695017159397331E-34, 0.0000000000000000000, 9.175666142611546005E-19 ) ) ;
#50 = STYLED_ITEM ( 'NONE', ( #190 ), #78 ) ;
#51 = VERTEX_POINT ( 'NONE', #273 ) ;
#52 = CARTESIAN_POINT ( 'NONE',  ( 0.0000000000000000000, 0.0000000000000000000, 0.0000000000000000000 ) ) ;
#53 = FACE_OUTER_BOUND ( 'NONE', #89, .T. ) ;
#54 = CIRCLE ( 'NONE', #37, 0.04750000000000064587 ) ;
#55 =( GEOMETRIC_REPRESENTATION_CONTEXT ( 3 ) GLOBAL_UNCERTAINTY_ASSIGNED_CONTEXT ( ( #296 ) ) GLOBAL_UNIT_ASSIGNED_CONTEXT ( ( #166, #184, #22 ) ) REPRESENTATION_CONTEXT ( 'NONE', 'WORKASPACE' ) );
#56 = DIRECTION ( 'NONE',  ( 0.0000000000000000000, 0.0000000000000000000, 1.000000000000000000 ) ) ;
#57 = EDGE_CURVE ( 'NONE', #191, #116, #75, .T. ) ;
#58 = DIRECTION ( 'NONE',  ( -1.000000000000000000, 0.0000000000000000000, 1.224646799147353454E-16 ) ) ;
#59 = LINE ( 'NONE', #9, #42 ) ;
#60 = CIRCLE ( 'NONE', #101, 0.06250000000000002776 ) ;
#61 = DIRECTION ( 'NONE',  ( 0.7071067811865462405, 8.659560562354916834E-17, -0.7071067811865486830 ) ) ;
#62 = AXIS2_PLACEMENT_3D ( 'NONE', #105, #262, #58 ) ;
#63 = DIMENSIONAL_EXPONENTS ( 1.000000000000000000, 0.0000000000000000000, 0.0000000000000000000, 0.0000000000000000000, 0.0000000000000000000, 0.0000000000000000000, 0.0000000000000000000 ) ;
#64 = FILL_AREA_STYLE ('',( #156 ) ) ;
#65 = ORIENTED_EDGE ( 'NONE', *, *, #268, .T. ) ;
#66 = CARTESIAN_POINT ( 'NONE',  ( 0.0000000000000000000, 0.0000000000000000000, 0.0000000000000000000 ) ) ;
#67 = EDGE_CURVE ( 'NONE', #116, #13, #141, .T. ) ;
#68 = ORIENTED_EDGE ( 'NONE', *, *, #298, .T. ) ;
#69 = ORIENTED_EDGE ( 'NONE', *, *, #57, .T. ) ;
#70 = PRESENTATION_STYLE_ASSIGNMENT (( #189 ) ) ;
#71 = PRODUCT_DEFINITION_FORMATION_WITH_SPECIFIED_SOURCE ( 'ANY', '', #155, .NOT_KNOWN. ) ;
#72 = SURFACE_STYLE_FILL_AREA ( #64 ) ;
#73 = EDGE_CURVE ( 'NONE', #274, #191, #247, .T. ) ;
#74 = CYLINDRICAL_SURFACE ( 'NONE', #264, 0.007492500000000000028 ) ;
#75 = LINE ( 'NONE', #45, #82 ) ;
#76 = ORIENTED_EDGE ( 'NONE', *, *, #260, .T. ) ;
#77 = VECTOR ( 'NONE', #61, 39.37007874015748854 ) ;
#78 = ADVANCED_BREP_SHAPE_REPRESENTATION ( 'Micro_RME-015-2X', ( #93, #230 ), #90 ) ;
#79 = DIRECTION ( 'NONE',  ( -1.224646799147353454E-16, -0.0000000000000000000, -1.000000000000000000 ) ) ;
#80 = DIRECTION ( 'NONE',  ( -1.000000000000000000, 0.0000000000000000000, 0.0000000000000000000 ) ) ;
#81 = CARTESIAN_POINT ( 'NONE',  ( 0.0000000000000000000, 0.0000000000000000000, 1.500000000000000222 ) ) ;
#82 = VECTOR ( 'NONE', #219, 39.37007874015748143 ) ;
#83 = PRESENTATION_LAYER_ASSIGNMENT (  '', '', ( #50 ) ) ;
#84 = LINE ( 'NONE', #223, #123 ) ;
#85 = CARTESIAN_POINT ( 'NONE',  ( 0.06250000000000002776, 7.654042494670959086E-18, 1.485000000000000764 ) ) ;
#86 = PLANE ( 'NONE',  #3 ) ;
#87 = DIMENSIONAL_EXPONENTS ( 1.000000000000000000, 0.0000000000000000000, 0.0000000000000000000, 0.0000000000000000000, 0.0000000000000000000, 0.0000000000000000000, 0.0000000000000000000 ) ;
#88 = DIRECTION ( 'NONE',  ( 1.000000000000000000, 0.0000000000000000000, 0.0000000000000000000 ) ) ;
#89 = EDGE_LOOP ( 'NONE', ( #250, #269, #212, #21 ) ) ;
#90 =( GEOMETRIC_REPRESENTATION_CONTEXT ( 3 ) GLOBAL_UNCERTAINTY_ASSIGNED_CONTEXT ( ( #117 ) ) GLOBAL_UNIT_ASSIGNED_CONTEXT ( ( #98, #46, #227 ) ) REPRESENTATION_CONTEXT ( 'NONE', 'WORKASPACE' ) );
#91 = ORIENTED_EDGE ( 'NONE', *, *, #145, .T. ) ;
#92 = ORIENTED_EDGE ( 'NONE', *, *, #245, .F. ) ;
#93 = MANIFOLD_SOLID_BREP ( 'Cut-Revolve1', #201 ) ;
#94 = ORIENTED_EDGE ( 'NONE', *, *, #67, .T. ) ;
#95 = ADVANCED_FACE ( 'NONE', ( #143 ), #74, .T. ) ;
#96 = DIRECTION ( 'NONE',  ( 1.000000000000000000, 0.0000000000000000000, 0.0000000000000000000 ) ) ;
#97 =( CONVERSION_BASED_UNIT ( 'INCH', #295 ) LENGTH_UNIT ( ) NAMED_UNIT ( #179 ) );
#98 =( CONVERSION_BASED_UNIT ( 'INCH', #235 ) LENGTH_UNIT ( ) NAMED_UNIT ( #63 ) );
#99 =( GEOMETRIC_REPRESENTATION_CONTEXT ( 3 ) GLOBAL_UNCERTAINTY_ASSIGNED_CONTEXT ( ( #102 ) ) GLOBAL_UNIT_ASSIGNED_CONTEXT ( ( #97, #299, #25 ) ) REPRESENTATION_CONTEXT ( 'NONE', 'WORKASPACE' ) );
#100 = ORIENTED_EDGE ( 'NONE', *, *, #164, .F. ) ;
#101 = AXIS2_PLACEMENT_3D ( 'NONE', #11, #106, #224 ) ;
#102 = UNCERTAINTY_MEASURE_WITH_UNIT (LENGTH_MEASURE( 1.000000000000000082E-05 ), #97, 'distance_accuracy_value', 'NONE');
#103 = FILL_AREA_STYLE_COLOUR ( '', #24 ) ;
#104 = CYLINDRICAL_SURFACE ( 'NONE', #203, 0.06250000000000002776 ) ;
#105 = CARTESIAN_POINT ( 'NONE',  ( 1.123695017159397331E-34, 0.0000000000000000000, 9.175666142611546005E-19 ) ) ;
#106 = DIRECTION ( 'NONE',  ( -1.224646799147353454E-16, -0.0000000000000000000, -1.000000000000000000 ) ) ;
#107 = DIRECTION ( 'NONE',  ( 1.000000000000000000, 0.0000000000000000000, 0.0000000000000000000 ) ) ;
#108 = PRODUCT_DEFINITION ( 'UNKNOWN', '', #71, #1 ) ;
#109 = CARTESIAN_POINT ( 'NONE',  ( 0.0000000000000000000, 0.0000000000000000000, 1.485000000000000764 ) ) ;
#110 = CARTESIAN_POINT ( 'NONE',  ( 0.0000000000000000000, 0.0000000000000000000, 0.0000000000000000000 ) ) ;
#111 = EDGE_LOOP ( 'NONE', ( #94, #76 ) ) ;
#112 = DIRECTION ( 'NONE',  ( 1.000000000000000000, 0.0000000000000000000, 0.0000000000000000000 ) ) ;
#113 = APPLICATION_PROTOCOL_DEFINITION ( 'draft international standard', 'automotive_design', 1998, #28 ) ;
#114 = VERTEX_POINT ( 'NONE', #253 ) ;
#115 = AXIS2_PLACEMENT_3D ( 'NONE', #151, #243, #107 ) ;
#116 = VERTEX_POINT ( 'NONE', #118 ) ;
#117 = UNCERTAINTY_MEASURE_WITH_UNIT (LENGTH_MEASURE( 1.000000000000000082E-05 ), #98, 'distance_accuracy_value', 'NONE');
#118 = CARTESIAN_POINT ( 'NONE',  ( -0.007492500000000000028, 0.0000000000000000000, 1.835133228522309201E-18 ) ) ;
#119 = ADVANCED_FACE ( 'NONE', ( #19 ), #196, .T. ) ;
#120 = DIRECTION ( 'NONE',  ( -1.000000000000000000, 0.0000000000000000000, 0.0000000000000000000 ) ) ;
#121 = FILL_AREA_STYLE ('',( #103 ) ) ;
#122 = DIRECTION ( 'NONE',  ( 1.000000000000000000, 0.0000000000000000000, 0.0000000000000000000 ) ) ;
#123 = VECTOR ( 'NONE', #174, 39.37007874015748143 ) ;
#124 = DIRECTION ( 'NONE',  ( 0.0000000000000000000, 0.0000000000000000000, 1.000000000000000000 ) ) ;
#125 = ADVANCED_FACE ( 'NONE', ( #53 ), #198, .T. ) ;
#126 = DIRECTION ( 'NONE',  ( 1.000000000000000000, 0.0000000000000000000, 0.0000000000000000000 ) ) ;
#127 = FACE_OUTER_BOUND ( 'NONE', #293, .T. ) ;
#128 = CONICAL_SURFACE ( 'NONE', #148, 0.007492500000000000028, 0.1745329251994339192 ) ;
#129 = DIRECTION ( 'NONE',  ( -1.000000000000000000, 0.0000000000000000000, 0.0000000000000000000 ) ) ;
#130 = DIRECTION ( 'NONE',  ( -0.0000000000000000000, -0.0000000000000000000, -1.000000000000000000 ) ) ;
#131 = CONICAL_SURFACE ( 'NONE', #178, 0.007492500000000000028, 0.1745329251994339192 ) ;
#132 = ORIENTED_EDGE ( 'NONE', *, *, #57, .F. ) ;
#133 = DIRECTION ( 'NONE',  ( 1.000000000000000000, 0.0000000000000000000, 0.0000000000000000000 ) ) ;
#134 = ORIENTED_EDGE ( 'NONE', *, *, #6, .T. ) ;
#135 = PRESENTATION_LAYER_ASSIGNMENT (  '', '', ( #222 ) ) ;
#136 = ORIENTED_EDGE ( 'NONE', *, *, #245, .T. ) ;
#137 = DIRECTION ( 'NONE',  ( -0.1736481776669312194, 2.126576849575783625E-17, 0.9848077530122080203 ) ) ;
#138 = DIRECTION ( 'NONE',  ( 0.0000000000000000000, 0.0000000000000000000, 1.000000000000000000 ) ) ;
#139 = ADVANCED_FACE ( 'NONE', ( #149 ), #153, .T. ) ;
#140 = LENGTH_MEASURE_WITH_UNIT ( LENGTH_MEASURE( 0.02539999999999999897 ), #248 );
#141 = CIRCLE ( 'NONE', #29, 0.007492500000000000028 ) ;
#142 = CARTESIAN_POINT ( 'NONE',  ( -0.007492499999999994824, 9.175666142611544079E-19, 0.04499999999999999833 ) ) ;
#143 = FACE_OUTER_BOUND ( 'NONE', #186, .T. ) ;
#144 = DIRECTION ( 'NONE',  ( -1.224646799147353454E-16, -0.0000000000000000000, -1.000000000000000000 ) ) ;
#145 = EDGE_CURVE ( 'NONE', #36, #229, #285, .T. ) ;
#146 = CARTESIAN_POINT ( 'NONE',  ( 0.0000000000000000000, 0.0000000000000000000, 0.0000000000000000000 ) ) ;
#147 = MECHANICAL_DESIGN_GEOMETRIC_PRESENTATION_REPRESENTATION (  '', ( #50 ), #55 ) ;
#148 = AXIS2_PLACEMENT_3D ( 'NONE', #168, #215, #112 ) ;
#149 = FACE_OUTER_BOUND ( 'NONE', #16, .T. ) ;
#150 = MECHANICAL_DESIGN_GEOMETRIC_PRESENTATION_REPRESENTATION (  '', ( #222 ), #99 ) ;
#151 = CARTESIAN_POINT ( 'NONE',  ( 4.371536378502421744E-17, 0.0000000000000000000, 0.3569630346926195297 ) ) ;
#152 = DIRECTION ( 'NONE',  ( -1.224646799147353454E-16, -0.0000000000000000000, -1.000000000000000000 ) ) ;
#153 = CONICAL_SURFACE ( 'NONE', #160, 0.04750000000000064587, 0.7853981633974466137 ) ;
#154 = DIRECTION ( 'NONE',  ( 0.1736481776669314137, 0.0000000000000000000, 0.9848077530122077983 ) ) ;
#155 = PRODUCT ( 'Micro_RME-015-2X', 'Micro_RME-015-2X', '', ( #182 ) ) ;
#156 = FILL_AREA_STYLE_COLOUR ( '', #44 ) ;
#157 = FACE_OUTER_BOUND ( 'NONE', #163, .T. ) ;
#158 = AXIS2_PLACEMENT_3D ( 'NONE', #266, #195, #259 ) ;
#159 = ORIENTED_EDGE ( 'NONE', *, *, #175, .T. ) ;
#160 = AXIS2_PLACEMENT_3D ( 'NONE', #81, #12, #263 ) ;
#161 = SURFACE_SIDE_STYLE ('',( #72 ) ) ;
#162 = ORIENTED_EDGE ( 'NONE', *, *, #67, .F. ) ;
#163 = EDGE_LOOP ( 'NONE', ( #211, #291, #162, #132 ) ) ;
#164 = EDGE_CURVE ( 'NONE', #229, #271, #18, .T. ) ;
#165 = ORIENTED_EDGE ( 'NONE', *, *, #73, .T. ) ;
#166 =( CONVERSION_BASED_UNIT ( 'INCH', #140 ) LENGTH_UNIT ( ) NAMED_UNIT ( #87 ) );
#167 = DIRECTION ( 'NONE',  ( -0.7071067811865462405, 0.0000000000000000000, -0.7071067811865486830 ) ) ;
#168 = CARTESIAN_POINT ( 'NONE',  ( 5.510910596163090326E-18, 0.0000000000000000000, 0.04499999999999999833 ) ) ;
#169 = ORIENTED_EDGE ( 'NONE', *, *, #258, .F. ) ;
#170 = CARTESIAN_POINT ( 'NONE',  ( 0.0000000000000000000, 0.0000000000000000000, 1.500000000000000222 ) ) ;
#171 = EDGE_CURVE ( 'NONE', #274, #114, #202, .T. ) ;
#172 = PLANE ( 'NONE',  #286 ) ;
#173 = FACE_OUTER_BOUND ( 'NONE', #40, .T. ) ;
#174 = DIRECTION ( 'NONE',  ( -0.0000000000000000000, -0.0000000000000000000, -1.000000000000000000 ) ) ;
#175 = EDGE_CURVE ( 'NONE', #51, #114, #60, .T. ) ;
#176 = DIRECTION ( 'NONE',  ( 1.224646799147353454E-16, 0.0000000000000000000, 1.000000000000000000 ) ) ;
#177 = DIRECTION ( 'NONE',  ( 1.000000000000000000, 0.0000000000000000000, -0.0000000000000000000 ) ) ;
#178 = AXIS2_PLACEMENT_3D ( 'NONE', #200, #176, #96 ) ;
#179 = DIMENSIONAL_EXPONENTS ( 1.000000000000000000, 0.0000000000000000000, 0.0000000000000000000, 0.0000000000000000000, 0.0000000000000000000, 0.0000000000000000000, 0.0000000000000000000 ) ;
#180 = DIRECTION ( 'NONE',  ( -1.224646799147353454E-16, -0.0000000000000000000, -1.000000000000000000 ) ) ;
#181 = EDGE_CURVE ( 'NONE', #274, #13, #282, .T. ) ;
#182 = PRODUCT_CONTEXT ( 'NONE', #28, 'mechanical' ) ;
#183 = ORIENTED_EDGE ( 'NONE', *, *, #232, .T. ) ;
#184 =( NAMED_UNIT ( * ) PLANE_ANGLE_UNIT ( ) SI_UNIT ( $, .RADIAN. ) );
#185 = EDGE_LOOP ( 'NONE', ( #251, #134, #159, #43 ) ) ;
#186 = EDGE_LOOP ( 'NONE', ( #38, #165, #69, #205 ) ) ;
#187 = ORIENTED_EDGE ( 'NONE', *, *, #145, .F. ) ;
#188 = CIRCLE ( 'NONE', #62, 0.007492500000000000028 ) ;
#189 = SURFACE_STYLE_USAGE ( .BOTH. , #255 ) ;
#190 = PRESENTATION_STYLE_ASSIGNMENT (( #256 ) ) ;
#191 = VERTEX_POINT ( 'NONE', #279 ) ;
#192 = SURFACE_STYLE_FILL_AREA ( #121 ) ;
#193 = VECTOR ( 'NONE', #154, 39.37007874015748143 ) ;
#194 = CARTESIAN_POINT ( 'NONE',  ( 5.510910596163090326E-18, 0.0000000000000000000, 0.04499999999999999833 ) ) ;
#195 = DIRECTION ( 'NONE',  ( 0.0000000000000000000, 0.0000000000000000000, -1.000000000000000000 ) ) ;
#196 = CONICAL_SURFACE ( 'NONE', #158, 0.04750000000000064587, 0.7853981633974466137 ) ;
#197 = PRODUCT_DEFINITION_SHAPE ( 'NONE', 'NONE',  #108 ) ;
#198 = CYLINDRICAL_SURFACE ( 'NONE', #210, 0.06250000000000002776 ) ;
#199 = AXIS2_PLACEMENT_3D ( 'NONE', #207, #254, #88 ) ;
#200 = CARTESIAN_POINT ( 'NONE',  ( 5.510910596163090326E-18, 0.0000000000000000000, 0.04499999999999999833 ) ) ;
#201 = CLOSED_SHELL ( 'NONE', ( #284, #292, #139, #234, #125, #218, #119, #280, #95, #242 ) ) ;
#202 = LINE ( 'NONE', #7, #193 ) ;
#203 = AXIS2_PLACEMENT_3D ( 'NONE', #226, #281, #80 ) ;
#204 = CARTESIAN_POINT ( 'NONE',  ( -0.04750000000000064587, 0.0000000000000000000, 1.500000000000000222 ) ) ;
#205 = ORIENTED_EDGE ( 'NONE', *, *, #260, .F. ) ;
#206 = CIRCLE ( 'NONE', #290, 0.007492500000000000028 ) ;
#207 = CARTESIAN_POINT ( 'NONE',  ( 0.0000000000000000000, 0.0000000000000000000, 1.485000000000000764 ) ) ;
#208 = EDGE_LOOP ( 'NONE', ( #187, #41, #252, #100 ) ) ;
#209 = EDGE_LOOP ( 'NONE', ( #68, #183, #272, #169 ) ) ;
#210 = AXIS2_PLACEMENT_3D ( 'NONE', #240, #246, #129 ) ;
#211 = ORIENTED_EDGE ( 'NONE', *, *, #17, .T. ) ;
#212 = ORIENTED_EDGE ( 'NONE', *, *, #258, .T. ) ;
#213 = LINE ( 'NONE', #220, #237 ) ;
#214 = PRODUCT_RELATED_PRODUCT_CATEGORY ( 'part', '', ( #155 ) ) ;
#215 = DIRECTION ( 'NONE',  ( 1.224646799147353454E-16, 0.0000000000000000000, 1.000000000000000000 ) ) ;
#216 = CIRCLE ( 'NONE', #297, 0.04750000000000064587 ) ;
#217 =( LENGTH_UNIT ( ) NAMED_UNIT ( * ) SI_UNIT ( $, .METRE. ) );
#218 = ADVANCED_FACE ( 'NONE', ( #173 ), #86, .T. ) ;
#219 = DIRECTION ( 'NONE',  ( -1.224646799147353454E-16, -0.0000000000000000000, -1.000000000000000000 ) ) ;
#220 = CARTESIAN_POINT ( 'NONE',  ( -0.04750000000000064587, 0.0000000000000000000, 1.500000000000000222 ) ) ;
#221 = DIRECTION ( 'NONE',  ( 1.000000000000000000, 0.0000000000000000000, 0.0000000000000000000 ) ) ;
#222 = STYLED_ITEM ( 'NONE', ( #70 ), #93 ) ;
#223 = CARTESIAN_POINT ( 'NONE',  ( -0.06250000000000002776, 0.0000000000000000000, 1.500000000000000222 ) ) ;
#224 = DIRECTION ( 'NONE',  ( 1.000000000000000000, 0.0000000000000000000, 0.0000000000000000000 ) ) ;
#225 = DIRECTION ( 'NONE',  ( 1.000000000000000000, 0.0000000000000000000, -0.0000000000000000000 ) ) ;
#226 = CARTESIAN_POINT ( 'NONE',  ( 0.0000000000000000000, 0.0000000000000000000, 1.500000000000000222 ) ) ;
#227 =( NAMED_UNIT ( * ) SI_UNIT ( $, .STERADIAN. ) SOLID_ANGLE_UNIT ( ) );
#228 = AXIS2_PLACEMENT_3D ( 'NONE', #109, #283, #221 ) ;
#229 = VERTEX_POINT ( 'NONE', #85 ) ;
#230 = AXIS2_PLACEMENT_3D ( 'NONE', #66, #39, #133 ) ;
#231 = ORIENTED_EDGE ( 'NONE', *, *, #6, .F. ) ;
#232 = EDGE_CURVE ( 'NONE', #229, #114, #59, .T. ) ;
#233 = CARTESIAN_POINT ( 'NONE',  ( 0.04750000000000064587, 6.735557395310483192E-18, 1.500000000000000222 ) ) ;
#234 = ADVANCED_FACE ( 'NONE', ( #241 ), #104, .T. ) ;
#235 = LENGTH_MEASURE_WITH_UNIT ( LENGTH_MEASURE( 0.02539999999999999897 ), #20 );
#236 = ORIENTED_EDGE ( 'NONE', *, *, #35, .T. ) ;
#237 = VECTOR ( 'NONE', #167, 39.37007874015748854 ) ;
#238 = CARTESIAN_POINT ( 'NONE',  ( 0.007492500000000000028, 9.175666142611544079E-19, 0.0000000000000000000 ) ) ;
#239 = DIRECTION ( 'NONE',  ( -1.000000000000000000, 0.0000000000000000000, 1.224646799147353454E-16 ) ) ;
#240 = CARTESIAN_POINT ( 'NONE',  ( 0.0000000000000000000, 0.0000000000000000000, 1.500000000000000222 ) ) ;
#241 = FACE_OUTER_BOUND ( 'NONE', #209, .T. ) ;
#242 = ADVANCED_FACE ( 'NONE', ( #30 ), #172, .F. ) ;
#243 = DIRECTION ( 'NONE',  ( -1.224646799147353454E-16, -0.0000000000000000000, -1.000000000000000000 ) ) ;
#244 = CARTESIAN_POINT ( 'NONE',  ( 0.0000000000000000000, 0.0000000000000000000, 1.500000000000000222 ) ) ;
#245 = EDGE_CURVE ( 'NONE', #36, #289, #216, .T. ) ;
#246 = DIRECTION ( 'NONE',  ( -0.0000000000000000000, -0.0000000000000000000, -1.000000000000000000 ) ) ;
#247 = CIRCLE ( 'NONE', #31, 0.007492500000000000028 ) ;
#248 =( LENGTH_UNIT ( ) NAMED_UNIT ( * ) SI_UNIT ( $, .METRE. ) );
#249 = ORIENTED_EDGE ( 'NONE', *, *, #171, .T. ) ;
#250 = ORIENTED_EDGE ( 'NONE', *, *, #232, .F. ) ;
#251 = ORIENTED_EDGE ( 'NONE', *, *, #17, .F. ) ;
#252 = ORIENTED_EDGE ( 'NONE', *, *, #14, .T. ) ;
#253 = CARTESIAN_POINT ( 'NONE',  ( 0.06250000000000006939, 7.654042494670963708E-18, 0.3569630346926195297 ) ) ;
#254 = DIRECTION ( 'NONE',  ( 0.0000000000000000000, 0.0000000000000000000, -1.000000000000000000 ) ) ;
#255 = SURFACE_SIDE_STYLE ('',( #192 ) ) ;
#256 = SURFACE_STYLE_USAGE ( .BOTH. , #161 ) ;
#257 = DIRECTION ( 'NONE',  ( -1.224646799147353454E-16, -0.0000000000000000000, -1.000000000000000000 ) ) ;
#258 = EDGE_CURVE ( 'NONE', #271, #51, #84, .T. ) ;
#259 = DIRECTION ( 'NONE',  ( -1.000000000000000000, 0.0000000000000000000, 0.0000000000000000000 ) ) ;
#260 = EDGE_CURVE ( 'NONE', #13, #116, #188, .T. ) ;
#261 = CARTESIAN_POINT ( 'NONE',  ( 0.007492500000000000028, 9.175666142611544079E-19, -9.175666142611546005E-19 ) ) ;
#262 = DIRECTION ( 'NONE',  ( -1.224646799147353454E-16, -0.0000000000000000000, -1.000000000000000000 ) ) ;
#263 = DIRECTION ( 'NONE',  ( -1.000000000000000000, 0.0000000000000000000, 0.0000000000000000000 ) ) ;
#264 = AXIS2_PLACEMENT_3D ( 'NONE', #52, #144, #239 ) ;
#265 = VECTOR ( 'NONE', #152, 39.37007874015748143 ) ;
#266 = CARTESIAN_POINT ( 'NONE',  ( 0.0000000000000000000, 0.0000000000000000000, 1.500000000000000222 ) ) ;
#267 = DIRECTION ( 'NONE',  ( -1.000000000000000000, 0.0000000000000000000, 1.224646799147353454E-16 ) ) ;
#268 = EDGE_CURVE ( 'NONE', #114, #51, #10, .T. ) ;
#269 = ORIENTED_EDGE ( 'NONE', *, *, #164, .T. ) ;
#270 = VECTOR ( 'NONE', #137, 39.37007874015747433 ) ;
#271 = VERTEX_POINT ( 'NONE', #33 ) ;
#272 = ORIENTED_EDGE ( 'NONE', *, *, #175, .F. ) ;
#273 = CARTESIAN_POINT ( 'NONE',  ( -0.06249999999999997918, 0.0000000000000000000, 0.3569630346926195297 ) ) ;
#274 = VERTEX_POINT ( 'NONE', #32 ) ;
#275 = ORIENTED_EDGE ( 'NONE', *, *, #14, .F. ) ;
#276 = CIRCLE ( 'NONE', #199, 0.06250000000000002776 ) ;
#277 = DIRECTION ( 'NONE',  ( -1.000000000000000000, 0.0000000000000000000, 0.0000000000000000000 ) ) ;
#278 = SHAPE_DEFINITION_REPRESENTATION ( #197, #78 ) ;
#279 = CARTESIAN_POINT ( 'NONE',  ( -0.007492499999999994824, 4.285804554466057710E-18, 0.04499999999999999833 ) ) ;
#280 = ADVANCED_FACE ( 'NONE', ( #127 ), #131, .T. ) ;
#281 = DIRECTION ( 'NONE',  ( -0.0000000000000000000, -0.0000000000000000000, -1.000000000000000000 ) ) ;
#282 = LINE ( 'NONE', #261, #265 ) ;
#283 = DIRECTION ( 'NONE',  ( 0.0000000000000000000, 0.0000000000000000000, -1.000000000000000000 ) ) ;
#284 = ADVANCED_FACE ( 'NONE', ( #157 ), #15, .T. ) ;
#285 = LINE ( 'NONE', #8, #77 ) ;
#286 = AXIS2_PLACEMENT_3D ( 'NONE', #146, #124, #225 ) ;
#287 = FACE_OUTER_BOUND ( 'NONE', #185, .T. ) ;
#288 = ORIENTED_EDGE ( 'NONE', *, *, #73, .F. ) ;
#289 = VERTEX_POINT ( 'NONE', #204 ) ;
#290 = AXIS2_PLACEMENT_3D ( 'NONE', #194, #257, #277 ) ;
#291 = ORIENTED_EDGE ( 'NONE', *, *, #181, .T. ) ;
#292 = ADVANCED_FACE ( 'NONE', ( #287 ), #128, .T. ) ;
#293 = EDGE_LOOP ( 'NONE', ( #231, #288, #249, #65 ) ) ;
#294 = APPLICATION_PROTOCOL_DEFINITION ( 'draft international standard', 'automotive_design', 1998, #47 ) ;
#295 = LENGTH_MEASURE_WITH_UNIT ( LENGTH_MEASURE( 0.02539999999999999897 ), #217 );
#296 = UNCERTAINTY_MEASURE_WITH_UNIT (LENGTH_MEASURE( 1.000000000000000082E-05 ), #166, 'distance_accuracy_value', 'NONE');
#297 = AXIS2_PLACEMENT_3D ( 'NONE', #244, #56, #126 ) ;
#298 = EDGE_CURVE ( 'NONE', #271, #229, #276, .T. ) ;
#299 =( NAMED_UNIT ( * ) PLANE_ANGLE_UNIT ( ) SI_UNIT ( $, .RADIAN. ) );
ENDSEC;
END-ISO-10303-21;
