ISO-10303-21;
HEADER;
FILE_DESCRIPTION (( 'STEP AP214' ),
    '1' );
FILE_NAME ('30212.STEP',
    '2023-06-22T18:09:39',
    ( '' ),
    ( '' ),
    'SwSTEP 2.0',
    'SolidWorks 2023',
    '' );
FILE_SCHEMA (( 'AUTOMOTIVE_DESIGN' ));
ENDSEC;

DATA;
#1 = ORIENTED_EDGE ( 'NONE', *, *, #172, .T. ) ;
#2 = DIRECTION ( 'NONE',  ( -3.061616997868386099E-17, 1.000000000000000000, -0.000000000000000000 ) ) ;
#3 = AXIS2_PLACEMENT_3D ( 'NONE', #311, #192, #250 ) ;
#4 = PRODUCT_DEFINITION_FORMATION_WITH_SPECIFIED_SOURCE ( 'ANY', '', #62, .NOT_KNOWN. ) ;
#5 = PRESENTATION_STYLE_ASSIGNMENT (( #218 ) ) ;
#6 = ADVANCED_FACE ( 'NONE', ( #328 ), #243, .T. ) ;
#7 = CARTESIAN_POINT ( 'NONE',  ( -0.1406000000000000028, 1.000000000000000000, 0.000000000000000000 ) ) ;
#8 = FACE_OUTER_BOUND ( 'NONE', #325, .T. ) ;
#9 = CLOSED_SHELL ( 'NONE', ( #6, #205, #228, #194, #35, #329 ) ) ;
#10 = CIRCLE ( 'NONE', #3, 0.1406000000000000028 ) ;
#11 = CARTESIAN_POINT ( 'NONE',  ( 0.1562499999999999445, 3.000000000000000444, 0.000000000000000000 ) ) ;
#12 = DIRECTION ( 'NONE',  ( 0.000000000000000000, 0.000000000000000000, -1.000000000000000000 ) ) ;
#13 = PRODUCT_DEFINITION_CONTEXT ( 'detailed design', #268, 'design' ) ;
#14 = CARTESIAN_POINT ( 'NONE',  ( 0.000000000000000000, 0.000000000000000000, 0.000000000000000000 ) ) ;
#15 = LINE ( 'NONE', #256, #39 ) ;
#16 = PRODUCT_DEFINITION ( 'UNKNOWN', '', #4, #13 ) ;
#17 = AXIS2_PLACEMENT_3D ( 'NONE', #237, #2, #320 ) ;
#18 =( GEOMETRIC_REPRESENTATION_CONTEXT ( 3 ) GLOBAL_UNCERTAINTY_ASSIGNED_CONTEXT ( ( #19 ) ) GLOBAL_UNIT_ASSIGNED_CONTEXT ( ( #155, #152, #239 ) ) REPRESENTATION_CONTEXT ( 'NONE', 'WORKASPACE' ) );
#19 = UNCERTAINTY_MEASURE_WITH_UNIT (LENGTH_MEASURE( 1.000000000000000082E-05 ), #155, 'distance_accuracy_value', 'NONE');
#20 = FACE_OUTER_BOUND ( 'NONE', #180, .T. ) ;
#21 = ORIENTED_EDGE ( 'NONE', *, *, #127, .F. ) ;
#22 = LENGTH_MEASURE_WITH_UNIT ( LENGTH_MEASURE( 0.02539999999999999897 ), #210 );
#23 = ORIENTED_EDGE ( 'NONE', *, *, #172, .F. ) ;
#24 =( NAMED_UNIT ( * ) PLANE_ANGLE_UNIT ( ) SI_UNIT ( $, .RADIAN. ) );
#25 = MECHANICAL_DESIGN_GEOMETRIC_PRESENTATION_REPRESENTATION (  '', ( #90 ), #235 ) ;
#26 = LINE ( 'NONE', #102, #43 ) ;
#27 = SURFACE_STYLE_FILL_AREA ( #75 ) ;
#28 = DIRECTION ( 'NONE',  ( 1.000000000000000000, 0.000000000000000000, 0.000000000000000000 ) ) ;
#29 = DIRECTION ( 'NONE',  ( -3.061616997868386099E-17, 1.000000000000000000, -0.000000000000000000 ) ) ;
#30 = CARTESIAN_POINT ( 'NONE',  ( -6.123233995736772199E-17, 3.000000000000000444, 0.000000000000000000 ) ) ;
#31 = EDGE_LOOP ( 'NONE', ( #42, #105 ) ) ;
#32 =( CONVERSION_BASED_UNIT ( 'INCH', #334 ) LENGTH_UNIT ( ) NAMED_UNIT ( #310 ) );
#33 = AXIS2_PLACEMENT_3D ( 'NONE', #30, #128, #264 ) ;
#34 = LENGTH_MEASURE_WITH_UNIT ( LENGTH_MEASURE( 0.02539999999999999897 ), #283 );
#35 = ADVANCED_FACE ( 'NONE', ( #117 ), #141, .T. ) ;
#36 = SURFACE_STYLE_FILL_AREA ( #309 ) ;
#37 = PRESENTATION_LAYER_ASSIGNMENT (  '', '', ( #245 ) ) ;
#38 = CARTESIAN_POINT ( 'NONE',  ( -1.316434738495560095E-18, 1.042998021614464532, 0.000000000000000000 ) ) ;
#39 = VECTOR ( 'NONE', #287, 39.37007874015748143 ) ;
#40 = ORIENTED_EDGE ( 'NONE', *, *, #260, .T. ) ;
#41 =( CONVERSION_BASED_UNIT ( 'INCH', #200 ) LENGTH_UNIT ( ) NAMED_UNIT ( #196 ) );
#42 = ORIENTED_EDGE ( 'NONE', *, *, #289, .T. ) ;
#43 = VECTOR ( 'NONE', #93, 39.37007874015748854 ) ;
#44 = DIRECTION ( 'NONE',  ( -1.000000000000000000, -3.061616997868386099E-17, 0.000000000000000000 ) ) ;
#45 =( LENGTH_UNIT ( ) NAMED_UNIT ( * ) SI_UNIT ( $, .METRE. ) );
#46 = LINE ( 'NONE', #322, #222 ) ;
#47 = FACE_OUTER_BOUND ( 'NONE', #333, .T. ) ;
#48 = VERTEX_POINT ( 'NONE', #106 ) ;
#49 = CARTESIAN_POINT ( 'NONE',  ( 6.589569545070551481E-35, 1.000000000000000000, 0.000000000000000000 ) ) ;
#50 = DIRECTION ( 'NONE',  ( 0.000000000000000000, 1.000000000000000000, 0.000000000000000000 ) ) ;
#51 =( GEOMETRIC_REPRESENTATION_CONTEXT ( 3 ) GLOBAL_UNCERTAINTY_ASSIGNED_CONTEXT ( ( #350 ) ) GLOBAL_UNIT_ASSIGNED_CONTEXT ( ( #126, #244, #356 ) ) REPRESENTATION_CONTEXT ( 'NONE', 'WORKASPACE' ) );
#52 = ORIENTED_EDGE ( 'NONE', *, *, #341, .F. ) ;
#53 = FACE_OUTER_BOUND ( 'NONE', #173, .T. ) ;
#54 = DIRECTION ( 'NONE',  ( -1.000000000000000000, 0.000000000000000000, 0.000000000000000000 ) ) ;
#55 = MECHANICAL_DESIGN_GEOMETRIC_PRESENTATION_REPRESENTATION (  '', ( #61 ), #51 ) ;
#56 = EDGE_CURVE ( 'NONE', #346, #124, #214, .T. ) ;
#57 = DIRECTION ( 'NONE',  ( -0.000000000000000000, -1.000000000000000000, -0.000000000000000000 ) ) ;
#58 =( NAMED_UNIT ( * ) SI_UNIT ( $, .STERADIAN. ) SOLID_ANGLE_UNIT ( ) );
#59 = EDGE_CURVE ( 'NONE', #68, #48, #69, .T. ) ;
#60 = AXIS2_PLACEMENT_3D ( 'NONE', #146, #193, #133 ) ;
#61 = STYLED_ITEM ( 'NONE', ( #241 ), #164 ) ;
#62 = PRODUCT ( '30212', '30212', '', ( #212 ) ) ;
#63 = UNCERTAINTY_MEASURE_WITH_UNIT (LENGTH_MEASURE( 1.000000000000000082E-05 ), #41, 'distance_accuracy_value', 'NONE');
#64 = DIRECTION ( 'NONE',  ( -3.061616997868386099E-17, 1.000000000000000000, 0.000000000000000000 ) ) ;
#65 =( LENGTH_UNIT ( ) NAMED_UNIT ( * ) SI_UNIT ( $, .METRE. ) );
#66 = ORIENTED_EDGE ( 'NONE', *, *, #59, .T. ) ;
#67 = DIRECTION ( 'NONE',  ( -0.000000000000000000, -1.000000000000000000, -0.000000000000000000 ) ) ;
#68 = VERTEX_POINT ( 'NONE', #236 ) ;
#69 = LINE ( 'NONE', #174, #231 ) ;
#70 = SURFACE_SIDE_STYLE ('',( #72 ) ) ;
#71 =( CONVERSION_BASED_UNIT ( 'INCH', #148 ) LENGTH_UNIT ( ) NAMED_UNIT ( #340 ) );
#72 = SURFACE_STYLE_FILL_AREA ( #175 ) ;
#73 = MECHANICAL_DESIGN_GEOMETRIC_PRESENTATION_REPRESENTATION (  '', ( #100 ), #344 ) ;
#74 = CYLINDRICAL_SURFACE ( 'NONE', #332, 0.1406000000000000028 ) ;
#75 = FILL_AREA_STYLE ('',( #154 ) ) ;
#76 = SURFACE_SIDE_STYLE ('',( #223 ) ) ;
#77 = SURFACE_SIDE_STYLE ('',( #357 ) ) ;
#78 = COLOUR_RGB ( '',1.000000000000000000, 0.000000000000000000, 0.000000000000000000 ) ;
#79 = CIRCLE ( 'NONE', #168, 0.1562500000000000000 ) ;
#80 = CARTESIAN_POINT ( 'NONE',  ( 0.000000000000000000, 1.000000000000000000, 0.000000000000000000 ) ) ;
#81 = ADVANCED_FACE ( 'NONE', ( #47 ), #183, .T. ) ;
#82 =( NAMED_UNIT ( * ) SI_UNIT ( $, .STERADIAN. ) SOLID_ANGLE_UNIT ( ) );
#83 = DIRECTION ( 'NONE',  ( 0.000000000000000000, 0.000000000000000000, -1.000000000000000000 ) ) ;
#84 =( GEOMETRIC_REPRESENTATION_CONTEXT ( 3 ) GLOBAL_UNCERTAINTY_ASSIGNED_CONTEXT ( ( #199 ) ) GLOBAL_UNIT_ASSIGNED_CONTEXT ( ( #312, #163, #220 ) ) REPRESENTATION_CONTEXT ( 'NONE', 'WORKASPACE' ) );
#85 = LENGTH_MEASURE_WITH_UNIT ( LENGTH_MEASURE( 0.02539999999999999897 ), #191 );
#86 = CIRCLE ( 'NONE', #186, 0.1562499999999999445 ) ;
#87 = DIMENSIONAL_EXPONENTS ( 1.000000000000000000, 0.000000000000000000, 0.000000000000000000, 0.000000000000000000, 0.000000000000000000, 0.000000000000000000, 0.000000000000000000 ) ;
#88 = CARTESIAN_POINT ( 'NONE',  ( 0.000000000000000000, 0.000000000000000000, -0.1406000000000000028 ) ) ;
#89 = AXIS2_PLACEMENT_3D ( 'NONE', #294, #29, #122 ) ;
#90 = STYLED_ITEM ( 'NONE', ( #249 ), #103 ) ;
#91 = CARTESIAN_POINT ( 'NONE',  ( 0.000000000000000000, 0.000000000000000000, -0.1406000000000000028 ) ) ;
#92 = ORIENTED_EDGE ( 'NONE', *, *, #190, .T. ) ;
#93 = DIRECTION ( 'NONE',  ( -0.3420201433256696011, 0.9396926207859079838, 0.000000000000000000 ) ) ;
#94 = DIRECTION ( 'NONE',  ( -3.061616997868386099E-17, 1.000000000000000000, -0.000000000000000000 ) ) ;
#95 = MANIFOLD_SOLID_BREP ( 'Revolve - Tool Body (Reduced Cut Diameter)', #9 ) ;
#96 = LINE ( 'NONE', #324, #227 ) ;
#97 = EDGE_CURVE ( 'NONE', #288, #124, #184, .T. ) ;
#98 = SHAPE_DEFINITION_REPRESENTATION ( #101, #207 ) ;
#99 = VERTEX_POINT ( 'NONE', #7 ) ;
#100 = STYLED_ITEM ( 'NONE', ( #318 ), #335 ) ;
#101 = PRODUCT_DEFINITION_SHAPE ( 'NONE', 'NONE',  #16 ) ;
#102 = CARTESIAN_POINT ( 'NONE',  ( -0.1406000000000000028, 1.000000000000000000, 0.000000000000000000 ) ) ;
#103 = MANIFOLD_SOLID_BREP ( 'Revolve - Cutting Edge', #112 ) ;
#104 =( NAMED_UNIT ( * ) SI_UNIT ( $, .STERADIAN. ) SOLID_ANGLE_UNIT ( ) );
#105 = ORIENTED_EDGE ( 'NONE', *, *, #97, .T. ) ;
#106 = CARTESIAN_POINT ( 'NONE',  ( -0.1562500000000000833, 3.000000000000000444, 0.000000000000000000 ) ) ;
#107 = EDGE_LOOP ( 'NONE', ( #21, #209, #66, #319 ) ) ;
#108 = STYLED_ITEM ( 'NONE', ( #161 ), #95 ) ;
#109 = CIRCLE ( 'NONE', #203, 0.1406000000000000028 ) ;
#110 = DIRECTION ( 'NONE',  ( 0.000000000000000000, -0.000000000000000000, 1.000000000000000000 ) ) ;
#111 = EDGE_CURVE ( 'NONE', #267, #346, #109, .T. ) ;
#112 = CLOSED_SHELL ( 'NONE', ( #276, #81, #164, #335 ) ) ;
#113 = PLANE ( 'NONE',  #197 ) ;
#114 = DIRECTION ( 'NONE',  ( -0.000000000000000000, -1.000000000000000000, -0.000000000000000000 ) ) ;
#115 =( CONVERSION_BASED_UNIT ( 'INCH', #34 ) LENGTH_UNIT ( ) NAMED_UNIT ( #226 ) );
#116 = DIRECTION ( 'NONE',  ( 3.061616997868386099E-17, -1.000000000000000000, 0.000000000000000000 ) ) ;
#117 = FACE_OUTER_BOUND ( 'NONE', #107, .T. ) ;
#118 = PRESENTATION_LAYER_ASSIGNMENT (  '', '', ( #90 ) ) ;
#119 = COLOUR_RGB ( '',1.000000000000000000, 0.000000000000000000, 0.000000000000000000 ) ;
#120 = DIRECTION ( 'NONE',  ( 0.000000000000000000, -1.000000000000000000, -0.000000000000000000 ) ) ;
#121 = DIRECTION ( 'NONE',  ( 0.000000000000000000, 0.000000000000000000, -1.000000000000000000 ) ) ;
#122 = DIRECTION ( 'NONE',  ( -1.000000000000000000, 0.000000000000000000, 0.000000000000000000 ) ) ;
#123 = ORIENTED_EDGE ( 'NONE', *, *, #190, .F. ) ;
#124 = VERTEX_POINT ( 'NONE', #88 ) ;
#125 = AXIS2_PLACEMENT_3D ( 'NONE', #217, #147, #330 ) ;
#126 =( CONVERSION_BASED_UNIT ( 'INCH', #22 ) LENGTH_UNIT ( ) NAMED_UNIT ( #282 ) );
#127 = EDGE_CURVE ( 'NONE', #261, #129, #15, .T. ) ;
#128 = DIRECTION ( 'NONE',  ( -3.061616997868386099E-17, 1.000000000000000000, -0.000000000000000000 ) ) ;
#129 = VERTEX_POINT ( 'NONE', #202 ) ;
#130 = DIRECTION ( 'NONE',  ( -1.000000000000000000, 0.000000000000000000, 0.000000000000000000 ) ) ;
#131 = FILL_AREA_STYLE_COLOUR ( '', #78 ) ;
#132 = COLOUR_RGB ( '',0.7921568627450980005, 0.8196078431372548767, 0.9333333333333333481 ) ;
#133 = DIRECTION ( 'NONE',  ( -1.000000000000000000, 0.000000000000000000, 0.000000000000000000 ) ) ;
#134 = PRODUCT_RELATED_PRODUCT_CATEGORY ( 'part', '', ( #62 ) ) ;
#135 = DIRECTION ( 'NONE',  ( -0.000000000000000000, -1.000000000000000000, -0.000000000000000000 ) ) ;
#136 =( NAMED_UNIT ( * ) SI_UNIT ( $, .STERADIAN. ) SOLID_ANGLE_UNIT ( ) );
#137 = PRESENTATION_STYLE_ASSIGNMENT (( #247 ) ) ;
#138 = SURFACE_STYLE_USAGE ( .BOTH. , #279 ) ;
#139 = COLOUR_RGB ( '',1.000000000000000000, 0.000000000000000000, 0.000000000000000000 ) ;
#140 = SURFACE_STYLE_FILL_AREA ( #345 ) ;
#141 = CYLINDRICAL_SURFACE ( 'NONE', #89, 0.1562499999999999722 ) ;
#142 = UNCERTAINTY_MEASURE_WITH_UNIT (LENGTH_MEASURE( 1.000000000000000082E-05 ), #115, 'distance_accuracy_value', 'NONE');
#143 = CIRCLE ( 'NONE', #246, 0.1406000000000000028 ) ;
#144 = FACE_OUTER_BOUND ( 'NONE', #31, .T. ) ;
#145 = AXIS2_PLACEMENT_3D ( 'NONE', #302, #293, #28 ) ;
#146 = CARTESIAN_POINT ( 'NONE',  ( -6.123233995736772199E-17, 3.000000000000000444, 0.000000000000000000 ) ) ;
#147 = DIRECTION ( 'NONE',  ( -3.061616997868386099E-17, 1.000000000000000000, -0.000000000000000000 ) ) ;
#148 = LENGTH_MEASURE_WITH_UNIT ( LENGTH_MEASURE( 0.02539999999999999897 ), #45 );
#149 = VERTEX_POINT ( 'NONE', #317 ) ;
#150 = ORIENTED_EDGE ( 'NONE', *, *, #260, .F. ) ;
#151 = FILL_AREA_STYLE_COLOUR ( '', #119 ) ;
#152 =( NAMED_UNIT ( * ) PLANE_ANGLE_UNIT ( ) SI_UNIT ( $, .RADIAN. ) );
#153 = ORIENTED_EDGE ( 'NONE', *, *, #289, .F. ) ;
#154 = FILL_AREA_STYLE_COLOUR ( '', #337 ) ;
#155 =( CONVERSION_BASED_UNIT ( 'INCH', #179 ) LENGTH_UNIT ( ) NAMED_UNIT ( #284 ) );
#156 = AXIS2_PLACEMENT_3D ( 'NONE', #281, #221, #83 ) ;
#157 = DIRECTION ( 'NONE',  ( -0.000000000000000000, -1.000000000000000000, -0.000000000000000000 ) ) ;
#158 = DIRECTION ( 'NONE',  ( 0.000000000000000000, 0.000000000000000000, -1.000000000000000000 ) ) ;
#159 = ORIENTED_EDGE ( 'NONE', *, *, #266, .T. ) ;
#160 = DIRECTION ( 'NONE',  ( -3.061616997868386099E-17, 1.000000000000000000, -0.000000000000000000 ) ) ;
#161 = PRESENTATION_STYLE_ASSIGNMENT (( #301 ) ) ;
#162 = DIRECTION ( 'NONE',  ( -3.061616997868386099E-17, 1.000000000000000000, -0.000000000000000000 ) ) ;
#163 =( NAMED_UNIT ( * ) PLANE_ANGLE_UNIT ( ) SI_UNIT ( $, .RADIAN. ) );
#164 = ADVANCED_FACE ( 'NONE', ( #20 ), #74, .T. ) ;
#165 = CIRCLE ( 'NONE', #299, 0.1562499999999999445 ) ;
#166 = CARTESIAN_POINT ( 'NONE',  ( 1.721853399601179049E-17, 1.000000000000000000, 0.1406000000000000305 ) ) ;
#167 = VECTOR ( 'NONE', #208, 39.37007874015748143 ) ;
#168 = AXIS2_PLACEMENT_3D ( 'NONE', #181, #160, #270 ) ;
#169 = DIRECTION ( 'NONE',  ( 1.000000000000000000, 3.061616997868386099E-17, 0.000000000000000000 ) ) ;
#170 = AXIS2_PLACEMENT_3D ( 'NONE', #49, #64, #44 ) ;
#171 = SURFACE_SIDE_STYLE ('',( #140 ) ) ;
#172 = EDGE_CURVE ( 'NONE', #48, #129, #79, .T. ) ;
#173 = EDGE_LOOP ( 'NONE', ( #240, #263, #92, #204 ) ) ;
#174 = CARTESIAN_POINT ( 'NONE',  ( -0.1562500000000000278, 3.000000000000000444, 0.000000000000000000 ) ) ;
#175 = FILL_AREA_STYLE ('',( #151 ) ) ;
#176 = AXIS2_PLACEMENT_3D ( 'NONE', #14, #120, #158 ) ;
#177 = ORIENTED_EDGE ( 'NONE', *, *, #233, .F. ) ;
#178 = CARTESIAN_POINT ( 'NONE',  ( 0.1562499999999999445, 1.042998021614464532, 1.913510623667738539E-17 ) ) ;
#179 = LENGTH_MEASURE_WITH_UNIT ( LENGTH_MEASURE( 0.02539999999999999897 ), #65 );
#180 = EDGE_LOOP ( 'NONE', ( #150, #253, #352, #182 ) ) ;
#181 = CARTESIAN_POINT ( 'NONE',  ( -6.123233995736772199E-17, 3.000000000000000444, 0.000000000000000000 ) ) ;
#182 = ORIENTED_EDGE ( 'NONE', *, *, #97, .F. ) ;
#183 = PLANE ( 'NONE',  #348 ) ;
#184 = CIRCLE ( 'NONE', #313, 0.1406000000000000028 ) ;
#185 = ORIENTED_EDGE ( 'NONE', *, *, #111, .F. ) ;
#186 = AXIS2_PLACEMENT_3D ( 'NONE', #280, #162, #308 ) ;
#187 = PLANE ( 'NONE',  #170 ) ;
#188 = SURFACE_SIDE_STYLE ('',( #27 ) ) ;
#189 =( NAMED_UNIT ( * ) PLANE_ANGLE_UNIT ( ) SI_UNIT ( $, .RADIAN. ) );
#190 = EDGE_CURVE ( 'NONE', #99, #68, #26, .T. ) ;
#191 =( LENGTH_UNIT ( ) NAMED_UNIT ( * ) SI_UNIT ( $, .METRE. ) );
#192 = DIRECTION ( 'NONE',  ( -0.000000000000000000, -1.000000000000000000, -0.000000000000000000 ) ) ;
#193 = DIRECTION ( 'NONE',  ( -3.061616997868386099E-17, 1.000000000000000000, -0.000000000000000000 ) ) ;
#194 = ADVANCED_FACE ( 'NONE', ( #53 ), #258, .T. ) ;
#195 = CARTESIAN_POINT ( 'NONE',  ( 1.721853399601178741E-17, 0.000000000000000000, 0.1406000000000000028 ) ) ;
#196 = DIMENSIONAL_EXPONENTS ( 1.000000000000000000, 0.000000000000000000, 0.000000000000000000, 0.000000000000000000, 0.000000000000000000, 0.000000000000000000, 0.000000000000000000 ) ;
#197 = AXIS2_PLACEMENT_3D ( 'NONE', #11, #116, #169 ) ;
#198 = AXIS2_PLACEMENT_3D ( 'NONE', #290, #94, #273 ) ;
#199 = UNCERTAINTY_MEASURE_WITH_UNIT (LENGTH_MEASURE( 1.000000000000000082E-05 ), #312, 'distance_accuracy_value', 'NONE');
#200 = LENGTH_MEASURE_WITH_UNIT ( LENGTH_MEASURE( 0.02539999999999999897 ), #229 );
#201 = FILL_AREA_STYLE_COLOUR ( '', #139 ) ;
#202 = CARTESIAN_POINT ( 'NONE',  ( 0.1562499999999999445, 3.000000000000000444, 1.913510623667738847E-17 ) ) ;
#203 = AXIS2_PLACEMENT_3D ( 'NONE', #80, #57, #225 ) ;
#204 = ORIENTED_EDGE ( 'NONE', *, *, #321, .F. ) ;
#205 = ADVANCED_FACE ( 'NONE', ( #277 ), #286, .T. ) ;
#206 = UNCERTAINTY_MEASURE_WITH_UNIT (LENGTH_MEASURE( 1.000000000000000082E-05 ), #32, 'distance_accuracy_value', 'NONE');
#207 = ADVANCED_BREP_SHAPE_REPRESENTATION ( '30212', ( #103, #95, #145 ), #18 ) ;
#208 = DIRECTION ( 'NONE',  ( -0.000000000000000000, -1.000000000000000000, -0.000000000000000000 ) ) ;
#209 = ORIENTED_EDGE ( 'NONE', *, *, #321, .T. ) ;
#210 =( LENGTH_UNIT ( ) NAMED_UNIT ( * ) SI_UNIT ( $, .METRE. ) );
#211 = CIRCLE ( 'NONE', #198, 0.1406000000000000028 ) ;
#212 = PRODUCT_CONTEXT ( 'NONE', #254, 'mechanical' ) ;
#213 = ORIENTED_EDGE ( 'NONE', *, *, #127, .T. ) ;
#214 = LINE ( 'NONE', #91, #167 ) ;
#215 = CARTESIAN_POINT ( 'NONE',  ( 0.000000000000000000, 1.000000000000000000, 0.000000000000000000 ) ) ;
#216 = EDGE_LOOP ( 'NONE', ( #259, #291, #269, #123 ) ) ;
#217 = CARTESIAN_POINT ( 'NONE',  ( 7.582401355855259480E-33, 1.000000000000000000, 0.000000000000000000 ) ) ;
#218 = SURFACE_STYLE_USAGE ( .BOTH. , #77 ) ;
#219 = FACE_OUTER_BOUND ( 'NONE', #331, .T. ) ;
#220 =( NAMED_UNIT ( * ) SI_UNIT ( $, .STERADIAN. ) SOLID_ANGLE_UNIT ( ) );
#221 = DIRECTION ( 'NONE',  ( -0.000000000000000000, -1.000000000000000000, -0.000000000000000000 ) ) ;
#222 = VECTOR ( 'NONE', #327, 39.37007874015748143 ) ;
#223 = SURFACE_STYLE_FILL_AREA ( #224 ) ;
#224 = FILL_AREA_STYLE ('',( #304 ) ) ;
#225 = DIRECTION ( 'NONE',  ( 0.000000000000000000, 0.000000000000000000, -1.000000000000000000 ) ) ;
#226 = DIMENSIONAL_EXPONENTS ( 1.000000000000000000, 0.000000000000000000, 0.000000000000000000, 0.000000000000000000, 0.000000000000000000, 0.000000000000000000, 0.000000000000000000 ) ;
#227 = VECTOR ( 'NONE', #67, 39.37007874015748143 ) ;
#228 = ADVANCED_FACE ( 'NONE', ( #359 ), #187, .F. ) ;
#229 =( LENGTH_UNIT ( ) NAMED_UNIT ( * ) SI_UNIT ( $, .METRE. ) );
#230 = SURFACE_STYLE_USAGE ( .BOTH. , #171 ) ;
#231 = VECTOR ( 'NONE', #271, 39.37007874015748143 ) ;
#232 = APPLICATION_PROTOCOL_DEFINITION ( 'draft international standard', 'automotive_design', 1998, #254 ) ;
#233 = EDGE_CURVE ( 'NONE', #99, #149, #306, .T. ) ;
#234 = MECHANICAL_DESIGN_GEOMETRIC_PRESENTATION_REPRESENTATION (  '', ( #108 ), #84 ) ;
#235 =( GEOMETRIC_REPRESENTATION_CONTEXT ( 3 ) GLOBAL_UNCERTAINTY_ASSIGNED_CONTEXT ( ( #142 ) ) GLOBAL_UNIT_ASSIGNED_CONTEXT ( ( #115, #339, #136 ) ) REPRESENTATION_CONTEXT ( 'NONE', 'WORKASPACE' ) );
#236 = CARTESIAN_POINT ( 'NONE',  ( -0.1562499999999999445, 1.042998021614464532, 0.000000000000000000 ) ) ;
#237 = CARTESIAN_POINT ( 'NONE',  ( 7.582401355855259480E-33, 1.000000000000000000, 0.000000000000000000 ) ) ;
#238 = FILL_AREA_STYLE ('',( #131 ) ) ;
#239 =( NAMED_UNIT ( * ) SI_UNIT ( $, .STERADIAN. ) SOLID_ANGLE_UNIT ( ) );
#240 = ORIENTED_EDGE ( 'NONE', *, *, #347, .F. ) ;
#241 = PRESENTATION_STYLE_ASSIGNMENT (( #298 ) ) ;
#242 = APPLICATION_PROTOCOL_DEFINITION ( 'draft international standard', 'automotive_design', 1998, #268 ) ;
#243 = CYLINDRICAL_SURFACE ( 'NONE', #60, 0.1562499999999999722 ) ;
#244 =( NAMED_UNIT ( * ) PLANE_ANGLE_UNIT ( ) SI_UNIT ( $, .RADIAN. ) );
#245 = STYLED_ITEM ( 'NONE', ( #5 ), #81 ) ;
#246 = AXIS2_PLACEMENT_3D ( 'NONE', #292, #135, #336 ) ;
#247 = SURFACE_STYLE_USAGE ( .BOTH. , #76 ) ;
#248 = CYLINDRICAL_SURFACE ( 'NONE', #156, 0.1406000000000000028 ) ;
#249 = PRESENTATION_STYLE_ASSIGNMENT (( #138 ) ) ;
#250 = DIRECTION ( 'NONE',  ( 0.000000000000000000, 0.000000000000000000, -1.000000000000000000 ) ) ;
#251 = COLOUR_RGB ( '',1.000000000000000000, 0.000000000000000000, 0.000000000000000000 ) ;
#252 = FILL_AREA_STYLE_COLOUR ( '', #132 ) ;
#253 = ORIENTED_EDGE ( 'NONE', *, *, #111, .T. ) ;
#254 = APPLICATION_CONTEXT ( 'automotive_design' ) ;
#255 = EDGE_CURVE ( 'NONE', #129, #48, #323, .T. ) ;
#256 = CARTESIAN_POINT ( 'NONE',  ( 0.1562499999999999167, 3.000000000000000444, 1.913510623667738847E-17 ) ) ;
#257 = MECHANICAL_DESIGN_GEOMETRIC_PRESENTATION_REPRESENTATION (  '', ( #245 ), #305 ) ;
#258 = CONICAL_SURFACE ( 'NONE', #17, 0.1406000000000000028, 0.3490658503988668393 ) ;
#259 = ORIENTED_EDGE ( 'NONE', *, *, #233, .T. ) ;
#260 = EDGE_CURVE ( 'NONE', #267, #288, #96, .T. ) ;
#261 = VERTEX_POINT ( 'NONE', #178 ) ;
#262 = STYLED_ITEM ( 'NONE', ( #137 ), #276 ) ;
#263 = ORIENTED_EDGE ( 'NONE', *, *, #341, .T. ) ;
#264 = DIRECTION ( 'NONE',  ( -1.000000000000000000, 0.000000000000000000, 0.000000000000000000 ) ) ;
#265 = ORIENTED_EDGE ( 'NONE', *, *, #266, .F. ) ;
#266 = EDGE_CURVE ( 'NONE', #346, #267, #143, .T. ) ;
#267 = VERTEX_POINT ( 'NONE', #166 ) ;
#268 = APPLICATION_CONTEXT ( 'automotive_design' ) ;
#269 = ORIENTED_EDGE ( 'NONE', *, *, #307, .F. ) ;
#270 = DIRECTION ( 'NONE',  ( -1.000000000000000000, 0.000000000000000000, 0.000000000000000000 ) ) ;
#271 = DIRECTION ( 'NONE',  ( -3.061616997868386099E-17, 1.000000000000000000, -0.000000000000000000 ) ) ;
#272 = ORIENTED_EDGE ( 'NONE', *, *, #307, .T. ) ;
#273 = DIRECTION ( 'NONE',  ( -1.000000000000000000, 0.000000000000000000, 0.000000000000000000 ) ) ;
#274 = ORIENTED_EDGE ( 'NONE', *, *, #255, .T. ) ;
#275 = CARTESIAN_POINT ( 'NONE',  ( 7.582401355855259480E-33, 1.000000000000000000, 0.000000000000000000 ) ) ;
#276 = ADVANCED_FACE ( 'NONE', ( #219 ), #248, .T. ) ;
#277 = FACE_OUTER_BOUND ( 'NONE', #216, .T. ) ;
#278 = AXIS2_PLACEMENT_3D ( 'NONE', #275, #295, #130 ) ;
#279 = SURFACE_SIDE_STYLE ('',( #36 ) ) ;
#280 = CARTESIAN_POINT ( 'NONE',  ( -1.316434738495560095E-18, 1.042998021614464532, 0.000000000000000000 ) ) ;
#281 = CARTESIAN_POINT ( 'NONE',  ( 0.000000000000000000, 0.000000000000000000, 0.000000000000000000 ) ) ;
#282 = DIMENSIONAL_EXPONENTS ( 1.000000000000000000, 0.000000000000000000, 0.000000000000000000, 0.000000000000000000, 0.000000000000000000, 0.000000000000000000, 0.000000000000000000 ) ;
#283 =( LENGTH_UNIT ( ) NAMED_UNIT ( * ) SI_UNIT ( $, .METRE. ) );
#284 = DIMENSIONAL_EXPONENTS ( 1.000000000000000000, 0.000000000000000000, 0.000000000000000000, 0.000000000000000000, 0.000000000000000000, 0.000000000000000000, 0.000000000000000000 ) ;
#285 = PLANE ( 'NONE',  #176 ) ;
#286 = CONICAL_SURFACE ( 'NONE', #278, 0.1406000000000000028, 0.3490658503988668393 ) ;
#287 = DIRECTION ( 'NONE',  ( -3.061616997868386099E-17, 1.000000000000000000, -0.000000000000000000 ) ) ;
#288 = VERTEX_POINT ( 'NONE', #195 ) ;
#289 = EDGE_CURVE ( 'NONE', #124, #288, #10, .T. ) ;
#290 = CARTESIAN_POINT ( 'NONE',  ( 7.582401355855259480E-33, 1.000000000000000000, 0.000000000000000000 ) ) ;
#291 = ORIENTED_EDGE ( 'NONE', *, *, #347, .T. ) ;
#292 = CARTESIAN_POINT ( 'NONE',  ( 0.000000000000000000, 1.000000000000000000, 0.000000000000000000 ) ) ;
#293 = DIRECTION ( 'NONE',  ( 0.000000000000000000, 0.000000000000000000, 1.000000000000000000 ) ) ;
#294 = CARTESIAN_POINT ( 'NONE',  ( -6.123233995736772199E-17, 3.000000000000000444, 0.000000000000000000 ) ) ;
#295 = DIRECTION ( 'NONE',  ( -3.061616997868386099E-17, 1.000000000000000000, -0.000000000000000000 ) ) ;
#296 =( NAMED_UNIT ( * ) PLANE_ANGLE_UNIT ( ) SI_UNIT ( $, .RADIAN. ) );
#297 = EDGE_LOOP ( 'NONE', ( #272, #213, #23, #358 ) ) ;
#298 = SURFACE_STYLE_USAGE ( .BOTH. , #70 ) ;
#299 = AXIS2_PLACEMENT_3D ( 'NONE', #38, #303, #54 ) ;
#300 = CARTESIAN_POINT ( 'NONE',  ( 0.000000000000000000, 0.000000000000000000, 0.000000000000000000 ) ) ;
#301 = SURFACE_STYLE_USAGE ( .BOTH. , #188 ) ;
#302 = CARTESIAN_POINT ( 'NONE',  ( 0.000000000000000000, 0.000000000000000000, 0.000000000000000000 ) ) ;
#303 = DIRECTION ( 'NONE',  ( -3.061616997868386099E-17, 1.000000000000000000, -0.000000000000000000 ) ) ;
#304 = FILL_AREA_STYLE_COLOUR ( '', #251 ) ;
#305 =( GEOMETRIC_REPRESENTATION_CONTEXT ( 3 ) GLOBAL_UNCERTAINTY_ASSIGNED_CONTEXT ( ( #343 ) ) GLOBAL_UNIT_ASSIGNED_CONTEXT ( ( #71, #296, #104 ) ) REPRESENTATION_CONTEXT ( 'NONE', 'WORKASPACE' ) );
#306 = CIRCLE ( 'NONE', #125, 0.1406000000000000028 ) ;
#307 = EDGE_CURVE ( 'NONE', #68, #261, #165, .T. ) ;
#308 = DIRECTION ( 'NONE',  ( -1.000000000000000000, 0.000000000000000000, 0.000000000000000000 ) ) ;
#309 = FILL_AREA_STYLE ('',( #252 ) ) ;
#310 = DIMENSIONAL_EXPONENTS ( 1.000000000000000000, 0.000000000000000000, 0.000000000000000000, 0.000000000000000000, 0.000000000000000000, 0.000000000000000000, 0.000000000000000000 ) ;
#311 = CARTESIAN_POINT ( 'NONE',  ( 0.000000000000000000, 0.000000000000000000, 0.000000000000000000 ) ) ;
#312 =( CONVERSION_BASED_UNIT ( 'INCH', #85 ) LENGTH_UNIT ( ) NAMED_UNIT ( #87 ) );
#313 = AXIS2_PLACEMENT_3D ( 'NONE', #300, #114, #12 ) ;
#314 = PRESENTATION_LAYER_ASSIGNMENT (  '', '', ( #262 ) ) ;
#315 = EDGE_LOOP ( 'NONE', ( #177, #52 ) ) ;
#316 =( GEOMETRIC_REPRESENTATION_CONTEXT ( 3 ) GLOBAL_UNCERTAINTY_ASSIGNED_CONTEXT ( ( #206 ) ) GLOBAL_UNIT_ASSIGNED_CONTEXT ( ( #32, #189, #58 ) ) REPRESENTATION_CONTEXT ( 'NONE', 'WORKASPACE' ) );
#317 = CARTESIAN_POINT ( 'NONE',  ( 0.1406000000000000028, 1.000000000000000000, 1.817682011634458948E-17 ) ) ;
#318 = PRESENTATION_STYLE_ASSIGNMENT (( #230 ) ) ;
#319 = ORIENTED_EDGE ( 'NONE', *, *, #255, .F. ) ;
#320 = DIRECTION ( 'NONE',  ( -1.000000000000000000, 0.000000000000000000, 0.000000000000000000 ) ) ;
#321 = EDGE_CURVE ( 'NONE', #261, #68, #86, .T. ) ;
#322 = CARTESIAN_POINT ( 'NONE',  ( 0.1406000000000000028, 1.000000000000000000, 1.721853399601178741E-17 ) ) ;
#323 = CIRCLE ( 'NONE', #33, 0.1562500000000000000 ) ;
#324 = CARTESIAN_POINT ( 'NONE',  ( 1.721853399601178741E-17, 0.000000000000000000, 0.1406000000000000028 ) ) ;
#325 = EDGE_LOOP ( 'NONE', ( #1, #274 ) ) ;
#326 = CARTESIAN_POINT ( 'NONE',  ( 0.000000000000000000, 0.000000000000000000, 0.000000000000000000 ) ) ;
#327 = DIRECTION ( 'NONE',  ( 0.3420201433256695456, 0.9396926207859080948, 4.188538737677002858E-17 ) ) ;
#328 = FACE_OUTER_BOUND ( 'NONE', #297, .T. ) ;
#329 = ADVANCED_FACE ( 'NONE', ( #8 ), #113, .F. ) ;
#330 = DIRECTION ( 'NONE',  ( -1.000000000000000000, 0.000000000000000000, 0.000000000000000000 ) ) ;
#331 = EDGE_LOOP ( 'NONE', ( #159, #40, #153, #353 ) ) ;
#332 = AXIS2_PLACEMENT_3D ( 'NONE', #326, #157, #121 ) ;
#333 = EDGE_LOOP ( 'NONE', ( #265, #185 ) ) ;
#334 = LENGTH_MEASURE_WITH_UNIT ( LENGTH_MEASURE( 0.02539999999999999897 ), #342 );
#335 = ADVANCED_FACE ( 'NONE', ( #144 ), #285, .T. ) ;
#336 = DIRECTION ( 'NONE',  ( 0.000000000000000000, 0.000000000000000000, -1.000000000000000000 ) ) ;
#337 = COLOUR_RGB ( '',0.7921568627450980005, 0.8196078431372548767, 0.9333333333333333481 ) ;
#338 = PRESENTATION_LAYER_ASSIGNMENT (  '', '', ( #61 ) ) ;
#339 =( NAMED_UNIT ( * ) PLANE_ANGLE_UNIT ( ) SI_UNIT ( $, .RADIAN. ) );
#340 = DIMENSIONAL_EXPONENTS ( 1.000000000000000000, 0.000000000000000000, 0.000000000000000000, 0.000000000000000000, 0.000000000000000000, 0.000000000000000000, 0.000000000000000000 ) ;
#341 = EDGE_CURVE ( 'NONE', #149, #99, #211, .T. ) ;
#342 =( LENGTH_UNIT ( ) NAMED_UNIT ( * ) SI_UNIT ( $, .METRE. ) );
#343 = UNCERTAINTY_MEASURE_WITH_UNIT (LENGTH_MEASURE( 1.000000000000000082E-05 ), #71, 'distance_accuracy_value', 'NONE');
#344 =( GEOMETRIC_REPRESENTATION_CONTEXT ( 3 ) GLOBAL_UNCERTAINTY_ASSIGNED_CONTEXT ( ( #63 ) ) GLOBAL_UNIT_ASSIGNED_CONTEXT ( ( #41, #24, #82 ) ) REPRESENTATION_CONTEXT ( 'NONE', 'WORKASPACE' ) );
#345 = FILL_AREA_STYLE ('',( #201 ) ) ;
#346 = VERTEX_POINT ( 'NONE', #351 ) ;
#347 = EDGE_CURVE ( 'NONE', #149, #261, #46, .T. ) ;
#348 = AXIS2_PLACEMENT_3D ( 'NONE', #215, #50, #110 ) ;
#349 = PRESENTATION_LAYER_ASSIGNMENT (  '', '', ( #100 ) ) ;
#350 = UNCERTAINTY_MEASURE_WITH_UNIT (LENGTH_MEASURE( 1.000000000000000082E-05 ), #126, 'distance_accuracy_value', 'NONE');
#351 = CARTESIAN_POINT ( 'NONE',  ( 0.000000000000000000, 1.000000000000000000, -0.1406000000000000028 ) ) ;
#352 = ORIENTED_EDGE ( 'NONE', *, *, #56, .T. ) ;
#353 = ORIENTED_EDGE ( 'NONE', *, *, #56, .F. ) ;
#354 = PRESENTATION_LAYER_ASSIGNMENT (  '', '', ( #108 ) ) ;
#355 = MECHANICAL_DESIGN_GEOMETRIC_PRESENTATION_REPRESENTATION (  '', ( #262 ), #316 ) ;
#356 =( NAMED_UNIT ( * ) SI_UNIT ( $, .STERADIAN. ) SOLID_ANGLE_UNIT ( ) );
#357 = SURFACE_STYLE_FILL_AREA ( #238 ) ;
#358 = ORIENTED_EDGE ( 'NONE', *, *, #59, .F. ) ;
#359 = FACE_OUTER_BOUND ( 'NONE', #315, .T. ) ;
ENDSEC;
END-ISO-10303-21;
