ISO-10303-21;
HEADER;
FILE_DESCRIPTION (( 'STEP AP214' ),
    '1' );
FILE_NAME ('Micro_AEMM-160-4.STEP',
    '2022-03-15T14:33:06',
    ( '' ),
    ( '' ),
    'SwSTEP 2.0',
    'SolidWorks 2022',
    '' );
FILE_SCHEMA (( 'AUTOMOTIVE_DESIGN' ));
ENDSEC;

DATA;
#1 = CLOSED_SHELL ( 'NONE', ( #100, #238, #3, #68, #172, #46, #251, #65, #188, #207 ) ) ;
#2 = AXIS2_PLACEMENT_3D ( 'NONE', #20, #192, #121 ) ;
#3 = ADVANCED_FACE ( 'NONE', ( #110 ), #199, .T. ) ;
#4 = CARTESIAN_POINT ( 'NONE',  ( 1.687505730825492758E-16, 0.000000000000000000, 1.377952999999999983 ) ) ;
#5 = ORIENTED_EDGE ( 'NONE', *, *, #278, .F. ) ;
#6 = ORIENTED_EDGE ( 'NONE', *, *, #15, .T. ) ;
#7 = CONICAL_SURFACE ( 'NONE', #66, 0.2999604999999996857, 0.7853981633974324028 ) ;
#8 = ORIENTED_EDGE ( 'NONE', *, *, #169, .T. ) ;
#9 = ORIENTED_EDGE ( 'NONE', *, *, #169, .F. ) ;
#10 =( CONVERSION_BASED_UNIT ( 'INCH', #183 ) LENGTH_UNIT ( ) NAMED_UNIT ( #118 ) );
#11 =( NAMED_UNIT ( * ) PLANE_ANGLE_UNIT ( ) SI_UNIT ( $, .RADIAN. ) );
#12 = EDGE_LOOP ( 'NONE', ( #195, #244 ) ) ;
#13 =( NAMED_UNIT ( * ) SI_UNIT ( $, .STERADIAN. ) SOLID_ANGLE_UNIT ( ) );
#14 = VECTOR ( 'NONE', #123, 39.37007874015748143 ) ;
#15 = EDGE_CURVE ( 'NONE', #239, #93, #217, .T. ) ;
#16 = EDGE_LOOP ( 'NONE', ( #194, #9, #58, #191 ) ) ;
#17 = CARTESIAN_POINT ( 'NONE',  ( 1.687505730825492758E-16, 0.000000000000000000, 1.377952999999999983 ) ) ;
#18 = LINE ( 'NONE', #119, #140 ) ;
#19 =( GEOMETRIC_REPRESENTATION_CONTEXT ( 3 ) GLOBAL_UNCERTAINTY_ASSIGNED_CONTEXT ( ( #259 ) ) GLOBAL_UNIT_ASSIGNED_CONTEXT ( ( #10, #88, #41 ) ) REPRESENTATION_CONTEXT ( 'NONE', 'WORKASPACE' ) );
#20 = CARTESIAN_POINT ( 'NONE',  ( 0.000000000000000000, 0.000000000000000000, 3.607046999999999226 ) ) ;
#21 = EDGE_CURVE ( 'NONE', #112, #239, #237, .T. ) ;
#22 = AXIS2_PLACEMENT_3D ( 'NONE', #294, #95, #235 ) ;
#23 = FACE_OUTER_BOUND ( 'NONE', #257, .T. ) ;
#24 = CARTESIAN_POINT ( 'NONE',  ( 0.000000000000000000, 0.000000000000000000, 3.607046999999999226 ) ) ;
#25 = EDGE_CURVE ( 'NONE', #112, #125, #154, .T. ) ;
#26 = DIRECTION ( 'NONE',  ( -0.000000000000000000, -0.000000000000000000, -1.000000000000000000 ) ) ;
#27 = STYLED_ITEM ( 'NONE', ( #59 ), #115 ) ;
#28 = AXIS2_PLACEMENT_3D ( 'NONE', #55, #202, #37 ) ;
#29 = ORIENTED_EDGE ( 'NONE', *, *, #15, .F. ) ;
#30 = PRESENTATION_LAYER_ASSIGNMENT (  '', '', ( #27 ) ) ;
#31 = VERTEX_POINT ( 'NONE', #156 ) ;
#32 = AXIS2_PLACEMENT_3D ( 'NONE', #120, #234, #71 ) ;
#33 = CARTESIAN_POINT ( 'NONE',  ( 0.3146455394999999600, 3.853296528146670183E-17, -3.853296528146670183E-17 ) ) ;
#34 = DIRECTION ( 'NONE',  ( 1.000000000000000000, 0.000000000000000000, -0.000000000000000000 ) ) ;
#35 = LENGTH_MEASURE_WITH_UNIT ( LENGTH_MEASURE( 0.02539999999999999897 ), #153 );
#36 = VERTEX_POINT ( 'NONE', #131 ) ;
#37 = DIRECTION ( 'NONE',  ( -1.000000000000000000, 0.000000000000000000, 0.000000000000000000 ) ) ;
#38 =( NAMED_UNIT ( * ) PLANE_ANGLE_UNIT ( ) SI_UNIT ( $, .RADIAN. ) );
#39 = DIRECTION ( 'NONE',  ( 1.000000000000000000, 0.000000000000000000, 0.000000000000000000 ) ) ;
#40 = PRODUCT_DEFINITION ( 'UNKNOWN', '', #201, #75 ) ;
#41 =( NAMED_UNIT ( * ) SI_UNIT ( $, .STERADIAN. ) SOLID_ANGLE_UNIT ( ) );
#42 = PRODUCT_DEFINITION_SHAPE ( 'NONE', 'NONE',  #40 ) ;
#43 = VECTOR ( 'NONE', #282, 39.37007874015748143 ) ;
#44 = CIRCLE ( 'NONE', #2, 0.3149604999999999766 ) ;
#45 = DIRECTION ( 'NONE',  ( 1.000000000000000000, 0.000000000000000000, 0.000000000000000000 ) ) ;
#46 = ADVANCED_FACE ( 'NONE', ( #87 ), #241, .T. ) ;
#47 = FACE_OUTER_BOUND ( 'NONE', #204, .T. ) ;
#48 = CARTESIAN_POINT ( 'NONE',  ( -0.3146455394999998489, 3.853296528146670183E-17, 1.377952999999999983 ) ) ;
#49 = AXIS2_PLACEMENT_3D ( 'NONE', #17, #113, #219 ) ;
#50 = CARTESIAN_POINT ( 'NONE',  ( 0.3146455395000001265, 0.000000000000000000, 1.377952999999999983 ) ) ;
#51 = LINE ( 'NONE', #50, #72 ) ;
#52 = ORIENTED_EDGE ( 'NONE', *, *, #126, .F. ) ;
#53 = ORIENTED_EDGE ( 'NONE', *, *, #215, .F. ) ;
#54 = DIRECTION ( 'NONE',  ( 1.224646799147353207E-16, 0.000000000000000000, 1.000000000000000000 ) ) ;
#55 = CARTESIAN_POINT ( 'NONE',  ( 0.000000000000000000, 0.000000000000000000, 3.622047000000000239 ) ) ;
#56 = DIRECTION ( 'NONE',  ( -1.000000000000000000, 0.000000000000000000, 1.224646799147353207E-16 ) ) ;
#57 = EDGE_CURVE ( 'NONE', #127, #101, #132, .T. ) ;
#58 = ORIENTED_EDGE ( 'NONE', *, *, #126, .T. ) ;
#59 = PRESENTATION_STYLE_ASSIGNMENT (( #91 ) ) ;
#60 = CARTESIAN_POINT ( 'NONE',  ( 0.2999604999999996857, 3.765305171892445978E-17, 3.622047000000000239 ) ) ;
#61 = ORIENTED_EDGE ( 'NONE', *, *, #157, .F. ) ;
#62 = ORIENTED_EDGE ( 'NONE', *, *, #21, .F. ) ;
#63 = AXIS2_PLACEMENT_3D ( 'NONE', #82, #177, #256 ) ;
#64 = APPLICATION_PROTOCOL_DEFINITION ( 'draft international standard', 'automotive_design', 1998, #254 ) ;
#65 = ADVANCED_FACE ( 'NONE', ( #134 ), #83, .T. ) ;
#66 = AXIS2_PLACEMENT_3D ( 'NONE', #261, #150, #179 ) ;
#67 = DIRECTION ( 'NONE',  ( -1.224646799147353207E-16, -0.000000000000000000, -1.000000000000000000 ) ) ;
#68 = ADVANCED_FACE ( 'NONE', ( #198 ), #285, .T. ) ;
#69 = CYLINDRICAL_SURFACE ( 'NONE', #280, 0.3146455394999999600 ) ;
#70 = DIRECTION ( 'NONE',  ( 1.000000000000000000, 0.000000000000000000, -0.000000000000000000 ) ) ;
#71 = DIRECTION ( 'NONE',  ( 1.000000000000000000, 0.000000000000000000, 0.000000000000000000 ) ) ;
#72 = VECTOR ( 'NONE', #229, 39.37007874015748143 ) ;
#73 = VERTEX_POINT ( 'NONE', #144 ) ;
#74 = DIRECTION ( 'NONE',  ( -1.000000000000000000, 0.000000000000000000, 0.000000000000000000 ) ) ;
#75 = PRODUCT_DEFINITION_CONTEXT ( 'detailed design', #254, 'design' ) ;
#76 = ORIENTED_EDGE ( 'NONE', *, *, #278, .T. ) ;
#77 = EDGE_CURVE ( 'NONE', #73, #127, #187, .T. ) ;
#78 = FILL_AREA_STYLE_COLOUR ( '', #211 ) ;
#79 = ORIENTED_EDGE ( 'NONE', *, *, #102, .F. ) ;
#80 = LINE ( 'NONE', #33, #43 ) ;
#81 = AXIS2_PLACEMENT_3D ( 'NONE', #245, #223, #135 ) ;
#82 = CARTESIAN_POINT ( 'NONE',  ( 0.000000000000000000, 0.000000000000000000, 3.622047000000000239 ) ) ;
#83 = CONICAL_SURFACE ( 'NONE', #49, 0.3146455394999999600, 0.1745329251994338915 ) ;
#84 = DIRECTION ( 'NONE',  ( 1.000000000000000000, 0.000000000000000000, 0.000000000000000000 ) ) ;
#85 = DIRECTION ( 'NONE',  ( 1.000000000000000000, 0.000000000000000000, 0.000000000000000000 ) ) ;
#86 = SURFACE_SIDE_STYLE ('',( #226 ) ) ;
#87 = FACE_OUTER_BOUND ( 'NONE', #12, .T. ) ;
#88 =( NAMED_UNIT ( * ) PLANE_ANGLE_UNIT ( ) SI_UNIT ( $, .RADIAN. ) );
#89 =( LENGTH_UNIT ( ) NAMED_UNIT ( * ) SI_UNIT ( $, .METRE. ) );
#90 = AXIS2_PLACEMENT_3D ( 'NONE', #24, #297, #45 ) ;
#91 = SURFACE_STYLE_USAGE ( .BOTH. , #86 ) ;
#92 = PRODUCT ( 'Micro_AEMM-160-4', 'Micro_AEMM-160-4', '', ( #291 ) ) ;
#93 = VERTEX_POINT ( 'NONE', #298 ) ;
#94 = AXIS2_PLACEMENT_3D ( 'NONE', #167, #26, #96 ) ;
#95 = DIRECTION ( 'NONE',  ( 0.000000000000000000, 0.000000000000000000, 1.000000000000000000 ) ) ;
#96 = DIRECTION ( 'NONE',  ( -1.000000000000000000, 0.000000000000000000, 0.000000000000000000 ) ) ;
#97 = FACE_OUTER_BOUND ( 'NONE', #279, .T. ) ;
#98 = CARTESIAN_POINT ( 'NONE',  ( 4.718927259360429440E-33, 0.000000000000000000, 3.853296528146670183E-17 ) ) ;
#99 = CARTESIAN_POINT ( 'NONE',  ( -0.3149604999999999766, 0.000000000000000000, 3.622047000000000239 ) ) ;
#100 = ADVANCED_FACE ( 'NONE', ( #168 ), #69, .T. ) ;
#101 = VERTEX_POINT ( 'NONE', #255 ) ;
#102 = EDGE_CURVE ( 'NONE', #101, #127, #216, .T. ) ;
#103 = AXIS2_PLACEMENT_3D ( 'NONE', #139, #272, #70 ) ;
#104 = ORIENTED_EDGE ( 'NONE', *, *, #157, .T. ) ;
#105 = FACE_OUTER_BOUND ( 'NONE', #268, .T. ) ;
#106 = ORIENTED_EDGE ( 'NONE', *, *, #133, .F. ) ;
#107 = CARTESIAN_POINT ( 'NONE',  ( 0.000000000000000000, 0.000000000000000000, 3.622047000000000239 ) ) ;
#108 = FILL_AREA_STYLE_COLOUR ( '', #163 ) ;
#109 = AXIS2_PLACEMENT_3D ( 'NONE', #152, #220, #85 ) ;
#110 = FACE_OUTER_BOUND ( 'NONE', #170, .T. ) ;
#111 = CIRCLE ( 'NONE', #90, 0.3149604999999999766 ) ;
#112 = VERTEX_POINT ( 'NONE', #141 ) ;
#113 = DIRECTION ( 'NONE',  ( 1.224646799147353207E-16, 0.000000000000000000, 1.000000000000000000 ) ) ;
#114 = APPLICATION_PROTOCOL_DEFINITION ( 'draft international standard', 'automotive_design', 1998, #225 ) ;
#115 = ADVANCED_BREP_SHAPE_REPRESENTATION ( 'Micro_AEMM-160-4', ( #295, #81 ), #19 ) ;
#116 = CIRCLE ( 'NONE', #176, 0.3146455394999999600 ) ;
#117 = EDGE_CURVE ( 'NONE', #125, #93, #111, .T. ) ;
#118 = DIMENSIONAL_EXPONENTS ( 1.000000000000000000, 0.000000000000000000, 0.000000000000000000, 0.000000000000000000, 0.000000000000000000, 0.000000000000000000, 0.000000000000000000 ) ;
#119 = CARTESIAN_POINT ( 'NONE',  ( 0.3149604999999999766, 3.857153681828499730E-17, 3.622047000000000239 ) ) ;
#120 = CARTESIAN_POINT ( 'NONE',  ( 1.689693231380615506E-16, 0.000000000000000000, 1.379739229757547481 ) ) ;
#121 = DIRECTION ( 'NONE',  ( 1.000000000000000000, 0.000000000000000000, 0.000000000000000000 ) ) ;
#122 = DIRECTION ( 'NONE',  ( -1.224646799147353207E-16, -0.000000000000000000, -1.000000000000000000 ) ) ;
#123 = DIRECTION ( 'NONE',  ( -0.000000000000000000, -0.000000000000000000, -1.000000000000000000 ) ) ;
#124 = PRESENTATION_LAYER_ASSIGNMENT (  '', '', ( #248 ) ) ;
#125 = VERTEX_POINT ( 'NONE', #165 ) ;
#126 = EDGE_CURVE ( 'NONE', #31, #101, #51, .T. ) ;
#127 = VERTEX_POINT ( 'NONE', #273 ) ;
#128 = LINE ( 'NONE', #240, #275 ) ;
#129 = CARTESIAN_POINT ( 'NONE',  ( 1.689693231380615506E-16, 0.000000000000000000, 1.379739229757547481 ) ) ;
#130 = ORIENTED_EDGE ( 'NONE', *, *, #180, .F. ) ;
#131 = CARTESIAN_POINT ( 'NONE',  ( -0.3146455394999999600, 0.000000000000000000, 7.706593056293340367E-17 ) ) ;
#132 = CIRCLE ( 'NONE', #221, 0.3149604999999999766 ) ;
#133 = EDGE_CURVE ( 'NONE', #93, #101, #18, .T. ) ;
#134 = FACE_OUTER_BOUND ( 'NONE', #16, .T. ) ;
#135 = DIRECTION ( 'NONE',  ( 1.000000000000000000, 0.000000000000000000, 0.000000000000000000 ) ) ;
#136 = CIRCLE ( 'NONE', #296, 0.3146455394999999600 ) ;
#137 = DIRECTION ( 'NONE',  ( -0.1736481776669311916, 2.126576849575783316E-17, 0.9848077530122080203 ) ) ;
#138 = DIMENSIONAL_EXPONENTS ( 1.000000000000000000, 0.000000000000000000, 0.000000000000000000, 0.000000000000000000, 0.000000000000000000, 0.000000000000000000, 0.000000000000000000 ) ;
#139 = CARTESIAN_POINT ( 'NONE',  ( 0.000000000000000000, 0.000000000000000000, 0.000000000000000000 ) ) ;
#140 = VECTOR ( 'NONE', #206, 39.37007874015748143 ) ;
#141 = CARTESIAN_POINT ( 'NONE',  ( -0.2999604999999996857, 0.000000000000000000, 3.622047000000000239 ) ) ;
#142 = ORIENTED_EDGE ( 'NONE', *, *, #258, .F. ) ;
#143 = CYLINDRICAL_SURFACE ( 'NONE', #212, 0.3146455394999999600 ) ;
#144 = CARTESIAN_POINT ( 'NONE',  ( -0.3146455394999998489, 3.855225104987584957E-17, 1.377952999999999983 ) ) ;
#145 = ORIENTED_EDGE ( 'NONE', *, *, #258, .T. ) ;
#146 = EDGE_CURVE ( 'NONE', #239, #112, #148, .T. ) ;
#147 = VECTOR ( 'NONE', #203, 39.37007874015748143 ) ;
#148 = CIRCLE ( 'NONE', #22, 0.2999604999999996857 ) ;
#149 = ORIENTED_EDGE ( 'NONE', *, *, #57, .F. ) ;
#150 = DIRECTION ( 'NONE',  ( 0.000000000000000000, 0.000000000000000000, -1.000000000000000000 ) ) ;
#151 = CONICAL_SURFACE ( 'NONE', #227, 0.3146455394999999600, 0.1745329251994338915 ) ;
#152 = CARTESIAN_POINT ( 'NONE',  ( 0.000000000000000000, 0.000000000000000000, 3.622047000000000239 ) ) ;
#153 =( LENGTH_UNIT ( ) NAMED_UNIT ( * ) SI_UNIT ( $, .METRE. ) );
#154 = LINE ( 'NONE', #181, #147 ) ;
#155 = CARTESIAN_POINT ( 'NONE',  ( 4.718927259360429440E-33, 0.000000000000000000, 3.853296528146670183E-17 ) ) ;
#156 = CARTESIAN_POINT ( 'NONE',  ( 0.3146455395000001265, 0.000000000000000000, 1.377952999999999983 ) ) ;
#157 = EDGE_CURVE ( 'NONE', #93, #125, #44, .T. ) ;
#158 = ORIENTED_EDGE ( 'NONE', *, *, #117, .T. ) ;
#159 = FILL_AREA_STYLE ('',( #108 ) ) ;
#160 = LENGTH_MEASURE_WITH_UNIT ( LENGTH_MEASURE( 0.02539999999999999897 ), #266 );
#161 = VECTOR ( 'NONE', #267, 39.37007874015748143 ) ;
#162 = MECHANICAL_DESIGN_GEOMETRIC_PRESENTATION_REPRESENTATION (  '', ( #248 ), #253 ) ;
#163 = COLOUR_RGB ( '',0.7921568627450980005, 0.8196078431372548767, 0.9333333333333333481 ) ;
#164 = CARTESIAN_POINT ( 'NONE',  ( 0.000000000000000000, 0.000000000000000000, 0.000000000000000000 ) ) ;
#165 = CARTESIAN_POINT ( 'NONE',  ( -0.3149604999999999766, 0.000000000000000000, 3.607046999999999226 ) ) ;
#166 = DIRECTION ( 'NONE',  ( -1.224646799147353207E-16, -0.000000000000000000, -1.000000000000000000 ) ) ;
#167 = CARTESIAN_POINT ( 'NONE',  ( 0.000000000000000000, 0.000000000000000000, 3.622047000000000239 ) ) ;
#168 = FACE_OUTER_BOUND ( 'NONE', #171, .T. ) ;
#169 = EDGE_CURVE ( 'NONE', #31, #73, #184, .T. ) ;
#170 = EDGE_LOOP ( 'NONE', ( #233, #6, #243, #274 ) ) ;
#171 = EDGE_LOOP ( 'NONE', ( #236, #260, #5, #142 ) ) ;
#172 = ADVANCED_FACE ( 'NONE', ( #97 ), #271, .T. ) ;
#173 = SURFACE_STYLE_FILL_AREA ( #200 ) ;
#174 = ORIENTED_EDGE ( 'NONE', *, *, #228, .F. ) ;
#175 = SURFACE_STYLE_USAGE ( .BOTH. , #218 ) ;
#176 = AXIS2_PLACEMENT_3D ( 'NONE', #98, #166, #209 ) ;
#177 = DIRECTION ( 'NONE',  ( -0.000000000000000000, -0.000000000000000000, -1.000000000000000000 ) ) ;
#178 =( NAMED_UNIT ( * ) SI_UNIT ( $, .STERADIAN. ) SOLID_ANGLE_UNIT ( ) );
#179 = DIRECTION ( 'NONE',  ( -1.000000000000000000, 0.000000000000000000, 0.000000000000000000 ) ) ;
#180 = EDGE_CURVE ( 'NONE', #125, #127, #190, .T. ) ;
#181 = CARTESIAN_POINT ( 'NONE',  ( -0.2999604999999996857, 0.000000000000000000, 3.622047000000000239 ) ) ;
#182 = DIRECTION ( 'NONE',  ( 0.000000000000000000, 0.000000000000000000, 1.000000000000000000 ) ) ;
#183 = LENGTH_MEASURE_WITH_UNIT ( LENGTH_MEASURE( 0.02539999999999999897 ), #89 );
#184 = CIRCLE ( 'NONE', #208, 0.3146455394999999600 ) ;
#185 = SHAPE_DEFINITION_REPRESENTATION ( #42, #115 ) ;
#186 = ORIENTED_EDGE ( 'NONE', *, *, #77, .T. ) ;
#187 = LINE ( 'NONE', #48, #286 ) ;
#188 = ADVANCED_FACE ( 'NONE', ( #23 ), #143, .T. ) ;
#189 = DIRECTION ( 'NONE',  ( -1.000000000000000000, 0.000000000000000000, 1.224646799147353207E-16 ) ) ;
#190 = LINE ( 'NONE', #99, #14 ) ;
#191 = ORIENTED_EDGE ( 'NONE', *, *, #102, .T. ) ;
#192 = DIRECTION ( 'NONE',  ( 0.000000000000000000, 0.000000000000000000, -1.000000000000000000 ) ) ;
#193 = PRODUCT_RELATED_PRODUCT_CATEGORY ( 'part', '', ( #92 ) ) ;
#194 = ORIENTED_EDGE ( 'NONE', *, *, #77, .F. ) ;
#195 = ORIENTED_EDGE ( 'NONE', *, *, #21, .T. ) ;
#196 = DIRECTION ( 'NONE',  ( -1.224646799147353207E-16, -0.000000000000000000, -1.000000000000000000 ) ) ;
#197 = EDGE_LOOP ( 'NONE', ( #158, #289, #149, #130 ) ) ;
#198 = FACE_OUTER_BOUND ( 'NONE', #197, .T. ) ;
#199 = CONICAL_SURFACE ( 'NONE', #28, 0.2999604999999996857, 0.7853981633974324028 ) ;
#200 = FILL_AREA_STYLE ('',( #78 ) ) ;
#201 = PRODUCT_DEFINITION_FORMATION_WITH_SPECIFIED_SOURCE ( 'ANY', '', #92, .NOT_KNOWN. ) ;
#202 = DIRECTION ( 'NONE',  ( 0.000000000000000000, 0.000000000000000000, -1.000000000000000000 ) ) ;
#203 = DIRECTION ( 'NONE',  ( -0.7071067811865362485, 0.000000000000000000, -0.7071067811865587860 ) ) ;
#204 = EDGE_LOOP ( 'NONE', ( #76, #265 ) ) ;
#205 =( CONVERSION_BASED_UNIT ( 'INCH', #160 ) LENGTH_UNIT ( ) NAMED_UNIT ( #292 ) );
#206 = DIRECTION ( 'NONE',  ( -0.000000000000000000, -0.000000000000000000, -1.000000000000000000 ) ) ;
#207 = ADVANCED_FACE ( 'NONE', ( #47 ), #270, .F. ) ;
#208 = AXIS2_PLACEMENT_3D ( 'NONE', #232, #252, #74 ) ;
#209 = DIRECTION ( 'NONE',  ( -1.000000000000000000, 0.000000000000000000, 1.224646799147353207E-16 ) ) ;
#210 = CARTESIAN_POINT ( 'NONE',  ( 1.687505730825492758E-16, 0.000000000000000000, 1.377952999999999983 ) ) ;
#211 = COLOUR_RGB ( '',0.7921568627450980005, 0.8196078431372548767, 0.9333333333333333481 ) ;
#212 = AXIS2_PLACEMENT_3D ( 'NONE', #250, #122, #189 ) ;
#213 = DIRECTION ( 'NONE',  ( -1.000000000000000000, 0.000000000000000000, 0.000000000000000000 ) ) ;
#214 = UNCERTAINTY_MEASURE_WITH_UNIT (LENGTH_MEASURE( 1.000000000000000082E-05 ), #284, 'distance_accuracy_value', 'NONE');
#215 = EDGE_CURVE ( 'NONE', #73, #31, #136, .T. ) ;
#216 = CIRCLE ( 'NONE', #32, 0.3149604999999999766 ) ;
#217 = LINE ( 'NONE', #287, #161 ) ;
#218 = SURFACE_SIDE_STYLE ('',( #173 ) ) ;
#219 = DIRECTION ( 'NONE',  ( 1.000000000000000000, 0.000000000000000000, 0.000000000000000000 ) ) ;
#220 = DIRECTION ( 'NONE',  ( 0.000000000000000000, 0.000000000000000000, 1.000000000000000000 ) ) ;
#221 = AXIS2_PLACEMENT_3D ( 'NONE', #129, #247, #39 ) ;
#222 = VERTEX_POINT ( 'NONE', #299 ) ;
#223 = DIRECTION ( 'NONE',  ( 0.000000000000000000, 0.000000000000000000, 1.000000000000000000 ) ) ;
#224 = ORIENTED_EDGE ( 'NONE', *, *, #25, .T. ) ;
#225 = APPLICATION_CONTEXT ( 'automotive_design' ) ;
#226 = SURFACE_STYLE_FILL_AREA ( #159 ) ;
#227 = AXIS2_PLACEMENT_3D ( 'NONE', #4, #54, #84 ) ;
#228 = EDGE_CURVE ( 'NONE', #222, #36, #116, .T. ) ;
#229 = DIRECTION ( 'NONE',  ( 0.1736481776669313859, 0.000000000000000000, 0.9848077530122077983 ) ) ;
#230 = DIRECTION ( 'NONE',  ( -1.000000000000000000, 0.000000000000000000, 1.224646799147353207E-16 ) ) ;
#231 = MECHANICAL_DESIGN_GEOMETRIC_PRESENTATION_REPRESENTATION (  '', ( #27 ), #293 ) ;
#232 = CARTESIAN_POINT ( 'NONE',  ( 1.687505730825492758E-16, 0.000000000000000000, 1.377952999999999983 ) ) ;
#233 = ORIENTED_EDGE ( 'NONE', *, *, #146, .F. ) ;
#234 = DIRECTION ( 'NONE',  ( -1.224646799147353207E-16, -0.000000000000000000, -1.000000000000000000 ) ) ;
#235 = DIRECTION ( 'NONE',  ( 1.000000000000000000, 0.000000000000000000, 0.000000000000000000 ) ) ;
#236 = ORIENTED_EDGE ( 'NONE', *, *, #215, .T. ) ;
#237 = CIRCLE ( 'NONE', #109, 0.2999604999999996857 ) ;
#238 = ADVANCED_FACE ( 'NONE', ( #276 ), #151, .T. ) ;
#239 = VERTEX_POINT ( 'NONE', #60 ) ;
#240 = CARTESIAN_POINT ( 'NONE',  ( -0.3146455394999999600, 0.000000000000000000, 3.853296528146670183E-17 ) ) ;
#241 = PLANE ( 'NONE',  #263 ) ;
#242 = DIRECTION ( 'NONE',  ( -1.224646799147353207E-16, -0.000000000000000000, -1.000000000000000000 ) ) ;
#243 = ORIENTED_EDGE ( 'NONE', *, *, #117, .F. ) ;
#244 = ORIENTED_EDGE ( 'NONE', *, *, #146, .T. ) ;
#245 = CARTESIAN_POINT ( 'NONE',  ( 0.000000000000000000, 0.000000000000000000, 0.000000000000000000 ) ) ;
#246 = CIRCLE ( 'NONE', #269, 0.3146455394999999600 ) ;
#247 = DIRECTION ( 'NONE',  ( -1.224646799147353207E-16, -0.000000000000000000, -1.000000000000000000 ) ) ;
#248 = STYLED_ITEM ( 'NONE', ( #264 ), #295 ) ;
#249 = DIRECTION ( 'NONE',  ( -1.224646799147353207E-16, -0.000000000000000000, -1.000000000000000000 ) ) ;
#250 = CARTESIAN_POINT ( 'NONE',  ( 0.000000000000000000, 0.000000000000000000, 0.000000000000000000 ) ) ;
#251 = ADVANCED_FACE ( 'NONE', ( #105 ), #7, .T. ) ;
#252 = DIRECTION ( 'NONE',  ( -1.224646799147353207E-16, -0.000000000000000000, -1.000000000000000000 ) ) ;
#253 =( GEOMETRIC_REPRESENTATION_CONTEXT ( 3 ) GLOBAL_UNCERTAINTY_ASSIGNED_CONTEXT ( ( #214 ) ) GLOBAL_UNIT_ASSIGNED_CONTEXT ( ( #284, #11, #178 ) ) REPRESENTATION_CONTEXT ( 'NONE', 'WORKASPACE' ) );
#254 = APPLICATION_CONTEXT ( 'automotive_design' ) ;
#255 = CARTESIAN_POINT ( 'NONE',  ( 0.3149605000000001431, 3.857153681828500963E-17, 1.379739229757547481 ) ) ;
#256 = DIRECTION ( 'NONE',  ( -1.000000000000000000, 0.000000000000000000, 0.000000000000000000 ) ) ;
#257 = EDGE_LOOP ( 'NONE', ( #283, #8, #145, #174 ) ) ;
#258 = EDGE_CURVE ( 'NONE', #73, #36, #128, .T. ) ;
#259 = UNCERTAINTY_MEASURE_WITH_UNIT (LENGTH_MEASURE( 1.000000000000000082E-05 ), #10, 'distance_accuracy_value', 'NONE');
#260 = ORIENTED_EDGE ( 'NONE', *, *, #288, .T. ) ;
#261 = CARTESIAN_POINT ( 'NONE',  ( 0.000000000000000000, 0.000000000000000000, 3.622047000000000239 ) ) ;
#262 = EDGE_LOOP ( 'NONE', ( #53, #186, #277, #52 ) ) ;
#263 = AXIS2_PLACEMENT_3D ( 'NONE', #107, #182, #34 ) ;
#264 = PRESENTATION_STYLE_ASSIGNMENT (( #175 ) ) ;
#265 = ORIENTED_EDGE ( 'NONE', *, *, #228, .T. ) ;
#266 =( LENGTH_UNIT ( ) NAMED_UNIT ( * ) SI_UNIT ( $, .METRE. ) );
#267 = DIRECTION ( 'NONE',  ( 0.7071067811865362485, 8.659560562354796040E-17, -0.7071067811865587860 ) ) ;
#268 = EDGE_LOOP ( 'NONE', ( #29, #62, #224, #61 ) ) ;
#269 = AXIS2_PLACEMENT_3D ( 'NONE', #155, #196, #56 ) ;
#270 = PLANE ( 'NONE',  #103 ) ;
#271 = CYLINDRICAL_SURFACE ( 'NONE', #94, 0.3149604999999999766 ) ;
#272 = DIRECTION ( 'NONE',  ( 0.000000000000000000, 0.000000000000000000, 1.000000000000000000 ) ) ;
#273 = CARTESIAN_POINT ( 'NONE',  ( -0.3149604999999998656, 0.000000000000000000, 1.379739229757547481 ) ) ;
#274 = ORIENTED_EDGE ( 'NONE', *, *, #25, .F. ) ;
#275 = VECTOR ( 'NONE', #242, 39.37007874015748143 ) ;
#276 = FACE_OUTER_BOUND ( 'NONE', #262, .T. ) ;
#277 = ORIENTED_EDGE ( 'NONE', *, *, #57, .T. ) ;
#278 = EDGE_CURVE ( 'NONE', #36, #222, #246, .T. ) ;
#279 = EDGE_LOOP ( 'NONE', ( #106, #104, #290, #79 ) ) ;
#280 = AXIS2_PLACEMENT_3D ( 'NONE', #164, #249, #230 ) ;
#281 = UNCERTAINTY_MEASURE_WITH_UNIT (LENGTH_MEASURE( 1.000000000000000082E-05 ), #205, 'distance_accuracy_value', 'NONE');
#282 = DIRECTION ( 'NONE',  ( -1.224646799147353207E-16, -0.000000000000000000, -1.000000000000000000 ) ) ;
#283 = ORIENTED_EDGE ( 'NONE', *, *, #288, .F. ) ;
#284 =( CONVERSION_BASED_UNIT ( 'INCH', #35 ) LENGTH_UNIT ( ) NAMED_UNIT ( #138 ) );
#285 = CYLINDRICAL_SURFACE ( 'NONE', #63, 0.3149604999999999766 ) ;
#286 = VECTOR ( 'NONE', #137, 39.37007874015747433 ) ;
#287 = CARTESIAN_POINT ( 'NONE',  ( 0.2999604999999996857, 3.673456661956392842E-17, 3.622047000000000239 ) ) ;
#288 = EDGE_CURVE ( 'NONE', #31, #222, #80, .T. ) ;
#289 = ORIENTED_EDGE ( 'NONE', *, *, #133, .T. ) ;
#290 = ORIENTED_EDGE ( 'NONE', *, *, #180, .T. ) ;
#291 = PRODUCT_CONTEXT ( 'NONE', #225, 'mechanical' ) ;
#292 = DIMENSIONAL_EXPONENTS ( 1.000000000000000000, 0.000000000000000000, 0.000000000000000000, 0.000000000000000000, 0.000000000000000000, 0.000000000000000000, 0.000000000000000000 ) ;
#293 =( GEOMETRIC_REPRESENTATION_CONTEXT ( 3 ) GLOBAL_UNCERTAINTY_ASSIGNED_CONTEXT ( ( #281 ) ) GLOBAL_UNIT_ASSIGNED_CONTEXT ( ( #205, #38, #13 ) ) REPRESENTATION_CONTEXT ( 'NONE', 'WORKASPACE' ) );
#294 = CARTESIAN_POINT ( 'NONE',  ( 0.000000000000000000, 0.000000000000000000, 3.622047000000000239 ) ) ;
#295 = MANIFOLD_SOLID_BREP ( 'Cut-Revolve1', #1 ) ;
#296 = AXIS2_PLACEMENT_3D ( 'NONE', #210, #67, #213 ) ;
#297 = DIRECTION ( 'NONE',  ( 0.000000000000000000, 0.000000000000000000, -1.000000000000000000 ) ) ;
#298 = CARTESIAN_POINT ( 'NONE',  ( 0.3149604999999999766, 3.857153681828499730E-17, 3.607046999999999226 ) ) ;
#299 = CARTESIAN_POINT ( 'NONE',  ( 0.3146455394999999600, 3.853296528146670183E-17, 0.000000000000000000 ) ) ;
ENDSEC;
END-ISO-10303-21;
