ISO-10303-21;
HEADER;
FILE_DESCRIPTION (( 'STEP AP214' ),
    '1' );
FILE_NAME ('59593.STEP',
    '2023-07-24T15:13:34',
    ( '' ),
    ( '' ),
    'SwSTEP 2.0',
    'SolidWorks 2023',
    '' );
FILE_SCHEMA (( 'AUTOMOTIVE_DESIGN' ));
ENDSEC;

DATA;
#1 =( NAMED_UNIT ( * ) PLANE_ANGLE_UNIT ( ) SI_UNIT ( $, .RADIAN. ) );
#2 = CARTESIAN_POINT ( 'NONE',  ( 0.000000000000000000, 12.00000000000000000, 0.000000000000000000 ) ) ;
#3 = PRESENTATION_STYLE_ASSIGNMENT (( #106 ) ) ;
#4 = VERTEX_POINT ( 'NONE', #94 ) ;
#5 = FACE_OUTER_BOUND ( 'NONE', #370, .T. ) ;
#6 = AXIS2_PLACEMENT_3D ( 'NONE', #55, #93, #28 ) ;
#7 = TOROIDAL_SURFACE ( 'NONE', #223, 2.500000000000000444, 0.4999999999999997780 ) ;
#8 = DIRECTION ( 'NONE',  ( -1.203932746194552959E-16, 1.000000000000000000, -0.000000000000000000 ) ) ;
#9 = CARTESIAN_POINT ( 'NONE',  ( -2.999999999999981792, 11.99999999999999645, 0.000000000000000000 ) ) ;
#10 = CARTESIAN_POINT ( 'NONE',  ( 0.000000000000000000, 0.5000000000000000000, 0.000000000000000000 ) ) ;
#11 = CARTESIAN_POINT ( 'NONE',  ( 0.000000000000000000, 0.5000000000000000000, -2.500000000000000444 ) ) ;
#12 =( LENGTH_UNIT ( ) NAMED_UNIT ( * ) SI_UNIT ( .MILLI., .METRE. ) );
#13 =( LENGTH_UNIT ( ) NAMED_UNIT ( * ) SI_UNIT ( .MILLI., .METRE. ) );
#14 = DIRECTION ( 'NONE',  ( -1.000000000000000000, 0.000000000000000000, 0.000000000000000000 ) ) ;
#15 =( GEOMETRIC_REPRESENTATION_CONTEXT ( 3 ) GLOBAL_UNCERTAINTY_ASSIGNED_CONTEXT ( ( #353 ) ) GLOBAL_UNIT_ASSIGNED_CONTEXT ( ( #360, #34, #72 ) ) REPRESENTATION_CONTEXT ( 'NONE', 'WORKASPACE' ) );
#16 = FACE_OUTER_BOUND ( 'NONE', #70, .T. ) ;
#17 = UNCERTAINTY_MEASURE_WITH_UNIT (LENGTH_MEASURE( 1.000000000000000082E-05 ), #71, 'distance_accuracy_value', 'NONE');
#18 = SHAPE_DEFINITION_REPRESENTATION ( #73, #303 ) ;
#19 = DIRECTION ( 'NONE',  ( -1.203932746194552959E-16, 1.000000000000000000, -0.000000000000000000 ) ) ;
#20 = CARTESIAN_POINT ( 'NONE',  ( 0.000000000000000000, 0.000000000000000000, 0.000000000000000000 ) ) ;
#21 = PRESENTATION_LAYER_ASSIGNMENT (  '', '', ( #270 ) ) ;
#22 = CIRCLE ( 'NONE', #38, 2.500000000000000444 ) ;
#23 = VERTEX_POINT ( 'NONE', #62 ) ;
#24 = ADVANCED_FACE ( 'NONE', ( #315 ), #63, .T. ) ;
#25 = MECHANICAL_DESIGN_GEOMETRIC_PRESENTATION_REPRESENTATION (  '', ( #270 ), #348 ) ;
#26 = STYLED_ITEM ( 'NONE', ( #3 ), #283 ) ;
#27 = ORIENTED_EDGE ( 'NONE', *, *, #152, .T. ) ;
#28 = DIRECTION ( 'NONE',  ( -1.000000000000000000, 0.000000000000000000, 0.000000000000000000 ) ) ;
#29 = VERTEX_POINT ( 'NONE', #103 ) ;
#30 = PLANE ( 'NONE',  #175 ) ;
#31 = DIRECTION ( 'NONE',  ( 0.000000000000000000, -0.000000000000000000, 1.000000000000000000 ) ) ;
#32 =( NAMED_UNIT ( * ) SI_UNIT ( $, .STERADIAN. ) SOLID_ANGLE_UNIT ( ) );
#33 = PRODUCT ( '59593', '59593', '', ( #358 ) ) ;
#34 =( NAMED_UNIT ( * ) PLANE_ANGLE_UNIT ( ) SI_UNIT ( $, .RADIAN. ) );
#35 = APPLICATION_CONTEXT ( 'automotive_design' ) ;
#36 = DIRECTION ( 'NONE',  ( 0.000000000000000000, 0.000000000000000000, -1.000000000000000000 ) ) ;
#37 = MECHANICAL_DESIGN_GEOMETRIC_PRESENTATION_REPRESENTATION (  '', ( #241 ), #15 ) ;
#38 = AXIS2_PLACEMENT_3D ( 'NONE', #247, #246, #361 ) ;
#39 = DIRECTION ( 'NONE',  ( 0.000000000000000000, 0.000000000000000000, -1.000000000000000000 ) ) ;
#40 =( NAMED_UNIT ( * ) SI_UNIT ( $, .STERADIAN. ) SOLID_ANGLE_UNIT ( ) );
#41 = EDGE_CURVE ( 'NONE', #316, #334, #65, .T. ) ;
#42 = MANIFOLD_SOLID_BREP ( 'Revolve - Tool Body (Straight Shanked)', #79 ) ;
#43 = DIRECTION ( 'NONE',  ( 0.000000000000000000, 0.000000000000000000, -1.000000000000000000 ) ) ;
#44 = CARTESIAN_POINT ( 'NONE',  ( 0.000000000000000000, 0.000000000000000000, 0.000000000000000000 ) ) ;
#45 = FILL_AREA_STYLE ('',( #77 ) ) ;
#46 = CARTESIAN_POINT ( 'NONE',  ( 0.000000000000000000, 0.000000000000000000, -3.000000000000000000 ) ) ;
#47 = DIRECTION ( 'NONE',  ( 0.000000000000000000, -1.000000000000000000, -0.000000000000000000 ) ) ;
#48 = FILL_AREA_STYLE ('',( #269 ) ) ;
#49 = DIRECTION ( 'NONE',  ( -1.000000000000000000, 0.000000000000000000, 0.000000000000000000 ) ) ;
#50 =( NAMED_UNIT ( * ) SI_UNIT ( $, .STERADIAN. ) SOLID_ANGLE_UNIT ( ) );
#51 = EDGE_CURVE ( 'NONE', #316, #29, #221, .T. ) ;
#52 = AXIS2_PLACEMENT_3D ( 'NONE', #85, #169, #351 ) ;
#53 = ORIENTED_EDGE ( 'NONE', *, *, #263, .F. ) ;
#54 = ORIENTED_EDGE ( 'NONE', *, *, #271, .F. ) ;
#55 = CARTESIAN_POINT ( 'NONE',  ( 9.324138683375338132E-15, 11.99999999999999645, 0.000000000000000000 ) ) ;
#56 = APPLICATION_CONTEXT ( 'automotive_design' ) ;
#57 = MECHANICAL_DESIGN_GEOMETRIC_PRESENTATION_REPRESENTATION (  '', ( #328 ), #113 ) ;
#58 = PRESENTATION_LAYER_ASSIGNMENT (  '', '', ( #97 ) ) ;
#59 = ADVANCED_FACE ( 'NONE', ( #157 ), #229, .T. ) ;
#60 = ORIENTED_EDGE ( 'NONE', *, *, #41, .T. ) ;
#61 =( NAMED_UNIT ( * ) PLANE_ANGLE_UNIT ( ) SI_UNIT ( $, .RADIAN. ) );
#62 = CARTESIAN_POINT ( 'NONE',  ( 0.000000000000000000, 0.000000000000000000, -2.500000000000000444 ) ) ;
#63 = PLANE ( 'NONE',  #138 ) ;
#64 = FACE_OUTER_BOUND ( 'NONE', #249, .T. ) ;
#65 = CIRCLE ( 'NONE', #86, 0.4999999999999995559 ) ;
#66 = CIRCLE ( 'NONE', #90, 3.000000000000000000 ) ;
#67 = ORIENTED_EDGE ( 'NONE', *, *, #349, .T. ) ;
#68 = FILL_AREA_STYLE_COLOUR ( '', #364 ) ;
#69 = PRODUCT_DEFINITION ( 'UNKNOWN', '', #264, #224 ) ;
#70 = EDGE_LOOP ( 'NONE', ( #259, #60, #202, #282 ) ) ;
#71 =( LENGTH_UNIT ( ) NAMED_UNIT ( * ) SI_UNIT ( .MILLI., .METRE. ) );
#72 =( NAMED_UNIT ( * ) SI_UNIT ( $, .STERADIAN. ) SOLID_ANGLE_UNIT ( ) );
#73 = PRODUCT_DEFINITION_SHAPE ( 'NONE', 'NONE',  #69 ) ;
#74 = COLOUR_RGB ( '',0.7921568627450980005, 0.8196078431372548767, 0.9333333333333333481 ) ;
#75 =( GEOMETRIC_REPRESENTATION_CONTEXT ( 3 ) GLOBAL_UNCERTAINTY_ASSIGNED_CONTEXT ( ( #359 ) ) GLOBAL_UNIT_ASSIGNED_CONTEXT ( ( #102, #288, #240 ) ) REPRESENTATION_CONTEXT ( 'NONE', 'WORKASPACE' ) );
#76 = LINE ( 'NONE', #275, #119 ) ;
#77 = FILL_AREA_STYLE_COLOUR ( '', #74 ) ;
#78 = EDGE_CURVE ( 'NONE', #99, #4, #153, .T. ) ;
#79 = CLOSED_SHELL ( 'NONE', ( #301, #188, #177, #237 ) ) ;
#80 = DIRECTION ( 'NONE',  ( -0.000000000000000000, -1.000000000000000000, -0.000000000000000000 ) ) ;
#81 = STYLED_ITEM ( 'NONE', ( #297 ), #42 ) ;
#82 = AXIS2_PLACEMENT_3D ( 'NONE', #130, #166, #49 ) ;
#83 =( NAMED_UNIT ( * ) SI_UNIT ( $, .STERADIAN. ) SOLID_ANGLE_UNIT ( ) );
#84 = APPLICATION_PROTOCOL_DEFINITION ( 'draft international standard', 'automotive_design', 1998, #56 ) ;
#85 = CARTESIAN_POINT ( 'NONE',  ( 0.000000000000000000, 0.000000000000000000, 0.000000000000000000 ) ) ;
#86 = AXIS2_PLACEMENT_3D ( 'NONE', #276, #296, #174 ) ;
#87 = AXIS2_PLACEMENT_3D ( 'NONE', #284, #8, #260 ) ;
#88 = ORIENTED_EDGE ( 'NONE', *, *, #271, .T. ) ;
#89 = DIRECTION ( 'NONE',  ( -0.000000000000000000, -1.000000000000000000, -0.000000000000000000 ) ) ;
#90 = AXIS2_PLACEMENT_3D ( 'NONE', #2, #266, #161 ) ;
#91 = MECHANICAL_DESIGN_GEOMETRIC_PRESENTATION_REPRESENTATION (  '', ( #26 ), #183 ) ;
#92 = SURFACE_SIDE_STYLE ('',( #232 ) ) ;
#93 = DIRECTION ( 'NONE',  ( -1.203932746194552959E-16, 1.000000000000000000, -0.000000000000000000 ) ) ;
#94 = CARTESIAN_POINT ( 'NONE',  ( 3.000000000000000444, 63.00000000000000000, 3.673940397442054938E-16 ) ) ;
#95 = ORIENTED_EDGE ( 'NONE', *, *, #78, .T. ) ;
#96 = DIRECTION ( 'NONE',  ( 1.000000000000000000, 1.203932746194552959E-16, 0.000000000000000000 ) ) ;
#97 = STYLED_ITEM ( 'NONE', ( #167 ), #59 ) ;
#98 = PRESENTATION_LAYER_ASSIGNMENT (  '', '', ( #357 ) ) ;
#99 = VERTEX_POINT ( 'NONE', #295 ) ;
#100 = CARTESIAN_POINT ( 'NONE',  ( 3.184081677783117402E-15, 63.00000000000000000, 0.000000000000000000 ) ) ;
#101 = SURFACE_SIDE_STYLE ('',( #211 ) ) ;
#102 =( LENGTH_UNIT ( ) NAMED_UNIT ( * ) SI_UNIT ( .MILLI., .METRE. ) );
#103 = CARTESIAN_POINT ( 'NONE',  ( 0.000000000000000000, 0.5000000000000000000, -3.000000000000000000 ) ) ;
#104 = CARTESIAN_POINT ( 'NONE',  ( 0.000000000000000000, 12.00000000000000000, 0.000000000000000000 ) ) ;
#105 = CARTESIAN_POINT ( 'NONE',  ( 3.367778697655221505E-16, 0.000000000000000000, 2.500000000000000444 ) ) ;
#106 = SURFACE_STYLE_USAGE ( .BOTH. , #356 ) ;
#107 = AXIS2_PLACEMENT_3D ( 'NONE', #116, #289, #36 ) ;
#108 = DIRECTION ( 'NONE',  ( -0.000000000000000000, -1.000000000000000000, -0.000000000000000000 ) ) ;
#109 = FILL_AREA_STYLE ('',( #244 ) ) ;
#110 = AXIS2_PLACEMENT_3D ( 'NONE', #10, #193, #347 ) ;
#111 = ADVANCED_FACE ( 'NONE', ( #212 ), #163, .T. ) ;
#112 = ORIENTED_EDGE ( 'NONE', *, *, #141, .F. ) ;
#113 =( GEOMETRIC_REPRESENTATION_CONTEXT ( 3 ) GLOBAL_UNCERTAINTY_ASSIGNED_CONTEXT ( ( #332 ) ) GLOBAL_UNIT_ASSIGNED_CONTEXT ( ( #184, #1, #32 ) ) REPRESENTATION_CONTEXT ( 'NONE', 'WORKASPACE' ) );
#114 = EDGE_CURVE ( 'NONE', #23, #334, #171, .T. ) ;
#115 = ORIENTED_EDGE ( 'NONE', *, *, #330, .T. ) ;
#116 = CARTESIAN_POINT ( 'NONE',  ( 0.000000000000000000, 0.5000000000000000000, 0.000000000000000000 ) ) ;
#117 = ORIENTED_EDGE ( 'NONE', *, *, #194, .F. ) ;
#118 = VECTOR ( 'NONE', #89, 1000.000000000000000 ) ;
#119 = VECTOR ( 'NONE', #19, 1000.000000000000000 ) ;
#120 = DIRECTION ( 'NONE',  ( 1.203932746194552959E-16, -1.000000000000000000, 0.000000000000000000 ) ) ;
#121 = SURFACE_STYLE_USAGE ( .BOTH. , #92 ) ;
#122 = PRESENTATION_STYLE_ASSIGNMENT (( #287 ) ) ;
#123 = DIRECTION ( 'NONE',  ( -0.000000000000000000, -1.000000000000000000, -0.000000000000000000 ) ) ;
#124 = COLOUR_RGB ( '',1.000000000000000000, 0.000000000000000000, 0.000000000000000000 ) ;
#125 = MECHANICAL_DESIGN_GEOMETRIC_PRESENTATION_REPRESENTATION (  '', ( #81 ), #159 ) ;
#126 = CARTESIAN_POINT ( 'NONE',  ( 9.324138683375338132E-15, 12.00000000000000000, 0.000000000000000000 ) ) ;
#127 = SURFACE_STYLE_FILL_AREA ( #48 ) ;
#128 = DIRECTION ( 'NONE',  ( -1.203932746194552959E-16, 1.000000000000000000, -0.000000000000000000 ) ) ;
#129 = DIRECTION ( 'NONE',  ( -1.000000000000000000, 0.000000000000000000, 0.000000000000000000 ) ) ;
#130 = CARTESIAN_POINT ( 'NONE',  ( 3.184081677783117402E-15, 63.00000000000000000, 0.000000000000000000 ) ) ;
#131 = EDGE_CURVE ( 'NONE', #29, #316, #329, .T. ) ;
#132 = MECHANICAL_DESIGN_GEOMETRIC_PRESENTATION_REPRESENTATION (  '', ( #139 ), #75 ) ;
#133 =( NAMED_UNIT ( * ) SI_UNIT ( $, .STERADIAN. ) SOLID_ANGLE_UNIT ( ) );
#134 = FACE_OUTER_BOUND ( 'NONE', #335, .T. ) ;
#135 = ORIENTED_EDGE ( 'NONE', *, *, #51, .T. ) ;
#136 = EDGE_CURVE ( 'NONE', #4, #99, #278, .T. ) ;
#137 = FACE_OUTER_BOUND ( 'NONE', #206, .T. ) ;
#138 = AXIS2_PLACEMENT_3D ( 'NONE', #342, #47, #235 ) ;
#139 = STYLED_ITEM ( 'NONE', ( #164 ), #308 ) ;
#140 = ORIENTED_EDGE ( 'NONE', *, *, #131, .F. ) ;
#141 = EDGE_CURVE ( 'NONE', #311, #176, #208, .T. ) ;
#142 = AXIS2_PLACEMENT_3D ( 'NONE', #293, #108, #43 ) ;
#143 = COLOUR_RGB ( '',1.000000000000000000, 0.000000000000000000, 0.000000000000000000 ) ;
#144 = ORIENTED_EDGE ( 'NONE', *, *, #186, .F. ) ;
#145 = FILL_AREA_STYLE ('',( #281 ) ) ;
#146 = ORIENTED_EDGE ( 'NONE', *, *, #114, .T. ) ;
#147 = FILL_AREA_STYLE ('',( #178 ) ) ;
#148 = SURFACE_SIDE_STYLE ('',( #251 ) ) ;
#149 = CARTESIAN_POINT ( 'NONE',  ( 0.000000000000000000, 12.00000000000000000, 0.000000000000000000 ) ) ;
#150 = EDGE_LOOP ( 'NONE', ( #146, #199 ) ) ;
#151 = CARTESIAN_POINT ( 'NONE',  ( 3.000000000000000000, 63.00000000000000000, 0.000000000000000000 ) ) ;
#152 = EDGE_CURVE ( 'NONE', #226, #316, #362, .T. ) ;
#153 = CIRCLE ( 'NONE', #343, 2.999999999999996891 ) ;
#154 = ORIENTED_EDGE ( 'NONE', *, *, #349, .F. ) ;
#155 = EDGE_LOOP ( 'NONE', ( #112, #195 ) ) ;
#156 = CYLINDRICAL_SURFACE ( 'NONE', #52, 3.000000000000000000 ) ;
#157 = FACE_OUTER_BOUND ( 'NONE', #318, .T. ) ;
#158 =( NAMED_UNIT ( * ) PLANE_ANGLE_UNIT ( ) SI_UNIT ( $, .RADIAN. ) );
#159 =( GEOMETRIC_REPRESENTATION_CONTEXT ( 3 ) GLOBAL_UNCERTAINTY_ASSIGNED_CONTEXT ( ( #274 ) ) GLOBAL_UNIT_ASSIGNED_CONTEXT ( ( #218, #61, #210 ) ) REPRESENTATION_CONTEXT ( 'NONE', 'WORKASPACE' ) );
#160 = CARTESIAN_POINT ( 'NONE',  ( 3.184081677783117402E-15, 63.00000000000000000, 0.000000000000000000 ) ) ;
#161 = DIRECTION ( 'NONE',  ( 0.000000000000000000, 0.000000000000000000, -1.000000000000000000 ) ) ;
#162 = MANIFOLD_SOLID_BREP ( 'Revolve - Cutting Edge', #354 ) ;
#163 = CYLINDRICAL_SURFACE ( 'NONE', #363, 3.000000000000000000 ) ;
#164 = PRESENTATION_STYLE_ASSIGNMENT (( #331 ) ) ;
#165 = DIRECTION ( 'NONE',  ( -0.000000000000000000, -1.000000000000000000, -0.000000000000000000 ) ) ;
#166 = DIRECTION ( 'NONE',  ( -1.203932746194552959E-16, 1.000000000000000000, -0.000000000000000000 ) ) ;
#167 = PRESENTATION_STYLE_ASSIGNMENT (( #238 ) ) ;
#168 = PRESENTATION_STYLE_ASSIGNMENT (( #290 ) ) ;
#169 = DIRECTION ( 'NONE',  ( -0.000000000000000000, -1.000000000000000000, -0.000000000000000000 ) ) ;
#170 = APPLICATION_PROTOCOL_DEFINITION ( 'draft international standard', 'automotive_design', 1998, #35 ) ;
#171 = CIRCLE ( 'NONE', #182, 2.500000000000000444 ) ;
#172 =( GEOMETRIC_REPRESENTATION_CONTEXT ( 3 ) GLOBAL_UNCERTAINTY_ASSIGNED_CONTEXT ( ( #305 ) ) GLOBAL_UNIT_ASSIGNED_CONTEXT ( ( #13, #272, #83 ) ) REPRESENTATION_CONTEXT ( 'NONE', 'WORKASPACE' ) );
#173 = ORIENTED_EDGE ( 'NONE', *, *, #152, .F. ) ;
#174 = DIRECTION ( 'NONE',  ( -1.224646799147353454E-16, 0.000000000000000000, -1.000000000000000000 ) ) ;
#175 = AXIS2_PLACEMENT_3D ( 'NONE', #149, #314, #31 ) ;
#176 = VERTEX_POINT ( 'NONE', #205 ) ;
#177 = ADVANCED_FACE ( 'NONE', ( #64 ), #203, .T. ) ;
#178 = FILL_AREA_STYLE_COLOUR ( '', #355 ) ;
#179 = ORIENTED_EDGE ( 'NONE', *, *, #51, .F. ) ;
#180 = DIRECTION ( 'NONE',  ( 0.000000000000000000, 0.000000000000000000, -1.000000000000000000 ) ) ;
#181 = FILL_AREA_STYLE_COLOUR ( '', #124 ) ;
#182 = AXIS2_PLACEMENT_3D ( 'NONE', #327, #80, #39 ) ;
#183 =( GEOMETRIC_REPRESENTATION_CONTEXT ( 3 ) GLOBAL_UNCERTAINTY_ASSIGNED_CONTEXT ( ( #309 ) ) GLOBAL_UNIT_ASSIGNED_CONTEXT ( ( #285, #234, #254 ) ) REPRESENTATION_CONTEXT ( 'NONE', 'WORKASPACE' ) );
#184 =( LENGTH_UNIT ( ) NAMED_UNIT ( * ) SI_UNIT ( .MILLI., .METRE. ) );
#185 = FILL_AREA_STYLE ('',( #68 ) ) ;
#186 = EDGE_CURVE ( 'NONE', #226, #338, #66, .T. ) ;
#187 = ORIENTED_EDGE ( 'NONE', *, *, #78, .F. ) ;
#188 = ADVANCED_FACE ( 'NONE', ( #320 ), #207, .F. ) ;
#189 = DIRECTION ( 'NONE',  ( 0.000000000000000000, 0.000000000000000000, -1.000000000000000000 ) ) ;
#190 = DIRECTION ( 'NONE',  ( -0.000000000000000000, -1.000000000000000000, -0.000000000000000000 ) ) ;
#191 =( NAMED_UNIT ( * ) PLANE_ANGLE_UNIT ( ) SI_UNIT ( $, .RADIAN. ) );
#192 =( GEOMETRIC_REPRESENTATION_CONTEXT ( 3 ) GLOBAL_UNCERTAINTY_ASSIGNED_CONTEXT ( ( #197 ) ) GLOBAL_UNIT_ASSIGNED_CONTEXT ( ( #236, #215, #50 ) ) REPRESENTATION_CONTEXT ( 'NONE', 'WORKASPACE' ) );
#193 = DIRECTION ( 'NONE',  ( -0.000000000000000000, -1.000000000000000000, -0.000000000000000000 ) ) ;
#194 = EDGE_CURVE ( 'NONE', #338, #226, #322, .T. ) ;
#195 = ORIENTED_EDGE ( 'NONE', *, *, #198, .F. ) ;
#196 = AXIS2_PLACEMENT_3D ( 'NONE', #160, #368, #227 ) ;
#197 = UNCERTAINTY_MEASURE_WITH_UNIT (LENGTH_MEASURE( 1.000000000000000082E-05 ), #236, 'distance_accuracy_value', 'NONE');
#198 = EDGE_CURVE ( 'NONE', #176, #311, #255, .T. ) ;
#199 = ORIENTED_EDGE ( 'NONE', *, *, #263, .T. ) ;
#200 = PRESENTATION_LAYER_ASSIGNMENT (  '', '', ( #241 ) ) ;
#201 = AXIS2_PLACEMENT_3D ( 'NONE', #151, #120, #96 ) ;
#202 = ORIENTED_EDGE ( 'NONE', *, *, #114, .F. ) ;
#203 = CYLINDRICAL_SURFACE ( 'NONE', #291, 2.999999999999993783 ) ;
#204 = ORIENTED_EDGE ( 'NONE', *, *, #239, .F. ) ;
#205 = CARTESIAN_POINT ( 'NONE',  ( 3.000000000000000000, 11.99999999999999645, 3.673940397442054938E-16 ) ) ;
#206 = EDGE_LOOP ( 'NONE', ( #117, #144 ) ) ;
#207 = PLANE ( 'NONE',  #336 ) ;
#208 = CIRCLE ( 'NONE', #6, 2.999999999999991562 ) ;
#209 = CIRCLE ( 'NONE', #279, 0.4999999999999995559 ) ;
#210 =( NAMED_UNIT ( * ) SI_UNIT ( $, .STERADIAN. ) SOLID_ANGLE_UNIT ( ) );
#211 = SURFACE_STYLE_FILL_AREA ( #185 ) ;
#212 = FACE_OUTER_BOUND ( 'NONE', #367, .T. ) ;
#213 = CARTESIAN_POINT ( 'NONE',  ( 0.000000000000000000, 12.00000000000000000, -3.000000000000000000 ) ) ;
#214 = AXIS2_PLACEMENT_3D ( 'NONE', #104, #190, #180 ) ;
#215 =( NAMED_UNIT ( * ) PLANE_ANGLE_UNIT ( ) SI_UNIT ( $, .RADIAN. ) );
#216 = SURFACE_STYLE_FILL_AREA ( #45 ) ;
#217 = FILL_AREA_STYLE ('',( #243 ) ) ;
#218 =( LENGTH_UNIT ( ) NAMED_UNIT ( * ) SI_UNIT ( .MILLI., .METRE. ) );
#219 = SURFACE_STYLE_FILL_AREA ( #109 ) ;
#220 = PRESENTATION_LAYER_ASSIGNMENT (  '', '', ( #328 ) ) ;
#221 = CIRCLE ( 'NONE', #107, 3.000000000000000000 ) ;
#222 = AXIS2_PLACEMENT_3D ( 'NONE', #20, #245, #280 ) ;
#223 = AXIS2_PLACEMENT_3D ( 'NONE', #261, #123, #233 ) ;
#224 = PRODUCT_DEFINITION_CONTEXT ( 'detailed design', #56, 'design' ) ;
#225 = CARTESIAN_POINT ( 'NONE',  ( 3.673940397442059868E-16, 0.000000000000000000, 3.000000000000000000 ) ) ;
#226 = VERTEX_POINT ( 'NONE', #319 ) ;
#227 = DIRECTION ( 'NONE',  ( -1.000000000000000000, 0.000000000000000000, 0.000000000000000000 ) ) ;
#228 = ORIENTED_EDGE ( 'NONE', *, *, #198, .T. ) ;
#229 = TOROIDAL_SURFACE ( 'NONE', #142, 2.500000000000000444, 0.4999999999999997780 ) ;
#230 = ORIENTED_EDGE ( 'NONE', *, *, #41, .F. ) ;
#231 = LINE ( 'NONE', #341, #248 ) ;
#232 = SURFACE_STYLE_FILL_AREA ( #337 ) ;
#233 = DIRECTION ( 'NONE',  ( 0.000000000000000000, 0.000000000000000000, -1.000000000000000000 ) ) ;
#234 =( NAMED_UNIT ( * ) PLANE_ANGLE_UNIT ( ) SI_UNIT ( $, .RADIAN. ) );
#235 = DIRECTION ( 'NONE',  ( 0.000000000000000000, 0.000000000000000000, -1.000000000000000000 ) ) ;
#236 =( LENGTH_UNIT ( ) NAMED_UNIT ( * ) SI_UNIT ( .MILLI., .METRE. ) );
#237 = ADVANCED_FACE ( 'NONE', ( #5 ), #256, .F. ) ;
#238 = SURFACE_STYLE_USAGE ( .BOTH. , #350 ) ;
#239 = EDGE_CURVE ( 'NONE', #311, #99, #231, .T. ) ;
#240 =( NAMED_UNIT ( * ) SI_UNIT ( $, .STERADIAN. ) SOLID_ANGLE_UNIT ( ) );
#241 = STYLED_ITEM ( 'NONE', ( #313 ), #162 ) ;
#242 =( GEOMETRIC_REPRESENTATION_CONTEXT ( 3 ) GLOBAL_UNCERTAINTY_ASSIGNED_CONTEXT ( ( #17 ) ) GLOBAL_UNIT_ASSIGNED_CONTEXT ( ( #71, #158, #40 ) ) REPRESENTATION_CONTEXT ( 'NONE', 'WORKASPACE' ) );
#243 = FILL_AREA_STYLE_COLOUR ( '', #292 ) ;
#244 = FILL_AREA_STYLE_COLOUR ( '', #143 ) ;
#245 = DIRECTION ( 'NONE',  ( 0.000000000000000000, 0.000000000000000000, 1.000000000000000000 ) ) ;
#246 = DIRECTION ( 'NONE',  ( -0.000000000000000000, -1.000000000000000000, -0.000000000000000000 ) ) ;
#247 = CARTESIAN_POINT ( 'NONE',  ( 0.000000000000000000, 0.000000000000000000, 0.000000000000000000 ) ) ;
#248 = VECTOR ( 'NONE', #339, 1000.000000000000000 ) ;
#249 = EDGE_LOOP ( 'NONE', ( #154, #228, #302, #365 ) ) ;
#250 = ADVANCED_FACE ( 'NONE', ( #317 ), #156, .T. ) ;
#251 = SURFACE_STYLE_FILL_AREA ( #145 ) ;
#252 = ORIENTED_EDGE ( 'NONE', *, *, #194, .T. ) ;
#253 = SURFACE_STYLE_FILL_AREA ( #147 ) ;
#254 =( NAMED_UNIT ( * ) SI_UNIT ( $, .STERADIAN. ) SOLID_ANGLE_UNIT ( ) );
#255 = CIRCLE ( 'NONE', #87, 2.999999999999991562 ) ;
#256 = PLANE ( 'NONE',  #201 ) ;
#257 = MECHANICAL_DESIGN_GEOMETRIC_PRESENTATION_REPRESENTATION (  '', ( #357 ), #242 ) ;
#258 = ORIENTED_EDGE ( 'NONE', *, *, #141, .T. ) ;
#259 = ORIENTED_EDGE ( 'NONE', *, *, #131, .T. ) ;
#260 = DIRECTION ( 'NONE',  ( -1.000000000000000000, 0.000000000000000000, 0.000000000000000000 ) ) ;
#261 = CARTESIAN_POINT ( 'NONE',  ( 0.000000000000000000, 0.5000000000000000000, 0.000000000000000000 ) ) ;
#262 = CARTESIAN_POINT ( 'NONE',  ( 3.184081677783117402E-15, 63.00000000000000000, 0.000000000000000000 ) ) ;
#263 = EDGE_CURVE ( 'NONE', #334, #23, #22, .T. ) ;
#264 = PRODUCT_DEFINITION_FORMATION_WITH_SPECIFIED_SOURCE ( 'ANY', '', #33, .NOT_KNOWN. ) ;
#265 = DIRECTION ( 'NONE',  ( -1.203932746194552959E-16, 1.000000000000000000, -0.000000000000000000 ) ) ;
#266 = DIRECTION ( 'NONE',  ( -0.000000000000000000, -1.000000000000000000, -0.000000000000000000 ) ) ;
#267 = CARTESIAN_POINT ( 'NONE',  ( 3.673940397442059868E-16, 0.5000000000000000000, 3.000000000000000000 ) ) ;
#268 = DIRECTION ( 'NONE',  ( -0.000000000000000000, -1.000000000000000000, -0.000000000000000000 ) ) ;
#269 = FILL_AREA_STYLE_COLOUR ( '', #304 ) ;
#270 = STYLED_ITEM ( 'NONE', ( #168 ), #111 ) ;
#271 = EDGE_CURVE ( 'NONE', #338, #29, #277, .T. ) ;
#272 =( NAMED_UNIT ( * ) PLANE_ANGLE_UNIT ( ) SI_UNIT ( $, .RADIAN. ) );
#273 = SURFACE_STYLE_USAGE ( .BOTH. , #326 ) ;
#274 = UNCERTAINTY_MEASURE_WITH_UNIT (LENGTH_MEASURE( 1.000000000000000082E-05 ), #218, 'distance_accuracy_value', 'NONE');
#275 = CARTESIAN_POINT ( 'NONE',  ( 2.999999999999996891, 63.00000000000000000, 3.673940397442052472E-16 ) ) ;
#276 = CARTESIAN_POINT ( 'NONE',  ( 3.061616997868383634E-16, 0.5000000000000000000, 2.500000000000000444 ) ) ;
#277 = LINE ( 'NONE', #46, #298 ) ;
#278 = CIRCLE ( 'NONE', #196, 2.999999999999996891 ) ;
#279 = AXIS2_PLACEMENT_3D ( 'NONE', #11, #129, #346 ) ;
#280 = DIRECTION ( 'NONE',  ( 1.000000000000000000, 0.000000000000000000, 0.000000000000000000 ) ) ;
#281 = FILL_AREA_STYLE_COLOUR ( '', #310 ) ;
#282 = ORIENTED_EDGE ( 'NONE', *, *, #330, .F. ) ;
#283 = ADVANCED_FACE ( 'NONE', ( #137 ), #30, .T. ) ;
#284 = CARTESIAN_POINT ( 'NONE',  ( 9.324138683375338132E-15, 11.99999999999999645, 0.000000000000000000 ) ) ;
#285 =( LENGTH_UNIT ( ) NAMED_UNIT ( * ) SI_UNIT ( .MILLI., .METRE. ) );
#286 = ORIENTED_EDGE ( 'NONE', *, *, #136, .T. ) ;
#287 = SURFACE_STYLE_USAGE ( .BOTH. , #101 ) ;
#288 =( NAMED_UNIT ( * ) PLANE_ANGLE_UNIT ( ) SI_UNIT ( $, .RADIAN. ) );
#289 = DIRECTION ( 'NONE',  ( -0.000000000000000000, -1.000000000000000000, -0.000000000000000000 ) ) ;
#290 = SURFACE_STYLE_USAGE ( .BOTH. , #324 ) ;
#291 = AXIS2_PLACEMENT_3D ( 'NONE', #100, #128, #321 ) ;
#292 = COLOUR_RGB ( '',1.000000000000000000, 0.000000000000000000, 0.000000000000000000 ) ;
#293 = CARTESIAN_POINT ( 'NONE',  ( 0.000000000000000000, 0.5000000000000000000, 0.000000000000000000 ) ) ;
#294 = SURFACE_SIDE_STYLE ('',( #352 ) ) ;
#295 = CARTESIAN_POINT ( 'NONE',  ( -2.999999999999993783, 63.00000000000000000, 0.000000000000000000 ) ) ;
#296 = DIRECTION ( 'NONE',  ( 1.000000000000000000, 0.000000000000000000, -1.224646799147353207E-16 ) ) ;
#297 = PRESENTATION_STYLE_ASSIGNMENT (( #273 ) ) ;
#298 = VECTOR ( 'NONE', #165, 1000.000000000000000 ) ;
#299 = CYLINDRICAL_SURFACE ( 'NONE', #82, 2.999999999999993783 ) ;
#300 = UNCERTAINTY_MEASURE_WITH_UNIT (LENGTH_MEASURE( 1.000000000000000082E-05 ), #12, 'distance_accuracy_value', 'NONE');
#301 = ADVANCED_FACE ( 'NONE', ( #134 ), #299, .T. ) ;
#302 = ORIENTED_EDGE ( 'NONE', *, *, #239, .T. ) ;
#303 = ADVANCED_BREP_SHAPE_REPRESENTATION ( '59593', ( #162, #42, #222 ), #172 ) ;
#304 = COLOUR_RGB ( '',1.000000000000000000, 0.000000000000000000, 0.000000000000000000 ) ;
#305 = UNCERTAINTY_MEASURE_WITH_UNIT (LENGTH_MEASURE( 1.000000000000000082E-05 ), #13, 'distance_accuracy_value', 'NONE');
#306 = PRESENTATION_LAYER_ASSIGNMENT (  '', '', ( #26 ) ) ;
#307 = ORIENTED_EDGE ( 'NONE', *, *, #186, .T. ) ;
#308 = ADVANCED_FACE ( 'NONE', ( #16 ), #7, .T. ) ;
#309 = UNCERTAINTY_MEASURE_WITH_UNIT (LENGTH_MEASURE( 1.000000000000000082E-05 ), #285, 'distance_accuracy_value', 'NONE');
#310 = COLOUR_RGB ( '',0.7921568627450980005, 0.8196078431372548767, 0.9333333333333333481 ) ;
#311 = VERTEX_POINT ( 'NONE', #9 ) ;
#312 = PRESENTATION_STYLE_ASSIGNMENT (( #121 ) ) ;
#313 = PRESENTATION_STYLE_ASSIGNMENT (( #366 ) ) ;
#314 = DIRECTION ( 'NONE',  ( 0.000000000000000000, 1.000000000000000000, 0.000000000000000000 ) ) ;
#315 = FACE_OUTER_BOUND ( 'NONE', #150, .T. ) ;
#316 = VERTEX_POINT ( 'NONE', #267 ) ;
#317 = FACE_OUTER_BOUND ( 'NONE', #340, .T. ) ;
#318 = EDGE_LOOP ( 'NONE', ( #230, #135, #115, #53 ) ) ;
#319 = CARTESIAN_POINT ( 'NONE',  ( 3.673940397442059868E-16, 12.00000000000000000, 3.000000000000000000 ) ) ;
#320 = FACE_OUTER_BOUND ( 'NONE', #155, .T. ) ;
#321 = DIRECTION ( 'NONE',  ( -1.000000000000000000, 0.000000000000000000, 0.000000000000000000 ) ) ;
#322 = CIRCLE ( 'NONE', #214, 3.000000000000000000 ) ;
#323 = PRESENTATION_LAYER_ASSIGNMENT (  '', '', ( #139 ) ) ;
#324 = SURFACE_SIDE_STYLE ('',( #127 ) ) ;
#325 = PRODUCT_RELATED_PRODUCT_CATEGORY ( 'part', '', ( #33 ) ) ;
#326 = SURFACE_SIDE_STYLE ('',( #216 ) ) ;
#327 = CARTESIAN_POINT ( 'NONE',  ( 0.000000000000000000, 0.000000000000000000, 0.000000000000000000 ) ) ;
#328 = STYLED_ITEM ( 'NONE', ( #312 ), #24 ) ;
#329 = CIRCLE ( 'NONE', #110, 3.000000000000000000 ) ;
#330 = EDGE_CURVE ( 'NONE', #29, #23, #209, .T. ) ;
#331 = SURFACE_STYLE_USAGE ( .BOTH. , #294 ) ;
#332 = UNCERTAINTY_MEASURE_WITH_UNIT (LENGTH_MEASURE( 1.000000000000000082E-05 ), #184, 'distance_accuracy_value', 'NONE');
#333 = MECHANICAL_DESIGN_GEOMETRIC_PRESENTATION_REPRESENTATION (  '', ( #97 ), #192 ) ;
#334 = VERTEX_POINT ( 'NONE', #105 ) ;
#335 = EDGE_LOOP ( 'NONE', ( #258, #67, #187, #204 ) ) ;
#336 = AXIS2_PLACEMENT_3D ( 'NONE', #126, #345, #344 ) ;
#337 = FILL_AREA_STYLE ('',( #181 ) ) ;
#338 = VERTEX_POINT ( 'NONE', #213 ) ;
#339 = DIRECTION ( 'NONE',  ( -1.203932746194552959E-16, 1.000000000000000000, -0.000000000000000000 ) ) ;
#340 = EDGE_LOOP ( 'NONE', ( #252, #27, #140, #54 ) ) ;
#341 = CARTESIAN_POINT ( 'NONE',  ( -2.999999999999991118, 63.00000000000000000, 0.000000000000000000 ) ) ;
#342 = CARTESIAN_POINT ( 'NONE',  ( 0.000000000000000000, 0.000000000000000000, 0.000000000000000000 ) ) ;
#343 = AXIS2_PLACEMENT_3D ( 'NONE', #262, #265, #14 ) ;
#344 = DIRECTION ( 'NONE',  ( -1.000000000000000000, -1.203932746194552959E-16, 0.000000000000000000 ) ) ;
#345 = DIRECTION ( 'NONE',  ( -1.203932746194552959E-16, 1.000000000000000000, 0.000000000000000000 ) ) ;
#346 = DIRECTION ( 'NONE',  ( 0.000000000000000000, 0.000000000000000000, 1.000000000000000000 ) ) ;
#347 = DIRECTION ( 'NONE',  ( 0.000000000000000000, 0.000000000000000000, -1.000000000000000000 ) ) ;
#348 =( GEOMETRIC_REPRESENTATION_CONTEXT ( 3 ) GLOBAL_UNCERTAINTY_ASSIGNED_CONTEXT ( ( #300 ) ) GLOBAL_UNIT_ASSIGNED_CONTEXT ( ( #12, #191, #133 ) ) REPRESENTATION_CONTEXT ( 'NONE', 'WORKASPACE' ) );
#349 = EDGE_CURVE ( 'NONE', #176, #4, #76, .T. ) ;
#350 = SURFACE_SIDE_STYLE ('',( #253 ) ) ;
#351 = DIRECTION ( 'NONE',  ( 0.000000000000000000, 0.000000000000000000, -1.000000000000000000 ) ) ;
#352 = SURFACE_STYLE_FILL_AREA ( #217 ) ;
#353 = UNCERTAINTY_MEASURE_WITH_UNIT (LENGTH_MEASURE( 1.000000000000000082E-05 ), #360, 'distance_accuracy_value', 'NONE');
#354 = CLOSED_SHELL ( 'NONE', ( #250, #308, #24, #59, #111, #283 ) ) ;
#355 = COLOUR_RGB ( '',1.000000000000000000, 0.000000000000000000, 0.000000000000000000 ) ;
#356 = SURFACE_SIDE_STYLE ('',( #219 ) ) ;
#357 = STYLED_ITEM ( 'NONE', ( #122 ), #250 ) ;
#358 = PRODUCT_CONTEXT ( 'NONE', #35, 'mechanical' ) ;
#359 = UNCERTAINTY_MEASURE_WITH_UNIT (LENGTH_MEASURE( 1.000000000000000082E-05 ), #102, 'distance_accuracy_value', 'NONE');
#360 =( LENGTH_UNIT ( ) NAMED_UNIT ( * ) SI_UNIT ( .MILLI., .METRE. ) );
#361 = DIRECTION ( 'NONE',  ( 0.000000000000000000, 0.000000000000000000, -1.000000000000000000 ) ) ;
#362 = LINE ( 'NONE', #225, #118 ) ;
#363 = AXIS2_PLACEMENT_3D ( 'NONE', #44, #268, #189 ) ;
#364 = COLOUR_RGB ( '',1.000000000000000000, 0.000000000000000000, 0.000000000000000000 ) ;
#365 = ORIENTED_EDGE ( 'NONE', *, *, #136, .F. ) ;
#366 = SURFACE_STYLE_USAGE ( .BOTH. , #148 ) ;
#367 = EDGE_LOOP ( 'NONE', ( #173, #307, #88, #179 ) ) ;
#368 = DIRECTION ( 'NONE',  ( -1.203932746194552959E-16, 1.000000000000000000, -0.000000000000000000 ) ) ;
#369 = PRESENTATION_LAYER_ASSIGNMENT (  '', '', ( #81 ) ) ;
#370 = EDGE_LOOP ( 'NONE', ( #95, #286 ) ) ;
ENDSEC;
END-ISO-10303-21;
