ISO-10303-21;
HEADER;
FILE_DESCRIPTION (( 'STEP AP214' ),
    '1' );
FILE_NAME ('59447.STEP',
    '2023-06-30T22:18:41',
    ( '' ),
    ( '' ),
    'SwSTEP 2.0',
    'SolidWorks 2023',
    '' );
FILE_SCHEMA (( 'AUTOMOTIVE_DESIGN' ));
ENDSEC;

DATA;
#1 = CARTESIAN_POINT ( 'NONE',  ( 0.000000000000000000, 1.000000000000000000, 0.000000000000000000 ) ) ;
#2 = EDGE_LOOP ( 'NONE', ( #195, #179, #222, #291 ) ) ;
#3 = CARTESIAN_POINT ( 'NONE',  ( 0.2499999999999998890, 3.000000000000000444, 0.000000000000000000 ) ) ;
#4 = DIRECTION ( 'NONE',  ( -0.000000000000000000, -1.000000000000000000, -0.000000000000000000 ) ) ;
#5 = FILL_AREA_STYLE_COLOUR ( '', #325 ) ;
#6 = AXIS2_PLACEMENT_3D ( 'NONE', #227, #349, #173 ) ;
#7 =( NAMED_UNIT ( * ) PLANE_ANGLE_UNIT ( ) SI_UNIT ( $, .RADIAN. ) );
#8 =( GEOMETRIC_REPRESENTATION_CONTEXT ( 3 ) GLOBAL_UNCERTAINTY_ASSIGNED_CONTEXT ( ( #131 ) ) GLOBAL_UNIT_ASSIGNED_CONTEXT ( ( #91, #272, #11 ) ) REPRESENTATION_CONTEXT ( 'NONE', 'WORKASPACE' ) );
#9 = EDGE_LOOP ( 'NONE', ( #109, #316, #45, #57, #68 ) ) ;
#10 = CARTESIAN_POINT ( 'NONE',  ( -0.2500000000000000555, 3.000000000000000444, 0.000000000000000000 ) ) ;
#11 =( NAMED_UNIT ( * ) SI_UNIT ( $, .STERADIAN. ) SOLID_ANGLE_UNIT ( ) );
#12 = PRESENTATION_STYLE_ASSIGNMENT (( #42 ) ) ;
#13 = FILL_AREA_STYLE ('',( #119 ) ) ;
#14 = STYLED_ITEM ( 'NONE', ( #137 ), #25 ) ;
#15 = DIRECTION ( 'NONE',  ( -0.000000000000000000, -1.000000000000000000, -0.000000000000000000 ) ) ;
#16 = AXIS2_PLACEMENT_3D ( 'NONE', #273, #239, #66 ) ;
#17 = EDGE_CURVE ( 'NONE', #133, #321, #282, .T. ) ;
#18 =( NAMED_UNIT ( * ) SI_UNIT ( $, .STERADIAN. ) SOLID_ANGLE_UNIT ( ) );
#19 = DIRECTION ( 'NONE',  ( 0.000000000000000000, 0.000000000000000000, -1.000000000000000000 ) ) ;
#20 = CIRCLE ( 'NONE', #64, 0.2499999999999997224 ) ;
#21 = DIRECTION ( 'NONE',  ( -1.000000000000000000, 0.000000000000000000, 0.000000000000000000 ) ) ;
#22 = EDGE_LOOP ( 'NONE', ( #216, #262, #269, #191 ) ) ;
#23 = DIRECTION ( 'NONE',  ( -1.000000000000000000, 0.000000000000000000, 0.000000000000000000 ) ) ;
#24 = DIRECTION ( 'NONE',  ( -1.224646799147353700E-16, 1.000000000000000000, -0.000000000000000000 ) ) ;
#25 = ADVANCED_FACE ( 'NONE', ( #93 ), #285, .T. ) ;
#26 = PRESENTATION_LAYER_ASSIGNMENT (  '', '', ( #346 ) ) ;
#27 = MECHANICAL_DESIGN_GEOMETRIC_PRESENTATION_REPRESENTATION (  '', ( #122 ), #371 ) ;
#28 = SURFACE_SIDE_STYLE ('',( #215 ) ) ;
#29 = SURFACE_STYLE_USAGE ( .BOTH. , #84 ) ;
#30 = PRODUCT_CONTEXT ( 'NONE', #253, 'mechanical' ) ;
#31 = ORIENTED_EDGE ( 'NONE', *, *, #72, .F. ) ;
#32 = DIRECTION ( 'NONE',  ( -1.000000000000000000, 0.000000000000000000, 0.000000000000000000 ) ) ;
#33 = DIRECTION ( 'NONE',  ( -0.000000000000000000, -1.000000000000000000, -0.000000000000000000 ) ) ;
#34 = CARTESIAN_POINT ( 'NONE',  ( -6.123233995736772199E-17, 3.000000000000000444, 0.000000000000000000 ) ) ;
#35 = UNCERTAINTY_MEASURE_WITH_UNIT (LENGTH_MEASURE( 1.000000000000000082E-05 ), #183, 'distance_accuracy_value', 'NONE');
#36 = LINE ( 'NONE', #324, #127 ) ;
#37 =( LENGTH_UNIT ( ) NAMED_UNIT ( * ) SI_UNIT ( $, .METRE. ) );
#38 = EDGE_CURVE ( 'NONE', #156, #209, #49, .T. ) ;
#39 = CIRCLE ( 'NONE', #152, 0.2499999999999999722 ) ;
#40 = AXIS2_PLACEMENT_3D ( 'NONE', #3, #114, #298 ) ;
#41 = PRESENTATION_STYLE_ASSIGNMENT (( #350 ) ) ;
#42 = SURFACE_STYLE_USAGE ( .BOTH. , #267 ) ;
#43 = CARTESIAN_POINT ( 'NONE',  ( -1.530808498934191509E-17, 0.000000000000000000, 0.000000000000000000 ) ) ;
#44 = CARTESIAN_POINT ( 'NONE',  ( 0.000000000000000000, 0.000000000000000000, -0.2499999999999999167 ) ) ;
#45 = ORIENTED_EDGE ( 'NONE', *, *, #228, .T. ) ;
#46 = FILL_AREA_STYLE ('',( #151 ) ) ;
#47 = EDGE_CURVE ( 'NONE', #193, #218, #39, .T. ) ;
#48 = CARTESIAN_POINT ( 'NONE',  ( 0.2499999999999999167, 3.000000000000000444, 3.061616997868382402E-17 ) ) ;
#49 = CIRCLE ( 'NONE', #323, 0.2499999999999997224 ) ;
#50 = AXIS2_PLACEMENT_3D ( 'NONE', #170, #140, #52 ) ;
#51 = LENGTH_MEASURE_WITH_UNIT ( LENGTH_MEASURE( 0.02539999999999999897 ), #76 );
#52 = DIRECTION ( 'NONE',  ( 1.000000000000000000, 0.000000000000000000, 0.000000000000000000 ) ) ;
#53 = ORIENTED_EDGE ( 'NONE', *, *, #279, .F. ) ;
#54 = DIRECTION ( 'NONE',  ( -1.000000000000000000, 0.000000000000000000, 0.000000000000000000 ) ) ;
#55 = PRODUCT_RELATED_PRODUCT_CATEGORY ( 'part', '', ( #281 ) ) ;
#56 = ORIENTED_EDGE ( 'NONE', *, *, #228, .F. ) ;
#57 = ORIENTED_EDGE ( 'NONE', *, *, #233, .F. ) ;
#58 = DIRECTION ( 'NONE',  ( -0.000000000000000000, -1.000000000000000000, -0.000000000000000000 ) ) ;
#59 = CARTESIAN_POINT ( 'NONE',  ( 0.000000000000000000, 0.000000000000000000, 0.000000000000000000 ) ) ;
#60 = EDGE_CURVE ( 'NONE', #360, #182, #244, .T. ) ;
#61 = FILL_AREA_STYLE ('',( #172 ) ) ;
#62 = CARTESIAN_POINT ( 'NONE',  ( 0.000000000000000000, 0.000000000000000000, 0.000000000000000000 ) ) ;
#63 = CIRCLE ( 'NONE', #81, 0.2499999999999998890 ) ;
#64 = AXIS2_PLACEMENT_3D ( 'NONE', #305, #103, #23 ) ;
#65 = LINE ( 'NONE', #44, #135 ) ;
#66 = DIRECTION ( 'NONE',  ( 0.000000000000000000, 0.000000000000000000, -1.000000000000000000 ) ) ;
#67 = CARTESIAN_POINT ( 'NONE',  ( -3.061616997868383018E-17, 0.2500000000000000000, 0.000000000000000000 ) ) ;
#68 = ORIENTED_EDGE ( 'NONE', *, *, #115, .F. ) ;
#69 = CARTESIAN_POINT ( 'NONE',  ( 3.061616997868383018E-17, 0.2500000000000000000, 0.2500000000000000000 ) ) ;
#70 = COLOUR_RGB ( '',1.000000000000000000, 0.000000000000000000, 0.000000000000000000 ) ;
#71 = MECHANICAL_DESIGN_GEOMETRIC_PRESENTATION_REPRESENTATION (  '', ( #270 ), #306 ) ;
#72 = EDGE_CURVE ( 'NONE', #373, #297, #63, .T. ) ;
#73 = UNCERTAINTY_MEASURE_WITH_UNIT (LENGTH_MEASURE( 1.000000000000000082E-05 ), #309, 'distance_accuracy_value', 'NONE');
#74 =( NAMED_UNIT ( * ) SI_UNIT ( $, .STERADIAN. ) SOLID_ANGLE_UNIT ( ) );
#75 = ORIENTED_EDGE ( 'NONE', *, *, #355, .T. ) ;
#76 =( LENGTH_UNIT ( ) NAMED_UNIT ( * ) SI_UNIT ( $, .METRE. ) );
#77 = SURFACE_STYLE_USAGE ( .BOTH. , #28 ) ;
#78 = PRESENTATION_LAYER_ASSIGNMENT (  '', '', ( #122 ) ) ;
#79 = ORIENTED_EDGE ( 'NONE', *, *, #125, .T. ) ;
#80 = PRODUCT_DEFINITION ( 'UNKNOWN', '', #136, #124 ) ;
#81 = AXIS2_PLACEMENT_3D ( 'NONE', #1, #4, #296 ) ;
#82 = CIRCLE ( 'NONE', #347, 0.2500000000000000000 ) ;
#83 = ORIENTED_EDGE ( 'NONE', *, *, #125, .F. ) ;
#84 = SURFACE_SIDE_STYLE ('',( #256 ) ) ;
#85 = CARTESIAN_POINT ( 'NONE',  ( 0.000000000000000000, 0.2500000000000000000, -0.2499999999999999722 ) ) ;
#86 = FILL_AREA_STYLE ('',( #345 ) ) ;
#87 = LINE ( 'NONE', #334, #161 ) ;
#88 = PRESENTATION_LAYER_ASSIGNMENT (  '', '', ( #141 ) ) ;
#89 = FILL_AREA_STYLE_COLOUR ( '', #304 ) ;
#90 = SURFACE_STYLE_USAGE ( .BOTH. , #232 ) ;
#91 =( CONVERSION_BASED_UNIT ( 'INCH', #230 ) LENGTH_UNIT ( ) NAMED_UNIT ( #104 ) );
#92 = DIRECTION ( 'NONE',  ( -1.224646799147353700E-16, 1.000000000000000000, -0.000000000000000000 ) ) ;
#93 = FACE_OUTER_BOUND ( 'NONE', #2, .T. ) ;
#94 = DIRECTION ( 'NONE',  ( 0.000000000000000000, 0.000000000000000000, -1.000000000000000000 ) ) ;
#95 = MECHANICAL_DESIGN_GEOMETRIC_PRESENTATION_REPRESENTATION (  '', ( #346 ), #332 ) ;
#96 =( GEOMETRIC_REPRESENTATION_CONTEXT ( 3 ) GLOBAL_UNCERTAINTY_ASSIGNED_CONTEXT ( ( #356 ) ) GLOBAL_UNIT_ASSIGNED_CONTEXT ( ( #185, #126, #18 ) ) REPRESENTATION_CONTEXT ( 'NONE', 'WORKASPACE' ) );
#97 = CARTESIAN_POINT ( 'NONE',  ( 0.2499999999999998057, 3.000000000000000444, 3.061616997868381785E-17 ) ) ;
#98 = ADVANCED_FACE ( 'NONE', ( #231 ), #234, .T. ) ;
#99 = FACE_OUTER_BOUND ( 'NONE', #250, .T. ) ;
#100 = LENGTH_MEASURE_WITH_UNIT ( LENGTH_MEASURE( 0.02539999999999999897 ), #362 );
#101 = ADVANCED_FACE ( 'NONE', ( #260 ), #322, .T. ) ;
#102 = AXIS2_PLACEMENT_3D ( 'NONE', #220, #120, #357 ) ;
#103 = DIRECTION ( 'NONE',  ( -1.224646799147353700E-16, 1.000000000000000000, -0.000000000000000000 ) ) ;
#104 = DIMENSIONAL_EXPONENTS ( 1.000000000000000000, 0.000000000000000000, 0.000000000000000000, 0.000000000000000000, 0.000000000000000000, 0.000000000000000000, 0.000000000000000000 ) ;
#105 = LENGTH_MEASURE_WITH_UNIT ( LENGTH_MEASURE( 0.02539999999999999897 ), #123 );
#106 = EDGE_CURVE ( 'NONE', #297, #343, #36, .T. ) ;
#107 = DIRECTION ( 'NONE',  ( -0.000000000000000000, -1.000000000000000000, -0.000000000000000000 ) ) ;
#108 =( GEOMETRIC_REPRESENTATION_CONTEXT ( 3 ) GLOBAL_UNCERTAINTY_ASSIGNED_CONTEXT ( ( #73 ) ) GLOBAL_UNIT_ASSIGNED_CONTEXT ( ( #309, #188, #235 ) ) REPRESENTATION_CONTEXT ( 'NONE', 'WORKASPACE' ) );
#109 = ORIENTED_EDGE ( 'NONE', *, *, #106, .F. ) ;
#110 =( CONVERSION_BASED_UNIT ( 'INCH', #318 ) LENGTH_UNIT ( ) NAMED_UNIT ( #337 ) );
#111 = DIRECTION ( 'NONE',  ( -0.000000000000000000, -1.000000000000000000, -0.000000000000000000 ) ) ;
#112 = COLOUR_RGB ( '',1.000000000000000000, 0.000000000000000000, 0.000000000000000000 ) ;
#113 = CARTESIAN_POINT ( 'NONE',  ( 1.836970198721030181E-16, 1.000000000000000000, 0.000000000000000000 ) ) ;
#114 = DIRECTION ( 'NONE',  ( 1.224646799147353700E-16, -1.000000000000000000, 0.000000000000000000 ) ) ;
#115 = EDGE_CURVE ( 'NONE', #343, #360, #168, .T. ) ;
#116 = SURFACE_STYLE_FILL_AREA ( #146 ) ;
#117 = AXIS2_PLACEMENT_3D ( 'NONE', #67, #150, #317 ) ;
#118 = DIRECTION ( 'NONE',  ( -1.000000000000000000, 0.000000000000000000, 0.000000000000000000 ) ) ;
#119 = FILL_AREA_STYLE_COLOUR ( '', #112 ) ;
#120 = DIRECTION ( 'NONE',  ( -0.000000000000000000, -1.000000000000000000, -0.000000000000000000 ) ) ;
#121 = FILL_AREA_STYLE_COLOUR ( '', #70 ) ;
#122 = STYLED_ITEM ( 'NONE', ( #203 ), #335 ) ;
#123 =( LENGTH_UNIT ( ) NAMED_UNIT ( * ) SI_UNIT ( $, .METRE. ) );
#124 = PRODUCT_DEFINITION_CONTEXT ( 'detailed design', #198, 'design' ) ;
#125 = EDGE_CURVE ( 'NONE', #218, #193, #213, .T. ) ;
#126 =( NAMED_UNIT ( * ) PLANE_ANGLE_UNIT ( ) SI_UNIT ( $, .RADIAN. ) );
#127 = VECTOR ( 'NONE', #111, 39.37007874015748143 ) ;
#128 = CIRCLE ( 'NONE', #102, 0.2499999999999999722 ) ;
#129 = DIMENSIONAL_EXPONENTS ( 1.000000000000000000, 0.000000000000000000, 0.000000000000000000, 0.000000000000000000, 0.000000000000000000, 0.000000000000000000, 0.000000000000000000 ) ;
#130 = LINE ( 'NONE', #97, #342 ) ;
#131 = UNCERTAINTY_MEASURE_WITH_UNIT (LENGTH_MEASURE( 1.000000000000000082E-05 ), #91, 'distance_accuracy_value', 'NONE');
#132 =( NAMED_UNIT ( * ) PLANE_ANGLE_UNIT ( ) SI_UNIT ( $, .RADIAN. ) );
#133 = VERTEX_POINT ( 'NONE', #85 ) ;
#134 = DIMENSIONAL_EXPONENTS ( 1.000000000000000000, 0.000000000000000000, 0.000000000000000000, 0.000000000000000000, 0.000000000000000000, 0.000000000000000000, 0.000000000000000000 ) ;
#135 = VECTOR ( 'NONE', #107, 39.37007874015748143 ) ;
#136 = PRODUCT_DEFINITION_FORMATION_WITH_SPECIFIED_SOURCE ( 'ANY', '', #281, .NOT_KNOWN. ) ;
#137 = PRESENTATION_STYLE_ASSIGNMENT (( #77 ) ) ;
#138 =( CONVERSION_BASED_UNIT ( 'INCH', #255 ) LENGTH_UNIT ( ) NAMED_UNIT ( #287 ) );
#139 = ADVANCED_FACE ( 'NONE', ( #205 ), #142, .F. ) ;
#140 = DIRECTION ( 'NONE',  ( 0.000000000000000000, 0.000000000000000000, 1.000000000000000000 ) ) ;
#141 = STYLED_ITEM ( 'NONE', ( #41 ), #143 ) ;
#142 = PLANE ( 'NONE',  #271 ) ;
#143 = ADVANCED_FACE ( 'NONE', ( #268 ), #361, .T. ) ;
#144 = DIRECTION ( 'NONE',  ( -0.000000000000000000, -1.000000000000000000, -0.000000000000000000 ) ) ;
#145 = DIRECTION ( 'NONE',  ( -1.000000000000000000, 0.000000000000000000, 0.000000000000000000 ) ) ;
#146 = FILL_AREA_STYLE ('',( #5 ) ) ;
#147 = DIRECTION ( 'NONE',  ( -1.224646799147353700E-16, 1.000000000000000000, -0.000000000000000000 ) ) ;
#148 = ADVANCED_BREP_SHAPE_REPRESENTATION ( '59447', ( #338, #335, #50 ), #162 ) ;
#149 = CLOSED_SHELL ( 'NONE', ( #143, #237, #223, #101, #25 ) ) ;
#150 = DIRECTION ( 'NONE',  ( 0.000000000000000000, 0.000000000000000000, 1.000000000000000000 ) ) ;
#151 = FILL_AREA_STYLE_COLOUR ( '', #153 ) ;
#152 = AXIS2_PLACEMENT_3D ( 'NONE', #166, #263, #145 ) ;
#153 = COLOUR_RGB ( '',0.7921568627450980005, 0.8196078431372548767, 0.9333333333333333481 ) ;
#154 = EDGE_CURVE ( 'NONE', #209, #218, #87, .T. ) ;
#155 = SURFACE_SIDE_STYLE ('',( #364 ) ) ;
#156 = VERTEX_POINT ( 'NONE', #275 ) ;
#157 = SURFACE_STYLE_USAGE ( .BOTH. , #155 ) ;
#158 = ORIENTED_EDGE ( 'NONE', *, *, #47, .F. ) ;
#159 = FACE_OUTER_BOUND ( 'NONE', #286, .T. ) ;
#160 = DIRECTION ( 'NONE',  ( 0.000000000000000000, -0.000000000000000000, 1.000000000000000000 ) ) ;
#161 = VECTOR ( 'NONE', #246, 39.37007874015748143 ) ;
#162 =( GEOMETRIC_REPRESENTATION_CONTEXT ( 3 ) GLOBAL_UNCERTAINTY_ASSIGNED_CONTEXT ( ( #315 ) ) GLOBAL_UNIT_ASSIGNED_CONTEXT ( ( #138, #319, #254 ) ) REPRESENTATION_CONTEXT ( 'NONE', 'WORKASPACE' ) );
#163 = CARTESIAN_POINT ( 'NONE',  ( -6.123233995736772199E-17, 3.000000000000000444, 0.000000000000000000 ) ) ;
#164 = EDGE_LOOP ( 'NONE', ( #293, #344 ) ) ;
#165 = SURFACE_STYLE_FILL_AREA ( #86 ) ;
#166 = CARTESIAN_POINT ( 'NONE',  ( -6.123233995736772199E-17, 3.000000000000000444, 0.000000000000000000 ) ) ;
#167 = ORIENTED_EDGE ( 'NONE', *, *, #106, .T. ) ;
#168 = CIRCLE ( 'NONE', #6, 0.2499999999999999722 ) ;
#169 = STYLED_ITEM ( 'NONE', ( #212 ), #338 ) ;
#170 = CARTESIAN_POINT ( 'NONE',  ( 0.000000000000000000, 0.000000000000000000, 0.000000000000000000 ) ) ;
#171 = CYLINDRICAL_SURFACE ( 'NONE', #301, 0.2499999999999999167 ) ;
#172 = FILL_AREA_STYLE_COLOUR ( '', #261 ) ;
#173 = DIRECTION ( 'NONE',  ( 0.000000000000000000, 0.000000000000000000, -1.000000000000000000 ) ) ;
#174 = MECHANICAL_DESIGN_GEOMETRIC_PRESENTATION_REPRESENTATION (  '', ( #141 ), #108 ) ;
#175 = ORIENTED_EDGE ( 'NONE', *, *, #180, .F. ) ;
#176 =( LENGTH_UNIT ( ) NAMED_UNIT ( * ) SI_UNIT ( $, .METRE. ) );
#177 = ORIENTED_EDGE ( 'NONE', *, *, #17, .F. ) ;
#178 = DIRECTION ( 'NONE',  ( 1.224646799147353207E-16, -0.000000000000000000, 1.000000000000000000 ) ) ;
#179 = ORIENTED_EDGE ( 'NONE', *, *, #233, .T. ) ;
#180 = EDGE_CURVE ( 'NONE', #156, #193, #130, .T. ) ;
#181 = PRESENTATION_LAYER_ASSIGNMENT (  '', '', ( #14 ) ) ;
#182 = VERTEX_POINT ( 'NONE', #43 ) ;
#183 =( CONVERSION_BASED_UNIT ( 'INCH', #210 ) LENGTH_UNIT ( ) NAMED_UNIT ( #129 ) );
#184 = ORIENTED_EDGE ( 'NONE', *, *, #248, .F. ) ;
#185 =( CONVERSION_BASED_UNIT ( 'INCH', #100 ) LENGTH_UNIT ( ) NAMED_UNIT ( #186 ) );
#186 = DIMENSIONAL_EXPONENTS ( 1.000000000000000000, 0.000000000000000000, 0.000000000000000000, 0.000000000000000000, 0.000000000000000000, 0.000000000000000000, 0.000000000000000000 ) ;
#187 =( LENGTH_UNIT ( ) NAMED_UNIT ( * ) SI_UNIT ( $, .METRE. ) );
#188 =( NAMED_UNIT ( * ) PLANE_ANGLE_UNIT ( ) SI_UNIT ( $, .RADIAN. ) );
#189 = CLOSED_SHELL ( 'NONE', ( #368, #139, #98, #312 ) ) ;
#190 = AXIS2_PLACEMENT_3D ( 'NONE', #163, #333, #21 ) ;
#191 = ORIENTED_EDGE ( 'NONE', *, *, #279, .T. ) ;
#192 =( CONVERSION_BASED_UNIT ( 'INCH', #51 ) LENGTH_UNIT ( ) NAMED_UNIT ( #314 ) );
#193 = VERTEX_POINT ( 'NONE', #48 ) ;
#194 = PRESENTATION_LAYER_ASSIGNMENT (  '', '', ( #270 ) ) ;
#195 = ORIENTED_EDGE ( 'NONE', *, *, #60, .F. ) ;
#196 =( NAMED_UNIT ( * ) SI_UNIT ( $, .STERADIAN. ) SOLID_ANGLE_UNIT ( ) );
#197 = DIRECTION ( 'NONE',  ( 1.000000000000000000, 0.000000000000000000, -1.224646799147353207E-16 ) ) ;
#198 = APPLICATION_CONTEXT ( 'automotive_design' ) ;
#199 = DIRECTION ( 'NONE',  ( -1.000000000000000000, -1.224646799147353700E-16, 0.000000000000000000 ) ) ;
#200 = PRESENTATION_LAYER_ASSIGNMENT (  '', '', ( #169 ) ) ;
#201 =( CONVERSION_BASED_UNIT ( 'INCH', #354 ) LENGTH_UNIT ( ) NAMED_UNIT ( #134 ) );
#202 = ORIENTED_EDGE ( 'NONE', *, *, #47, .T. ) ;
#203 = PRESENTATION_STYLE_ASSIGNMENT (( #90 ) ) ;
#204 = UNCERTAINTY_MEASURE_WITH_UNIT (LENGTH_MEASURE( 1.000000000000000082E-05 ), #192, 'distance_accuracy_value', 'NONE');
#205 = FACE_OUTER_BOUND ( 'NONE', #164, .T. ) ;
#206 = CARTESIAN_POINT ( 'NONE',  ( 3.061616997868381785E-17, 1.000000000000000000, 0.2499999999999998890 ) ) ;
#207 = CIRCLE ( 'NONE', #16, 0.2499999999999998890 ) ;
#208 = SURFACE_STYLE_FILL_AREA ( #13 ) ;
#209 = VERTEX_POINT ( 'NONE', #341 ) ;
#210 = LENGTH_MEASURE_WITH_UNIT ( LENGTH_MEASURE( 0.02539999999999999897 ), #308 );
#211 = ORIENTED_EDGE ( 'NONE', *, *, #154, .T. ) ;
#212 = PRESENTATION_STYLE_ASSIGNMENT (( #157 ) ) ;
#213 = CIRCLE ( 'NONE', #252, 0.2499999999999999722 ) ;
#214 = MECHANICAL_DESIGN_GEOMETRIC_PRESENTATION_REPRESENTATION (  '', ( #169 ), #96 ) ;
#215 = SURFACE_STYLE_FILL_AREA ( #241 ) ;
#216 = ORIENTED_EDGE ( 'NONE', *, *, #115, .T. ) ;
#217 = CARTESIAN_POINT ( 'NONE',  ( -0.2500000000000000000, 0.2500000000000000000, 3.061616997868382402E-17 ) ) ;
#218 = VERTEX_POINT ( 'NONE', #10 ) ;
#219 = SURFACE_STYLE_USAGE ( .BOTH. , #283 ) ;
#220 = CARTESIAN_POINT ( 'NONE',  ( 0.000000000000000000, 0.2500000000000000000, 0.000000000000000000 ) ) ;
#221 =( GEOMETRIC_REPRESENTATION_CONTEXT ( 3 ) GLOBAL_UNCERTAINTY_ASSIGNED_CONTEXT ( ( #369 ) ) GLOBAL_UNIT_ASSIGNED_CONTEXT ( ( #110, #132, #74 ) ) REPRESENTATION_CONTEXT ( 'NONE', 'WORKASPACE' ) );
#222 = ORIENTED_EDGE ( 'NONE', *, *, #17, .T. ) ;
#223 = ADVANCED_FACE ( 'NONE', ( #240 ), #328, .T. ) ;
#224 = APPLICATION_PROTOCOL_DEFINITION ( 'draft international standard', 'automotive_design', 1998, #253 ) ;
#225 = MECHANICAL_DESIGN_GEOMETRIC_PRESENTATION_REPRESENTATION (  '', ( #14 ), #221 ) ;
#226 = AXIS2_PLACEMENT_3D ( 'NONE', #247, #236, #160 ) ;
#227 = CARTESIAN_POINT ( 'NONE',  ( 0.000000000000000000, 0.2500000000000000000, 0.000000000000000000 ) ) ;
#228 = EDGE_CURVE ( 'NONE', #373, #133, #65, .T. ) ;
#229 = SURFACE_STYLE_FILL_AREA ( #61 ) ;
#230 = LENGTH_MEASURE_WITH_UNIT ( LENGTH_MEASURE( 0.02539999999999999897 ), #37 );
#231 = FACE_OUTER_BOUND ( 'NONE', #331, .T. ) ;
#232 = SURFACE_SIDE_STYLE ('',( #116 ) ) ;
#233 = EDGE_CURVE ( 'NONE', #360, #133, #128, .T. ) ;
#234 = CYLINDRICAL_SURFACE ( 'NONE', #259, 0.2499999999999998612 ) ;
#235 =( NAMED_UNIT ( * ) SI_UNIT ( $, .STERADIAN. ) SOLID_ANGLE_UNIT ( ) );
#236 = DIRECTION ( 'NONE',  ( 0.000000000000000000, 1.000000000000000000, 0.000000000000000000 ) ) ;
#237 = ADVANCED_FACE ( 'NONE', ( #99 ), #171, .T. ) ;
#238 = AXIS2_PLACEMENT_3D ( 'NONE', #276, #15, #242 ) ;
#239 = DIRECTION ( 'NONE',  ( -0.000000000000000000, -1.000000000000000000, -0.000000000000000000 ) ) ;
#240 = FACE_OUTER_BOUND ( 'NONE', #258, .T. ) ;
#241 = FILL_AREA_STYLE ('',( #121 ) ) ;
#242 = DIRECTION ( 'NONE',  ( 0.000000000000000000, 0.000000000000000000, -1.000000000000000000 ) ) ;
#243 = DIRECTION ( 'NONE',  ( -1.000000000000000000, 0.000000000000000000, 0.000000000000000000 ) ) ;
#244 = CIRCLE ( 'NONE', #251, 0.2500000000000000000 ) ;
#245 =( NAMED_UNIT ( * ) SI_UNIT ( $, .STERADIAN. ) SOLID_ANGLE_UNIT ( ) );
#246 = DIRECTION ( 'NONE',  ( -1.224646799147353700E-16, 1.000000000000000000, -0.000000000000000000 ) ) ;
#247 = CARTESIAN_POINT ( 'NONE',  ( 0.000000000000000000, 1.000000000000000000, 0.000000000000000000 ) ) ;
#248 = EDGE_CURVE ( 'NONE', #297, #373, #207, .T. ) ;
#249 = UNCERTAINTY_MEASURE_WITH_UNIT (LENGTH_MEASURE( 1.000000000000000082E-05 ), #201, 'distance_accuracy_value', 'NONE');
#250 = EDGE_LOOP ( 'NONE', ( #264, #167, #53, #177, #56 ) ) ;
#251 = AXIS2_PLACEMENT_3D ( 'NONE', #266, #178, #197 ) ;
#252 = AXIS2_PLACEMENT_3D ( 'NONE', #294, #147, #32 ) ;
#253 = APPLICATION_CONTEXT ( 'automotive_design' ) ;
#254 =( NAMED_UNIT ( * ) SI_UNIT ( $, .STERADIAN. ) SOLID_ANGLE_UNIT ( ) );
#255 = LENGTH_MEASURE_WITH_UNIT ( LENGTH_MEASURE( 0.02539999999999999897 ), #187 );
#256 = SURFACE_STYLE_FILL_AREA ( #299 ) ;
#257 = APPLICATION_PROTOCOL_DEFINITION ( 'draft international standard', 'automotive_design', 1998, #198 ) ;
#258 = EDGE_LOOP ( 'NONE', ( #31, #184 ) ) ;
#259 = AXIS2_PLACEMENT_3D ( 'NONE', #34, #352, #118 ) ;
#260 = FACE_OUTER_BOUND ( 'NONE', #9, .T. ) ;
#261 = COLOUR_RGB ( '',1.000000000000000000, 0.000000000000000000, 0.000000000000000000 ) ;
#262 = ORIENTED_EDGE ( 'NONE', *, *, #60, .T. ) ;
#263 = DIRECTION ( 'NONE',  ( -1.224646799147353700E-16, 1.000000000000000000, -0.000000000000000000 ) ) ;
#264 = ORIENTED_EDGE ( 'NONE', *, *, #72, .T. ) ;
#265 = FACE_OUTER_BOUND ( 'NONE', #274, .T. ) ;
#266 = CARTESIAN_POINT ( 'NONE',  ( -3.061616997868383018E-17, 0.2500000000000000000, 0.000000000000000000 ) ) ;
#267 = SURFACE_SIDE_STYLE ('',( #165 ) ) ;
#268 = FACE_OUTER_BOUND ( 'NONE', #22, .T. ) ;
#269 = ORIENTED_EDGE ( 'NONE', *, *, #340, .F. ) ;
#270 = STYLED_ITEM ( 'NONE', ( #311 ), #223 ) ;
#271 = AXIS2_PLACEMENT_3D ( 'NONE', #113, #348, #199 ) ;
#272 =( NAMED_UNIT ( * ) PLANE_ANGLE_UNIT ( ) SI_UNIT ( $, .RADIAN. ) );
#273 = CARTESIAN_POINT ( 'NONE',  ( 0.000000000000000000, 1.000000000000000000, 0.000000000000000000 ) ) ;
#274 = EDGE_LOOP ( 'NONE', ( #79, #202 ) ) ;
#275 = CARTESIAN_POINT ( 'NONE',  ( 0.2499999999999999167, 1.000000000000000000, 3.061616997868382402E-17 ) ) ;
#276 = CARTESIAN_POINT ( 'NONE',  ( 0.000000000000000000, 0.2500000000000000000, 0.000000000000000000 ) ) ;
#277 = AXIS2_PLACEMENT_3D ( 'NONE', #367, #339, #313 ) ;
#278 = COLOUR_RGB ( '',1.000000000000000000, 0.000000000000000000, 0.000000000000000000 ) ;
#279 = EDGE_CURVE ( 'NONE', #321, #343, #359, .T. ) ;
#280 = ORIENTED_EDGE ( 'NONE', *, *, #180, .T. ) ;
#281 = PRODUCT ( '59447', '59447', '', ( #30 ) ) ;
#282 = CIRCLE ( 'NONE', #238, 0.2499999999999999722 ) ;
#283 = SURFACE_SIDE_STYLE ('',( #208 ) ) ;
#284 =( NAMED_UNIT ( * ) PLANE_ANGLE_UNIT ( ) SI_UNIT ( $, .RADIAN. ) );
#285 = SPHERICAL_SURFACE ( 'NONE', #277, 0.2500000000000000000 ) ;
#286 = EDGE_LOOP ( 'NONE', ( #75, #280, #83, #370 ) ) ;
#287 = DIMENSIONAL_EXPONENTS ( 1.000000000000000000, 0.000000000000000000, 0.000000000000000000, 0.000000000000000000, 0.000000000000000000, 0.000000000000000000, 0.000000000000000000 ) ;
#288 = ORIENTED_EDGE ( 'NONE', *, *, #38, .T. ) ;
#289 = MECHANICAL_DESIGN_GEOMETRIC_PRESENTATION_REPRESENTATION (  '', ( #320 ), #8 ) ;
#290 =( LENGTH_UNIT ( ) NAMED_UNIT ( * ) SI_UNIT ( $, .METRE. ) );
#291 = ORIENTED_EDGE ( 'NONE', *, *, #340, .T. ) ;
#292 = SURFACE_SIDE_STYLE ('',( #229 ) ) ;
#293 = ORIENTED_EDGE ( 'NONE', *, *, #355, .F. ) ;
#294 = CARTESIAN_POINT ( 'NONE',  ( -6.123233995736772199E-17, 3.000000000000000444, 0.000000000000000000 ) ) ;
#295 = CARTESIAN_POINT ( 'NONE',  ( 0.000000000000000000, 0.2500000000000000000, 0.000000000000000000 ) ) ;
#296 = DIRECTION ( 'NONE',  ( 0.000000000000000000, 0.000000000000000000, -1.000000000000000000 ) ) ;
#297 = VERTEX_POINT ( 'NONE', #206 ) ;
#298 = DIRECTION ( 'NONE',  ( 1.000000000000000000, 1.224646799147353700E-16, 0.000000000000000000 ) ) ;
#299 = FILL_AREA_STYLE ('',( #89 ) ) ;
#300 = PRESENTATION_STYLE_ASSIGNMENT (( #29 ) ) ;
#301 = AXIS2_PLACEMENT_3D ( 'NONE', #62, #33, #327 ) ;
#302 =( NAMED_UNIT ( * ) SI_UNIT ( $, .STERADIAN. ) SOLID_ANGLE_UNIT ( ) );
#303 = PRODUCT_DEFINITION_SHAPE ( 'NONE', 'NONE',  #80 ) ;
#304 = COLOUR_RGB ( '',1.000000000000000000, 0.000000000000000000, 0.000000000000000000 ) ;
#305 = CARTESIAN_POINT ( 'NONE',  ( 1.836970198721030427E-16, 1.000000000000000000, 0.000000000000000000 ) ) ;
#306 =( GEOMETRIC_REPRESENTATION_CONTEXT ( 3 ) GLOBAL_UNCERTAINTY_ASSIGNED_CONTEXT ( ( #204 ) ) GLOBAL_UNIT_ASSIGNED_CONTEXT ( ( #192, #284, #302 ) ) REPRESENTATION_CONTEXT ( 'NONE', 'WORKASPACE' ) );
#307 = CARTESIAN_POINT ( 'NONE',  ( 1.836970198721030427E-16, 1.000000000000000000, 0.000000000000000000 ) ) ;
#308 =( LENGTH_UNIT ( ) NAMED_UNIT ( * ) SI_UNIT ( $, .METRE. ) );
#309 =( CONVERSION_BASED_UNIT ( 'INCH', #105 ) LENGTH_UNIT ( ) NAMED_UNIT ( #366 ) );
#310 = CYLINDRICAL_SURFACE ( 'NONE', #190, 0.2499999999999998612 ) ;
#311 = PRESENTATION_STYLE_ASSIGNMENT (( #219 ) ) ;
#312 = ADVANCED_FACE ( 'NONE', ( #265 ), #329, .F. ) ;
#313 = DIRECTION ( 'NONE',  ( 1.000000000000000000, 0.000000000000000000, 0.000000000000000000 ) ) ;
#314 = DIMENSIONAL_EXPONENTS ( 1.000000000000000000, 0.000000000000000000, 0.000000000000000000, 0.000000000000000000, 0.000000000000000000, 0.000000000000000000, 0.000000000000000000 ) ;
#315 = UNCERTAINTY_MEASURE_WITH_UNIT (LENGTH_MEASURE( 1.000000000000000082E-05 ), #138, 'distance_accuracy_value', 'NONE');
#316 = ORIENTED_EDGE ( 'NONE', *, *, #248, .T. ) ;
#317 = DIRECTION ( 'NONE',  ( 1.000000000000000000, 0.000000000000000000, 0.000000000000000000 ) ) ;
#318 = LENGTH_MEASURE_WITH_UNIT ( LENGTH_MEASURE( 0.02539999999999999897 ), #290 );
#319 =( NAMED_UNIT ( * ) PLANE_ANGLE_UNIT ( ) SI_UNIT ( $, .RADIAN. ) );
#320 = STYLED_ITEM ( 'NONE', ( #12 ), #237 ) ;
#321 = VERTEX_POINT ( 'NONE', #351 ) ;
#322 = CYLINDRICAL_SURFACE ( 'NONE', #358, 0.2499999999999999167 ) ;
#323 = AXIS2_PLACEMENT_3D ( 'NONE', #307, #24, #54 ) ;
#324 = CARTESIAN_POINT ( 'NONE',  ( 3.061616997868382402E-17, 0.000000000000000000, 0.2499999999999999167 ) ) ;
#325 = COLOUR_RGB ( '',0.7921568627450980005, 0.8196078431372548767, 0.9333333333333333481 ) ;
#326 = DIRECTION ( 'NONE',  ( 0.000000000000000000, 0.000000000000000000, -1.000000000000000000 ) ) ;
#327 = DIRECTION ( 'NONE',  ( 0.000000000000000000, 0.000000000000000000, -1.000000000000000000 ) ) ;
#328 = PLANE ( 'NONE',  #226 ) ;
#329 = PLANE ( 'NONE',  #40 ) ;
#330 = CARTESIAN_POINT ( 'NONE',  ( -3.061616997868383018E-17, 0.2500000000000000000, 0.000000000000000000 ) ) ;
#331 = EDGE_LOOP ( 'NONE', ( #175, #288, #211, #158 ) ) ;
#332 =( GEOMETRIC_REPRESENTATION_CONTEXT ( 3 ) GLOBAL_UNCERTAINTY_ASSIGNED_CONTEXT ( ( #249 ) ) GLOBAL_UNIT_ASSIGNED_CONTEXT ( ( #201, #7, #196 ) ) REPRESENTATION_CONTEXT ( 'NONE', 'WORKASPACE' ) );
#333 = DIRECTION ( 'NONE',  ( -1.224646799147353700E-16, 1.000000000000000000, -0.000000000000000000 ) ) ;
#334 = CARTESIAN_POINT ( 'NONE',  ( -0.2499999999999999167, 3.000000000000000444, 0.000000000000000000 ) ) ;
#335 = MANIFOLD_SOLID_BREP ( 'Revolve - Tool Body (Straight Shanked)', #189 ) ;
#336 =( NAMED_UNIT ( * ) PLANE_ANGLE_UNIT ( ) SI_UNIT ( $, .RADIAN. ) );
#337 = DIMENSIONAL_EXPONENTS ( 1.000000000000000000, 0.000000000000000000, 0.000000000000000000, 0.000000000000000000, 0.000000000000000000, 0.000000000000000000, 0.000000000000000000 ) ;
#338 = MANIFOLD_SOLID_BREP ( 'Revolve - Cutting Edge', #149 ) ;
#339 = DIRECTION ( 'NONE',  ( 0.000000000000000000, 0.000000000000000000, 1.000000000000000000 ) ) ;
#340 = EDGE_CURVE ( 'NONE', #321, #182, #82, .T. ) ;
#341 = CARTESIAN_POINT ( 'NONE',  ( -0.2499999999999995559, 1.000000000000000000, 0.000000000000000000 ) ) ;
#342 = VECTOR ( 'NONE', #92, 39.37007874015748143 ) ;
#343 = VERTEX_POINT ( 'NONE', #69 ) ;
#344 = ORIENTED_EDGE ( 'NONE', *, *, #38, .F. ) ;
#345 = FILL_AREA_STYLE_COLOUR ( '', #278 ) ;
#346 = STYLED_ITEM ( 'NONE', ( #300 ), #101 ) ;
#347 = AXIS2_PLACEMENT_3D ( 'NONE', #330, #19, #243 ) ;
#348 = DIRECTION ( 'NONE',  ( -1.224646799147353700E-16, 1.000000000000000000, 0.000000000000000000 ) ) ;
#349 = DIRECTION ( 'NONE',  ( -0.000000000000000000, -1.000000000000000000, -0.000000000000000000 ) ) ;
#350 = SURFACE_STYLE_USAGE ( .BOTH. , #292 ) ;
#351 = CARTESIAN_POINT ( 'NONE',  ( 0.2499999999999999722, 0.2500000000000000000, 0.000000000000000000 ) ) ;
#352 = DIRECTION ( 'NONE',  ( -1.224646799147353700E-16, 1.000000000000000000, -0.000000000000000000 ) ) ;
#353 = PRESENTATION_LAYER_ASSIGNMENT (  '', '', ( #320 ) ) ;
#354 = LENGTH_MEASURE_WITH_UNIT ( LENGTH_MEASURE( 0.02539999999999999897 ), #176 );
#355 = EDGE_CURVE ( 'NONE', #209, #156, #20, .T. ) ;
#356 = UNCERTAINTY_MEASURE_WITH_UNIT (LENGTH_MEASURE( 1.000000000000000082E-05 ), #185, 'distance_accuracy_value', 'NONE');
#357 = DIRECTION ( 'NONE',  ( 0.000000000000000000, 0.000000000000000000, -1.000000000000000000 ) ) ;
#358 = AXIS2_PLACEMENT_3D ( 'NONE', #59, #58, #326 ) ;
#359 = CIRCLE ( 'NONE', #363, 0.2499999999999999722 ) ;
#360 = VERTEX_POINT ( 'NONE', #217 ) ;
#361 = SPHERICAL_SURFACE ( 'NONE', #117, 0.2500000000000000000 ) ;
#362 =( LENGTH_UNIT ( ) NAMED_UNIT ( * ) SI_UNIT ( $, .METRE. ) );
#363 = AXIS2_PLACEMENT_3D ( 'NONE', #295, #144, #94 ) ;
#364 = SURFACE_STYLE_FILL_AREA ( #46 ) ;
#365 = CARTESIAN_POINT ( 'NONE',  ( 0.000000000000000000, 1.000000000000000000, -0.2499999999999998890 ) ) ;
#366 = DIMENSIONAL_EXPONENTS ( 1.000000000000000000, 0.000000000000000000, 0.000000000000000000, 0.000000000000000000, 0.000000000000000000, 0.000000000000000000, 0.000000000000000000 ) ;
#367 = CARTESIAN_POINT ( 'NONE',  ( -3.061616997868383018E-17, 0.2500000000000000000, 0.000000000000000000 ) ) ;
#368 = ADVANCED_FACE ( 'NONE', ( #159 ), #310, .T. ) ;
#369 = UNCERTAINTY_MEASURE_WITH_UNIT (LENGTH_MEASURE( 1.000000000000000082E-05 ), #110, 'distance_accuracy_value', 'NONE');
#370 = ORIENTED_EDGE ( 'NONE', *, *, #154, .F. ) ;
#371 =( GEOMETRIC_REPRESENTATION_CONTEXT ( 3 ) GLOBAL_UNCERTAINTY_ASSIGNED_CONTEXT ( ( #35 ) ) GLOBAL_UNIT_ASSIGNED_CONTEXT ( ( #183, #336, #245 ) ) REPRESENTATION_CONTEXT ( 'NONE', 'WORKASPACE' ) );
#372 = SHAPE_DEFINITION_REPRESENTATION ( #303, #148 ) ;
#373 = VERTEX_POINT ( 'NONE', #365 ) ;
ENDSEC;
END-ISO-10303-21;
