ISO-10303-21;
HEADER;
FILE_DESCRIPTION (( 'STEP AP214' ),
    '1' );
FILE_NAME ('Micro_SEM-109-04X.STEP',
    '2021-09-02T01:23:42',
    ( '' ),
    ( '' ),
    'SwSTEP 2.0',
    'SolidWorks 2020',
    '' );
FILE_SCHEMA (( 'AUTOMOTIVE_DESIGN' ));
ENDSEC;

DATA;
#1 = DIRECTION ( 'NONE',  ( -1.224646799147353454E-16, -0.0000000000000000000, -1.000000000000000000 ) ) ;
#2 = AXIS2_PLACEMENT_3D ( 'NONE', #219, #218, #109 ) ;
#3 = ORIENTED_EDGE ( 'NONE', *, *, #89, .T. ) ;
#4 = VECTOR ( 'NONE', #249, 39.37007874015747433 ) ;
#5 = PRODUCT_DEFINITION_FORMATION_WITH_SPECIFIED_SOURCE ( 'ANY', '', #276, .NOT_KNOWN. ) ;
#6 = ORIENTED_EDGE ( 'NONE', *, *, #189, .F. ) ;
#7 = DIRECTION ( 'NONE',  ( 1.224646799147353454E-16, 0.0000000000000000000, 1.000000000000000000 ) ) ;
#8 = EDGE_CURVE ( 'NONE', #60, #81, #260, .T. ) ;
#9 = DIRECTION ( 'NONE',  ( 1.000000000000000000, 0.0000000000000000000, -0.0000000000000000000 ) ) ;
#10 = CIRCLE ( 'NONE', #186, 0.05464529999999999388 ) ;
#11 = CARTESIAN_POINT ( 'NONE',  ( 0.0000000000000000000, 0.0000000000000000000, 0.0000000000000000000 ) ) ;
#12 = CARTESIAN_POINT ( 'NONE',  ( 2.302335982397024786E-17, 0.0000000000000000000, 0.1880000000000000282 ) ) ;
#13 = DIMENSIONAL_EXPONENTS ( 1.000000000000000000, 0.0000000000000000000, 0.0000000000000000000, 0.0000000000000000000, 0.0000000000000000000, 0.0000000000000000000, 0.0000000000000000000 ) ;
#14 = LINE ( 'NONE', #114, #55 ) ;
#15 = EDGE_CURVE ( 'NONE', #63, #167, #196, .T. ) ;
#16 = AXIS2_PLACEMENT_3D ( 'NONE', #11, #290, #245 ) ;
#17 = FILL_AREA_STYLE ('',( #48 ) ) ;
#18 = DIMENSIONAL_EXPONENTS ( 1.000000000000000000, 0.0000000000000000000, 0.0000000000000000000, 0.0000000000000000000, 0.0000000000000000000, 0.0000000000000000000, 0.0000000000000000000 ) ;
#19 = CARTESIAN_POINT ( 'NONE',  ( 0.0000000000000000000, 0.0000000000000000000, 0.0000000000000000000 ) ) ;
#20 = ADVANCED_FACE ( 'NONE', ( #136 ), #242, .T. ) ;
#21 = CARTESIAN_POINT ( 'NONE',  ( -0.06250000000000000000, 0.0000000000000000000, 1.500000000000000222 ) ) ;
#22 = AXIS2_PLACEMENT_3D ( 'NONE', #132, #183, #267 ) ;
#23 = DIRECTION ( 'NONE',  ( -0.7071067811865456854, 0.0000000000000000000, -0.7071067811865493491 ) ) ;
#24 = CARTESIAN_POINT ( 'NONE',  ( 2.302335982397024786E-17, 0.0000000000000000000, 0.1880000000000000282 ) ) ;
#25 = ORIENTED_EDGE ( 'NONE', *, *, #278, .T. ) ;
#26 = EDGE_CURVE ( 'NONE', #60, #211, #14, .T. ) ;
#27 = DIRECTION ( 'NONE',  ( 1.224646799147353454E-16, 0.0000000000000000000, 1.000000000000000000 ) ) ;
#28 = AXIS2_PLACEMENT_3D ( 'NONE', #77, #190, #254 ) ;
#29 =( LENGTH_UNIT ( ) NAMED_UNIT ( * ) SI_UNIT ( $, .METRE. ) );
#30 = ORIENTED_EDGE ( 'NONE', *, *, #181, .F. ) ;
#31 = DIRECTION ( 'NONE',  ( -1.000000000000000000, 0.0000000000000000000, 0.0000000000000000000 ) ) ;
#32 = ORIENTED_EDGE ( 'NONE', *, *, #188, .F. ) ;
#33 = ORIENTED_EDGE ( 'NONE', *, *, #189, .T. ) ;
#34 = AXIS2_PLACEMENT_3D ( 'NONE', #210, #27, #153 ) ;
#35 = VERTEX_POINT ( 'NONE', #90 ) ;
#36 = EDGE_CURVE ( 'NONE', #81, #58, #244, .T. ) ;
#37 = DIRECTION ( 'NONE',  ( -1.000000000000000000, 0.0000000000000000000, 0.0000000000000000000 ) ) ;
#38 = ADVANCED_FACE ( 'NONE', ( #199 ), #39, .T. ) ;
#39 = PLANE ( 'NONE',  #62 ) ;
#40 = DIRECTION ( 'NONE',  ( -1.000000000000000000, 0.0000000000000000000, 0.0000000000000000000 ) ) ;
#41 = CYLINDRICAL_SURFACE ( 'NONE', #215, 0.06250000000000000000 ) ;
#42 = DIRECTION ( 'NONE',  ( 0.1736481776669314137, 0.0000000000000000000, 0.9848077530122077983 ) ) ;
#43 = APPLICATION_CONTEXT ( 'automotive_design' ) ;
#44 = VECTOR ( 'NONE', #266, 39.37007874015748143 ) ;
#45 = DIRECTION ( 'NONE',  ( 1.000000000000000000, 0.0000000000000000000, 0.0000000000000000000 ) ) ;
#46 = CYLINDRICAL_SURFACE ( 'NONE', #115, 0.05464530000000000776 ) ;
#47 =( NAMED_UNIT ( * ) SI_UNIT ( $, .STERADIAN. ) SOLID_ANGLE_UNIT ( ) );
#48 = FILL_AREA_STYLE_COLOUR ( '', #263 ) ;
#49 = AXIS2_PLACEMENT_3D ( 'NONE', #12, #7, #180 ) ;
#50 = CIRCLE ( 'NONE', #100, 0.05464529999999999388 ) ;
#51 = ORIENTED_EDGE ( 'NONE', *, *, #15, .F. ) ;
#52 = ORIENTED_EDGE ( 'NONE', *, *, #89, .F. ) ;
#53 = DIRECTION ( 'NONE',  ( 0.0000000000000000000, 0.0000000000000000000, 1.000000000000000000 ) ) ;
#54 = ORIENTED_EDGE ( 'NONE', *, *, #158, .T. ) ;
#55 = VECTOR ( 'NONE', #156, 39.37007874015748143 ) ;
#56 = ADVANCED_FACE ( 'NONE', ( #200 ), #99, .T. ) ;
#57 = PRESENTATION_STYLE_ASSIGNMENT (( #280 ) ) ;
#58 = VERTEX_POINT ( 'NONE', #113 ) ;
#59 =( NAMED_UNIT ( * ) SI_UNIT ( $, .STERADIAN. ) SOLID_ANGLE_UNIT ( ) );
#60 = VERTEX_POINT ( 'NONE', #284 ) ;
#61 = FACE_OUTER_BOUND ( 'NONE', #171, .T. ) ;
#62 = AXIS2_PLACEMENT_3D ( 'NONE', #133, #92, #64 ) ;
#63 = VERTEX_POINT ( 'NONE', #88 ) ;
#64 = DIRECTION ( 'NONE',  ( 1.000000000000000000, 0.0000000000000000000, -0.0000000000000000000 ) ) ;
#65 = PLANE ( 'NONE',  #116 ) ;
#66 = CIRCLE ( 'NONE', #155, 0.04750000000000064587 ) ;
#67 = MECHANICAL_DESIGN_GEOMETRIC_PRESENTATION_REPRESENTATION (  '', ( #106 ), #85 ) ;
#68 = CARTESIAN_POINT ( 'NONE',  ( 0.0000000000000000000, 0.0000000000000000000, 0.0000000000000000000 ) ) ;
#69 = SURFACE_STYLE_USAGE ( .BOTH. , #143 ) ;
#70 = DIRECTION ( 'NONE',  ( 1.000000000000000000, 0.0000000000000000000, 0.0000000000000000000 ) ) ;
#71 = AXIS2_PLACEMENT_3D ( 'NONE', #154, #262, #37 ) ;
#72 = DIRECTION ( 'NONE',  ( -1.000000000000000000, 0.0000000000000000000, 1.224646799147353700E-16 ) ) ;
#73 = PRODUCT_DEFINITION ( 'UNKNOWN', '', #5, #229 ) ;
#74 = ADVANCED_FACE ( 'NONE', ( #288 ), #108, .T. ) ;
#75 = CARTESIAN_POINT ( 'NONE',  ( 0.0000000000000000000, 0.0000000000000000000, 1.485000000000000764 ) ) ;
#76 = UNCERTAINTY_MEASURE_WITH_UNIT (LENGTH_MEASURE( 1.000000000000000082E-05 ), #151, 'distance_accuracy_value', 'NONE');
#77 = CARTESIAN_POINT ( 'NONE',  ( 0.0000000000000000000, 0.0000000000000000000, 1.500000000000000222 ) ) ;
#78 =( LENGTH_UNIT ( ) NAMED_UNIT ( * ) SI_UNIT ( $, .METRE. ) );
#79 = ORIENTED_EDGE ( 'NONE', *, *, #26, .T. ) ;
#80 =( GEOMETRIC_REPRESENTATION_CONTEXT ( 3 ) GLOBAL_UNCERTAINTY_ASSIGNED_CONTEXT ( ( #76 ) ) GLOBAL_UNIT_ASSIGNED_CONTEXT ( ( #151, #144, #230 ) ) REPRESENTATION_CONTEXT ( 'NONE', 'WORKASPACE' ) );
#81 = VERTEX_POINT ( 'NONE', #93 ) ;
#82 = FILL_AREA_STYLE ('',( #213 ) ) ;
#83 = VERTEX_POINT ( 'NONE', #201 ) ;
#84 = EDGE_LOOP ( 'NONE', ( #175, #54 ) ) ;
#85 =( GEOMETRIC_REPRESENTATION_CONTEXT ( 3 ) GLOBAL_UNCERTAINTY_ASSIGNED_CONTEXT ( ( #272 ) ) GLOBAL_UNIT_ASSIGNED_CONTEXT ( ( #170, #191, #59 ) ) REPRESENTATION_CONTEXT ( 'NONE', 'WORKASPACE' ) );
#86 = PRODUCT_RELATED_PRODUCT_CATEGORY ( 'part', '', ( #276 ) ) ;
#87 = ORIENTED_EDGE ( 'NONE', *, *, #207, .F. ) ;
#88 = CARTESIAN_POINT ( 'NONE',  ( -0.06249999999999997224, 0.0000000000000000000, 0.2325462173085509621 ) ) ;
#89 = EDGE_CURVE ( 'NONE', #152, #83, #182, .T. ) ;
#90 = CARTESIAN_POINT ( 'NONE',  ( -0.04750000000000064587, 0.0000000000000000000, 1.500000000000000222 ) ) ;
#91 = AXIS2_PLACEMENT_3D ( 'NONE', #176, #217, #40 ) ;
#92 = DIRECTION ( 'NONE',  ( 0.0000000000000000000, 0.0000000000000000000, 1.000000000000000000 ) ) ;
#93 = CARTESIAN_POINT ( 'NONE',  ( 0.05464530000000002857, 0.0000000000000000000, 0.1880000000000000282 ) ) ;
#94 = CARTESIAN_POINT ( 'NONE',  ( 0.04750000000000064587, 5.817072295950006528E-18, 1.500000000000000222 ) ) ;
#95 = VECTOR ( 'NONE', #228, 39.37007874015748143 ) ;
#96 =( LENGTH_UNIT ( ) NAMED_UNIT ( * ) SI_UNIT ( $, .METRE. ) );
#97 = LINE ( 'NONE', #118, #125 ) ;
#98 = FACE_OUTER_BOUND ( 'NONE', #240, .T. ) ;
#99 = CONICAL_SURFACE ( 'NONE', #49, 0.05464530000000000776, 0.1745329251994339192 ) ;
#100 = AXIS2_PLACEMENT_3D ( 'NONE', #232, #1, #174 ) ;
#101 = DIRECTION ( 'NONE',  ( -1.000000000000000000, 0.0000000000000000000, 1.224646799147353454E-16 ) ) ;
#102 = CARTESIAN_POINT ( 'NONE',  ( 0.06250000000000002776, 7.654042494670959086E-18, 0.2325462173085509621 ) ) ;
#103 = FACE_OUTER_BOUND ( 'NONE', #169, .T. ) ;
#104 = ORIENTED_EDGE ( 'NONE', *, *, #36, .F. ) ;
#105 = PRODUCT_CONTEXT ( 'NONE', #212, 'mechanical' ) ;
#106 = STYLED_ITEM ( 'NONE', ( #57 ), #251 ) ;
#107 = ORIENTED_EDGE ( 'NONE', *, *, #15, .T. ) ;
#108 = CYLINDRICAL_SURFACE ( 'NONE', #71, 0.06250000000000000000 ) ;
#109 = DIRECTION ( 'NONE',  ( 1.000000000000000000, 0.0000000000000000000, 0.0000000000000000000 ) ) ;
#110 = STYLED_ITEM ( 'NONE', ( #226 ), #179 ) ;
#111 = AXIS2_PLACEMENT_3D ( 'NONE', #204, #293, #70 ) ;
#112 = DIRECTION ( 'NONE',  ( -1.224646799147353454E-16, -0.0000000000000000000, -1.000000000000000000 ) ) ;
#113 = CARTESIAN_POINT ( 'NONE',  ( 0.05464529999999999388, 6.692119173344685866E-18, 9.478001694819074349E-34 ) ) ;
#114 = CARTESIAN_POINT ( 'NONE',  ( -0.05464530000000000776, 0.0000000000000000000, 6.692119173344688177E-18 ) ) ;
#115 = AXIS2_PLACEMENT_3D ( 'NONE', #19, #120, #101 ) ;
#116 = AXIS2_PLACEMENT_3D ( 'NONE', #68, #177, #9 ) ;
#117 = COLOUR_RGB ( '',0.7921568627450980005, 0.8196078431372548767, 0.9333333333333333481 ) ;
#118 = CARTESIAN_POINT ( 'NONE',  ( 0.05464530000000002857, 0.0000000000000000000, 0.1880000000000000282 ) ) ;
#119 =( NAMED_UNIT ( * ) PLANE_ANGLE_UNIT ( ) SI_UNIT ( $, .RADIAN. ) );
#120 = DIRECTION ( 'NONE',  ( -1.224646799147353454E-16, -0.0000000000000000000, -1.000000000000000000 ) ) ;
#121 = CONICAL_SURFACE ( 'NONE', #22, 0.04750000000000064587, 0.7853981633974457255 ) ;
#122 = DIRECTION ( 'NONE',  ( 0.0000000000000000000, 0.0000000000000000000, -1.000000000000000000 ) ) ;
#123 = LENGTH_MEASURE_WITH_UNIT ( LENGTH_MEASURE( 0.02539999999999999897 ), #78 );
#124 = ORIENTED_EDGE ( 'NONE', *, *, #165, .F. ) ;
#125 = VECTOR ( 'NONE', #42, 39.37007874015748143 ) ;
#126 = ORIENTED_EDGE ( 'NONE', *, *, #269, .F. ) ;
#127 = ADVANCED_FACE ( 'NONE', ( #61 ), #121, .T. ) ;
#128 = ADVANCED_FACE ( 'NONE', ( #287 ), #65, .F. ) ;
#129 = EDGE_LOOP ( 'NONE', ( #6, #281, #192, #275 ) ) ;
#130 =( GEOMETRIC_REPRESENTATION_CONTEXT ( 3 ) GLOBAL_UNCERTAINTY_ASSIGNED_CONTEXT ( ( #225 ) ) GLOBAL_UNIT_ASSIGNED_CONTEXT ( ( #164, #119, #47 ) ) REPRESENTATION_CONTEXT ( 'NONE', 'WORKASPACE' ) );
#131 = ORIENTED_EDGE ( 'NONE', *, *, #26, .F. ) ;
#132 = CARTESIAN_POINT ( 'NONE',  ( 0.0000000000000000000, 0.0000000000000000000, 1.500000000000000222 ) ) ;
#133 = CARTESIAN_POINT ( 'NONE',  ( 0.0000000000000000000, 0.0000000000000000000, 1.500000000000000222 ) ) ;
#134 = CLOSED_SHELL ( 'NONE', ( #20, #297, #205, #137, #74, #38, #127, #56, #237, #128 ) ) ;
#135 = EDGE_CURVE ( 'NONE', #35, #152, #178, .T. ) ;
#137 = ADVANCED_FACE ( 'NONE', ( #159 ), #41, .T. ) ;
#136 = FACE_OUTER_BOUND ( 'NONE', #145, .T. ) ;
#138 = CARTESIAN_POINT ( 'NONE',  ( 0.0000000000000000000, 0.0000000000000000000, 1.500000000000000222 ) ) ;
#139 = VECTOR ( 'NONE', #248, 39.37007874015748143 ) ;
#140 = DIRECTION ( 'NONE',  ( -1.224646799147353454E-16, -0.0000000000000000000, -1.000000000000000000 ) ) ;
#141 = CARTESIAN_POINT ( 'NONE',  ( -0.04750000000000064587, 0.0000000000000000000, 1.500000000000000222 ) ) ;
#142 = LINE ( 'NONE', #21, #139 ) ;
#143 = SURFACE_SIDE_STYLE ('',( #223 ) ) ;
#144 =( NAMED_UNIT ( * ) PLANE_ANGLE_UNIT ( ) SI_UNIT ( $, .RADIAN. ) );
#145 = EDGE_LOOP ( 'NONE', ( #194, #246, #264, #131 ) ) ;
#146 = APPLICATION_PROTOCOL_DEFINITION ( 'draft international standard', 'automotive_design', 1998, #212 ) ;
#147 = EDGE_LOOP ( 'NONE', ( #216, #285, #51, #30 ) ) ;
#148 = VECTOR ( 'NONE', #23, 39.37007874015748143 ) ;
#149 = SHAPE_DEFINITION_REPRESENTATION ( #193, #251 ) ;
#150 = EDGE_LOOP ( 'NONE', ( #283, #25 ) ) ;
#151 =( CONVERSION_BASED_UNIT ( 'INCH', #208 ) LENGTH_UNIT ( ) NAMED_UNIT ( #243 ) );
#152 = VERTEX_POINT ( 'NONE', #253 ) ;
#153 = DIRECTION ( 'NONE',  ( 1.000000000000000000, 0.0000000000000000000, 0.0000000000000000000 ) ) ;
#154 = CARTESIAN_POINT ( 'NONE',  ( 0.0000000000000000000, 0.0000000000000000000, 1.500000000000000222 ) ) ;
#155 = AXIS2_PLACEMENT_3D ( 'NONE', #268, #202, #45 ) ;
#156 = DIRECTION ( 'NONE',  ( -1.224646799147353454E-16, -0.0000000000000000000, -1.000000000000000000 ) ) ;
#157 = DIRECTION ( 'NONE',  ( 1.000000000000000000, 0.0000000000000000000, 0.0000000000000000000 ) ) ;
#158 = EDGE_CURVE ( 'NONE', #152, #35, #66, .T. ) ;
#159 = FACE_OUTER_BOUND ( 'NONE', #147, .T. ) ;
#160 = CARTESIAN_POINT ( 'NONE',  ( 0.0000000000000000000, 0.0000000000000000000, 1.500000000000000222 ) ) ;
#161 = LENGTH_MEASURE_WITH_UNIT ( LENGTH_MEASURE( 0.02539999999999999897 ), #96 );
#162 = CONICAL_SURFACE ( 'NONE', #28, 0.04750000000000064587, 0.7853981633974457255 ) ;
#163 = CARTESIAN_POINT ( 'NONE',  ( -0.05464529999999999388, 0.0000000000000000000, 1.338423834668937481E-17 ) ) ;
#164 =( CONVERSION_BASED_UNIT ( 'INCH', #161 ) LENGTH_UNIT ( ) NAMED_UNIT ( #13 ) );
#165 = EDGE_CURVE ( 'NONE', #83, #167, #291, .T. ) ;
#166 = AXIS2_PLACEMENT_3D ( 'NONE', #299, #258, #235 ) ;
#167 = VERTEX_POINT ( 'NONE', #102 ) ;
#168 = CARTESIAN_POINT ( 'NONE',  ( 0.0000000000000000000, 0.0000000000000000000, 0.0000000000000000000 ) ) ;
#169 = EDGE_LOOP ( 'NONE', ( #259, #33, #107, #32 ) ) ;
#170 =( CONVERSION_BASED_UNIT ( 'INCH', #123 ) LENGTH_UNIT ( ) NAMED_UNIT ( #18 ) );
#171 = EDGE_LOOP ( 'NONE', ( #52, #233, #279, #173 ) ) ;
#172 = DIRECTION ( 'NONE',  ( -1.224646799147353454E-16, -0.0000000000000000000, -1.000000000000000000 ) ) ;
#173 = ORIENTED_EDGE ( 'NONE', *, *, #214, .F. ) ;
#174 = DIRECTION ( 'NONE',  ( -1.000000000000000000, 0.0000000000000000000, 1.224646799147353700E-16 ) ) ;
#175 = ORIENTED_EDGE ( 'NONE', *, *, #135, .T. ) ;
#176 = CARTESIAN_POINT ( 'NONE',  ( 2.302335982397024786E-17, 0.0000000000000000000, 0.1880000000000000282 ) ) ;
#177 = DIRECTION ( 'NONE',  ( 0.0000000000000000000, 0.0000000000000000000, 1.000000000000000000 ) ) ;
#178 = CIRCLE ( 'NONE', #274, 0.04750000000000064587 ) ;
#179 = MANIFOLD_SOLID_BREP ( 'Cut-Revolve1', #134 ) ;
#180 = DIRECTION ( 'NONE',  ( 1.000000000000000000, 0.0000000000000000000, 0.0000000000000000000 ) ) ;
#181 = EDGE_CURVE ( 'NONE', #247, #63, #142, .T. ) ;
#182 = LINE ( 'NONE', #94, #44 ) ;
#183 = DIRECTION ( 'NONE',  ( 0.0000000000000000000, 0.0000000000000000000, -1.000000000000000000 ) ) ;
#184 = CARTESIAN_POINT ( 'NONE',  ( 0.06250000000000000000, 7.654042494670956004E-18, 1.500000000000000222 ) ) ;
#185 = CARTESIAN_POINT ( 'NONE',  ( -0.05464529999999998000, 6.692119173344686636E-18, 0.1880000000000000282 ) ) ;
#186 = AXIS2_PLACEMENT_3D ( 'NONE', #295, #140, #72 ) ;
#187 = CARTESIAN_POINT ( 'NONE',  ( -0.06250000000000000000, 0.0000000000000000000, 1.485000000000000764 ) ) ;
#188 = EDGE_CURVE ( 'NONE', #81, #167, #97, .T. ) ;
#189 = EDGE_CURVE ( 'NONE', #60, #63, #203, .T. ) ;
#190 = DIRECTION ( 'NONE',  ( 0.0000000000000000000, 0.0000000000000000000, -1.000000000000000000 ) ) ;
#191 =( NAMED_UNIT ( * ) PLANE_ANGLE_UNIT ( ) SI_UNIT ( $, .RADIAN. ) );
#192 = ORIENTED_EDGE ( 'NONE', *, *, #188, .T. ) ;
#193 = PRODUCT_DEFINITION_SHAPE ( 'NONE', 'NONE',  #73 ) ;
#194 = ORIENTED_EDGE ( 'NONE', *, *, #8, .T. ) ;
#195 = EDGE_LOOP ( 'NONE', ( #104, #198, #79, #231 ) ) ;
#196 = CIRCLE ( 'NONE', #2, 0.06250000000000000000 ) ;
#197 = SURFACE_STYLE_FILL_AREA ( #82 ) ;
#198 = ORIENTED_EDGE ( 'NONE', *, *, #289, .T. ) ;
#199 = FACE_OUTER_BOUND ( 'NONE', #84, .T. ) ;
#200 = FACE_OUTER_BOUND ( 'NONE', #129, .T. ) ;
#201 = CARTESIAN_POINT ( 'NONE',  ( 0.06250000000000000000, 7.654042494670956004E-18, 1.485000000000000764 ) ) ;
#202 = DIRECTION ( 'NONE',  ( 0.0000000000000000000, 0.0000000000000000000, 1.000000000000000000 ) ) ;
#203 = LINE ( 'NONE', #185, #4 ) ;
#204 = CARTESIAN_POINT ( 'NONE',  ( 0.0000000000000000000, 0.0000000000000000000, 1.485000000000000764 ) ) ;
#205 = ADVANCED_FACE ( 'NONE', ( #98 ), #162, .T. ) ;
#206 = DIRECTION ( 'NONE',  ( 1.000000000000000000, 0.0000000000000000000, 0.0000000000000000000 ) ) ;
#207 = EDGE_CURVE ( 'NONE', #35, #247, #270, .T. ) ;
#208 = LENGTH_MEASURE_WITH_UNIT ( LENGTH_MEASURE( 0.02539999999999999897 ), #29 );
#209 = MECHANICAL_DESIGN_GEOMETRIC_PRESENTATION_REPRESENTATION (  '', ( #110 ), #130 ) ;
#210 = CARTESIAN_POINT ( 'NONE',  ( 2.302335982397024786E-17, 0.0000000000000000000, 0.1880000000000000282 ) ) ;
#211 = VERTEX_POINT ( 'NONE', #163 ) ;
#212 = APPLICATION_CONTEXT ( 'automotive_design' ) ;
#213 = FILL_AREA_STYLE_COLOUR ( '', #117 ) ;
#214 = EDGE_CURVE ( 'NONE', #83, #247, #286, .T. ) ;
#215 = AXIS2_PLACEMENT_3D ( 'NONE', #138, #222, #294 ) ;
#216 = ORIENTED_EDGE ( 'NONE', *, *, #220, .T. ) ;
#217 = DIRECTION ( 'NONE',  ( -1.224646799147353454E-16, -0.0000000000000000000, -1.000000000000000000 ) ) ;
#218 = DIRECTION ( 'NONE',  ( -1.224646799147353454E-16, -0.0000000000000000000, -1.000000000000000000 ) ) ;
#219 = CARTESIAN_POINT ( 'NONE',  ( 2.847869806807417895E-17, 0.0000000000000000000, 0.2325462173085509621 ) ) ;
#220 = EDGE_CURVE ( 'NONE', #247, #83, #234, .T. ) ;
#221 = CARTESIAN_POINT ( 'NONE',  ( 0.05464530000000000776, 6.692119173344686636E-18, -6.692119173344688177E-18 ) ) ;
#222 = DIRECTION ( 'NONE',  ( -0.0000000000000000000, -0.0000000000000000000, -1.000000000000000000 ) ) ;
#223 = SURFACE_STYLE_FILL_AREA ( #17 ) ;
#224 = EDGE_CURVE ( 'NONE', #211, #58, #10, .T. ) ;
#225 = UNCERTAINTY_MEASURE_WITH_UNIT (LENGTH_MEASURE( 1.000000000000000082E-05 ), #164, 'distance_accuracy_value', 'NONE');
#226 = PRESENTATION_STYLE_ASSIGNMENT (( #69 ) ) ;
#227 = AXIS2_PLACEMENT_3D ( 'NONE', #24, #172, #31 ) ;
#228 = DIRECTION ( 'NONE',  ( -0.0000000000000000000, -0.0000000000000000000, -1.000000000000000000 ) ) ;
#229 = PRODUCT_DEFINITION_CONTEXT ( 'detailed design', #43, 'design' ) ;
#230 =( NAMED_UNIT ( * ) SI_UNIT ( $, .STERADIAN. ) SOLID_ANGLE_UNIT ( ) );
#231 = ORIENTED_EDGE ( 'NONE', *, *, #278, .F. ) ;
#232 = CARTESIAN_POINT ( 'NONE',  ( 8.195482325149204388E-34, 0.0000000000000000000, 6.692119173344687407E-18 ) ) ;
#233 = ORIENTED_EDGE ( 'NONE', *, *, #135, .F. ) ;
#234 = CIRCLE ( 'NONE', #271, 0.06250000000000000000 ) ;
#235 = DIRECTION ( 'NONE',  ( 1.000000000000000000, 0.0000000000000000000, 0.0000000000000000000 ) ) ;
#236 = ORIENTED_EDGE ( 'NONE', *, *, #181, .T. ) ;
#237 = ADVANCED_FACE ( 'NONE', ( #252 ), #46, .T. ) ;
#238 = ORIENTED_EDGE ( 'NONE', *, *, #220, .F. ) ;
#239 = SURFACE_SIDE_STYLE ('',( #197 ) ) ;
#240 = EDGE_LOOP ( 'NONE', ( #261, #3, #238, #87 ) ) ;
#241 = CIRCLE ( 'NONE', #227, 0.05464530000000000776 ) ;
#242 = CYLINDRICAL_SURFACE ( 'NONE', #16, 0.05464530000000000776 ) ;
#243 = DIMENSIONAL_EXPONENTS ( 1.000000000000000000, 0.0000000000000000000, 0.0000000000000000000, 0.0000000000000000000, 0.0000000000000000000, 0.0000000000000000000, 0.0000000000000000000 ) ;
#244 = LINE ( 'NONE', #221, #296 ) ;
#245 = DIRECTION ( 'NONE',  ( -1.000000000000000000, 0.0000000000000000000, 1.224646799147353454E-16 ) ) ;
#246 = ORIENTED_EDGE ( 'NONE', *, *, #36, .T. ) ;
#247 = VERTEX_POINT ( 'NONE', #187 ) ;
#248 = DIRECTION ( 'NONE',  ( -0.0000000000000000000, -0.0000000000000000000, -1.000000000000000000 ) ) ;
#249 = DIRECTION ( 'NONE',  ( -0.1736481776669312194, 2.126576849575783625E-17, 0.9848077530122080203 ) ) ;
#250 = PRESENTATION_LAYER_ASSIGNMENT (  '', '', ( #110 ) ) ;
#251 = ADVANCED_BREP_SHAPE_REPRESENTATION ( 'Micro_SEM-109-04X', ( #179, #292 ), #80 ) ;
#252 = FACE_OUTER_BOUND ( 'NONE', #195, .T. ) ;
#253 = CARTESIAN_POINT ( 'NONE',  ( 0.04750000000000064587, 6.735557395310482421E-18, 1.500000000000000222 ) ) ;
#254 = DIRECTION ( 'NONE',  ( -1.000000000000000000, 0.0000000000000000000, 0.0000000000000000000 ) ) ;
#255 = DIRECTION ( 'NONE',  ( 1.000000000000000000, 0.0000000000000000000, 0.0000000000000000000 ) ) ;
#256 = EDGE_LOOP ( 'NONE', ( #124, #257, #236, #126 ) ) ;
#257 = ORIENTED_EDGE ( 'NONE', *, *, #214, .T. ) ;
#258 = DIRECTION ( 'NONE',  ( -1.224646799147353454E-16, -0.0000000000000000000, -1.000000000000000000 ) ) ;
#259 = ORIENTED_EDGE ( 'NONE', *, *, #8, .F. ) ;
#260 = CIRCLE ( 'NONE', #91, 0.05464530000000000776 ) ;
#261 = ORIENTED_EDGE ( 'NONE', *, *, #158, .F. ) ;
#262 = DIRECTION ( 'NONE',  ( -0.0000000000000000000, -0.0000000000000000000, -1.000000000000000000 ) ) ;
#263 = COLOUR_RGB ( '',0.7921568627450980005, 0.8196078431372548767, 0.9333333333333333481 ) ;
#264 = ORIENTED_EDGE ( 'NONE', *, *, #224, .F. ) ;
#265 = DIRECTION ( 'NONE',  ( 0.0000000000000000000, 0.0000000000000000000, 1.000000000000000000 ) ) ;
#266 = DIRECTION ( 'NONE',  ( 0.7071067811865456854, 8.659560562354911904E-17, -0.7071067811865493491 ) ) ;
#267 = DIRECTION ( 'NONE',  ( -1.000000000000000000, 0.0000000000000000000, 0.0000000000000000000 ) ) ;
#268 = CARTESIAN_POINT ( 'NONE',  ( 0.0000000000000000000, 0.0000000000000000000, 1.500000000000000222 ) ) ;
#269 = EDGE_CURVE ( 'NONE', #167, #63, #273, .T. ) ;
#270 = LINE ( 'NONE', #141, #148 ) ;
#271 = AXIS2_PLACEMENT_3D ( 'NONE', #75, #122, #206 ) ;
#272 = UNCERTAINTY_MEASURE_WITH_UNIT (LENGTH_MEASURE( 1.000000000000000082E-05 ), #170, 'distance_accuracy_value', 'NONE');
#273 = CIRCLE ( 'NONE', #166, 0.06250000000000000000 ) ;
#274 = AXIS2_PLACEMENT_3D ( 'NONE', #160, #265, #157 ) ;
#275 = ORIENTED_EDGE ( 'NONE', *, *, #269, .T. ) ;
#276 = PRODUCT ( 'Micro_SEM-109-04X', 'Micro_SEM-109-04X', '', ( #105 ) ) ;
#277 = APPLICATION_PROTOCOL_DEFINITION ( 'draft international standard', 'automotive_design', 1998, #43 ) ;
#278 = EDGE_CURVE ( 'NONE', #58, #211, #50, .T. ) ;
#279 = ORIENTED_EDGE ( 'NONE', *, *, #207, .T. ) ;
#280 = SURFACE_STYLE_USAGE ( .BOTH. , #239 ) ;
#281 = ORIENTED_EDGE ( 'NONE', *, *, #289, .F. ) ;
#282 = CONICAL_SURFACE ( 'NONE', #34, 0.05464530000000000776, 0.1745329251994339192 ) ;
#283 = ORIENTED_EDGE ( 'NONE', *, *, #224, .T. ) ;
#284 = CARTESIAN_POINT ( 'NONE',  ( -0.05464529999999998000, 7.173080834007822861E-18, 0.1880000000000000282 ) ) ;
#285 = ORIENTED_EDGE ( 'NONE', *, *, #165, .T. ) ;
#286 = CIRCLE ( 'NONE', #111, 0.06250000000000000000 ) ;
#287 = FACE_OUTER_BOUND ( 'NONE', #150, .T. ) ;
#288 = FACE_OUTER_BOUND ( 'NONE', #256, .T. ) ;
#289 = EDGE_CURVE ( 'NONE', #81, #60, #241, .T. ) ;
#290 = DIRECTION ( 'NONE',  ( -1.224646799147353454E-16, -0.0000000000000000000, -1.000000000000000000 ) ) ;
#291 = LINE ( 'NONE', #184, #95 ) ;
#292 = AXIS2_PLACEMENT_3D ( 'NONE', #168, #53, #255 ) ;
#293 = DIRECTION ( 'NONE',  ( 0.0000000000000000000, 0.0000000000000000000, -1.000000000000000000 ) ) ;
#294 = DIRECTION ( 'NONE',  ( -1.000000000000000000, 0.0000000000000000000, 0.0000000000000000000 ) ) ;
#295 = CARTESIAN_POINT ( 'NONE',  ( 8.195482325149204388E-34, 0.0000000000000000000, 6.692119173344687407E-18 ) ) ;
#296 = VECTOR ( 'NONE', #112, 39.37007874015748143 ) ;
#297 = ADVANCED_FACE ( 'NONE', ( #103 ), #282, .T. ) ;
#298 = PRESENTATION_LAYER_ASSIGNMENT (  '', '', ( #106 ) ) ;
#299 = CARTESIAN_POINT ( 'NONE',  ( 2.847869806807417895E-17, 0.0000000000000000000, 0.2325462173085509621 ) ) ;
ENDSEC;
END-ISO-10303-21;
