ISO-10303-21;
HEADER;
FILE_DESCRIPTION (( 'STEP AP214' ),
    '1' );
FILE_NAME ('Micro_SFBM-015-9X.STEP',
    '2021-09-03T16:39:14',
    ( '' ),
    ( '' ),
    'SwSTEP 2.0',
    'SolidWorks 2020',
    '' );
FILE_SCHEMA (( 'AUTOMOTIVE_DESIGN' ));
ENDSEC;

DATA;
#1 = ORIENTED_EDGE ( 'NONE', *, *, #357, .T. ) ;
#2 = CARTESIAN_POINT ( 'NONE',  ( 0.1031100000000002570, 1.354581824536888722E-17, 2.244094000000000033 ) ) ;
#3 = AXIS2_PLACEMENT_3D ( 'NONE', #172, #155, #377 ) ;
#4 = STYLED_ITEM ( 'NONE', ( #48 ), #159 ) ;
#5 = ADVANCED_FACE ( 'NONE', ( #250 ), #85, .T. ) ;
#6 = VERTEX_POINT ( 'NONE', #2 ) ;
#7 = VECTOR ( 'NONE', #184, 39.37007874015748854 ) ;
#8 =( NAMED_UNIT ( * ) PLANE_ANGLE_UNIT ( ) SI_UNIT ( $, .RADIAN. ) );
#9 = CIRCLE ( 'NONE', #306, 0.02854350000000004800 ) ;
#10 = ORIENTED_EDGE ( 'NONE', *, *, #161, .F. ) ;
#11 = EDGE_CURVE ( 'NONE', #319, #209, #41, .T. ) ;
#12 = ORIENTED_EDGE ( 'NONE', *, *, #360, .T. ) ;
#13 = DIRECTION ( 'NONE',  ( 0.7071067811865358044, 8.659560562354788645E-17, -0.7071067811865590080 ) ) ;
#14 = AXIS2_PLACEMENT_3D ( 'NONE', #171, #83, #219 ) ;
#15 = DIRECTION ( 'NONE',  ( -1.000000000000000000, 0.0000000000000000000, 0.0000000000000000000 ) ) ;
#16 = DIRECTION ( 'NONE',  ( -0.0000000000000000000, -0.0000000000000000000, -1.000000000000000000 ) ) ;
#17 = ORIENTED_EDGE ( 'NONE', *, *, #59, .T. ) ;
#18 = LINE ( 'NONE', #366, #150 ) ;
#19 =( CONVERSION_BASED_UNIT ( 'INCH', #335 ) LENGTH_UNIT ( ) NAMED_UNIT ( #42 ) );
#20 = DIRECTION ( 'NONE',  ( 0.0000000000000000000, 0.0000000000000000000, 1.000000000000000000 ) ) ;
#21 = AXIS2_PLACEMENT_3D ( 'NONE', #212, #263, #15 ) ;
#22 = LINE ( 'NONE', #197, #74 ) ;
#23 = CARTESIAN_POINT ( 'NONE',  ( 0.0000000000000000000, 0.0000000000000000000, 0.0000000000000000000 ) ) ;
#24 = PRODUCT_CONTEXT ( 'NONE', #251, 'mechanical' ) ;
#25 = DIRECTION ( 'NONE',  ( -1.000000000000000000, 0.0000000000000000000, 0.0000000000000000000 ) ) ;
#26 = CARTESIAN_POINT ( 'NONE',  ( 0.0000000000000000000, 0.0000000000000000000, 0.3740159999999999041 ) ) ;
#27 = APPLICATION_PROTOCOL_DEFINITION ( 'draft international standard', 'automotive_design', 1998, #251 ) ;
#28 = CARTESIAN_POINT ( 'NONE',  ( 0.0000000000000000000, 0.0000000000000000000, 0.3740160000000000151 ) ) ;
#29 = CIRCLE ( 'NONE', #346, 0.1181100000000000066 ) ;
#30 = DIRECTION ( 'NONE',  ( 1.000000000000000000, 0.0000000000000000000, -0.0000000000000000000 ) ) ;
#31 = DIRECTION ( 'NONE',  ( -0.0000000000000000000, -0.0000000000000000000, -1.000000000000000000 ) ) ;
#32 = AXIS2_PLACEMENT_3D ( 'NONE', #246, #372, #245 ) ;
#33 = CARTESIAN_POINT ( 'NONE',  ( 0.02952454725000001542, 3.615714228598730888E-18, 0.05905500000000000332 ) ) ;
#34 = ORIENTED_EDGE ( 'NONE', *, *, #69, .F. ) ;
#35 = EDGE_CURVE ( 'NONE', #209, #316, #303, .T. ) ;
#36 = AXIS2_PLACEMENT_3D ( 'NONE', #266, #185, #133 ) ;
#37 = CIRCLE ( 'NONE', #318, 0.1031100000000002570 ) ;
#38 = DIRECTION ( 'NONE',  ( -0.0000000000000000000, -0.0000000000000000000, -1.000000000000000000 ) ) ;
#39 = EDGE_CURVE ( 'NONE', #322, #6, #231, .T. ) ;
#40 = COLOUR_RGB ( '',0.7921568627450980005, 0.8196078431372548767, 0.9333333333333333481 ) ;
#41 = LINE ( 'NONE', #354, #224 ) ;
#42 = DIMENSIONAL_EXPONENTS ( 1.000000000000000000, 0.0000000000000000000, 0.0000000000000000000, 0.0000000000000000000, 0.0000000000000000000, 0.0000000000000000000, 0.0000000000000000000 ) ;
#43 = CARTESIAN_POINT ( 'NONE',  ( 0.02854350000000004800, 3.495570591146253809E-18, 0.3740160000000000151 ) ) ;
#44 = CARTESIAN_POINT ( 'NONE',  ( 0.02952454725000001542, 3.615714228598730888E-18, 0.05905500000000000332 ) ) ;
#45 = AXIS2_PLACEMENT_3D ( 'NONE', #332, #220, #236 ) ;
#46 = ADVANCED_FACE ( 'NONE', ( #228 ), #145, .T. ) ;
#47 = CARTESIAN_POINT ( 'NONE',  ( 0.0000000000000000000, 0.0000000000000000000, 0.05905500000000000332 ) ) ;
#48 = PRESENTATION_STYLE_ASSIGNMENT (( #299 ) ) ;
#49 = FACE_OUTER_BOUND ( 'NONE', #65, .T. ) ;
#50 = ORIENTED_EDGE ( 'NONE', *, *, #82, .T. ) ;
#51 = EDGE_LOOP ( 'NONE', ( #99, #17 ) ) ;
#52 = CARTESIAN_POINT ( 'NONE',  ( 0.0000000000000000000, 0.0000000000000000000, 2.244094000000000033 ) ) ;
#53 = AXIS2_PLACEMENT_3D ( 'NONE', #93, #38, #234 ) ;
#54 = DIRECTION ( 'NONE',  ( 0.0000000000000000000, 0.0000000000000000000, 1.000000000000000000 ) ) ;
#55 = DIRECTION ( 'NONE',  ( -1.000000000000000000, 0.0000000000000000000, 0.0000000000000000000 ) ) ;
#56 = ORIENTED_EDGE ( 'NONE', *, *, #357, .F. ) ;
#57 = APPLICATION_CONTEXT ( 'automotive_design' ) ;
#58 = FACE_OUTER_BOUND ( 'NONE', #254, .T. ) ;
#59 = EDGE_CURVE ( 'NONE', #208, #342, #278, .T. ) ;
#60 = EDGE_LOOP ( 'NONE', ( #88, #298, #91, #198 ) ) ;
#61 = ADVANCED_FACE ( 'NONE', ( #202, #98 ), #207, .T. ) ;
#62 = DIRECTION ( 'NONE',  ( -0.0000000000000000000, -0.0000000000000000000, -1.000000000000000000 ) ) ;
#63 = AXIS2_PLACEMENT_3D ( 'NONE', #199, #369, #365 ) ;
#64 = DIMENSIONAL_EXPONENTS ( 1.000000000000000000, 0.0000000000000000000, 0.0000000000000000000, 0.0000000000000000000, 0.0000000000000000000, 0.0000000000000000000, 0.0000000000000000000 ) ;
#65 = EDGE_LOOP ( 'NONE', ( #252, #152 ) ) ;
#66 = ADVANCED_FACE ( 'NONE', ( #183 ), #173, .T. ) ;
#67 =( GEOMETRIC_REPRESENTATION_CONTEXT ( 3 ) GLOBAL_UNCERTAINTY_ASSIGNED_CONTEXT ( ( #215 ) ) GLOBAL_UNIT_ASSIGNED_CONTEXT ( ( #285, #8, #315 ) ) REPRESENTATION_CONTEXT ( 'NONE', 'WORKASPACE' ) );
#68 = ORIENTED_EDGE ( 'NONE', *, *, #331, .F. ) ;
#69 = EDGE_CURVE ( 'NONE', #344, #319, #350, .T. ) ;
#70 = CARTESIAN_POINT ( 'NONE',  ( 0.0000000000000000000, 0.0000000000000000000, 0.05905500000000000332 ) ) ;
#71 = AXIS2_PLACEMENT_3D ( 'NONE', #233, #353, #130 ) ;
#72 = DIRECTION ( 'NONE',  ( 1.000000000000000000, 0.0000000000000000000, 0.0000000000000000000 ) ) ;
#73 = DIRECTION ( 'NONE',  ( -0.0000000000000000000, -0.0000000000000000000, -1.000000000000000000 ) ) ;
#74 = VECTOR ( 'NONE', #370, 39.37007874015748143 ) ;
#75 = CONICAL_SURFACE ( 'NONE', #174, 0.1031100000000002570, 0.7853981633974318477 ) ;
#76 = LINE ( 'NONE', #44, #284 ) ;
#77 = LINE ( 'NONE', #190, #243 ) ;
#78 = ORIENTED_EDGE ( 'NONE', *, *, #297, .T. ) ;
#79 = EDGE_LOOP ( 'NONE', ( #368, #206, #348, #127 ) ) ;
#80 = DIRECTION ( 'NONE',  ( 0.0000000000000000000, 0.0000000000000000000, -1.000000000000000000 ) ) ;
#81 = DIRECTION ( 'NONE',  ( -0.0000000000000000000, -0.0000000000000000000, -1.000000000000000000 ) ) ;
#82 = EDGE_CURVE ( 'NONE', #6, #312, #131, .T. ) ;
#83 = DIRECTION ( 'NONE',  ( -0.0000000000000000000, -0.0000000000000000000, -1.000000000000000000 ) ) ;
#84 = SURFACE_STYLE_USAGE ( .BOTH. , #304 ) ;
#85 = CONICAL_SURFACE ( 'NONE', #166, 0.02952454725000001542, 0.1745329251994330311 ) ;
#86 = PRODUCT_DEFINITION ( 'UNKNOWN', '', #323, #156 ) ;
#87 = MECHANICAL_DESIGN_GEOMETRIC_PRESENTATION_REPRESENTATION (  '', ( #4 ), #67 ) ;
#88 = ORIENTED_EDGE ( 'NONE', *, *, #82, .F. ) ;
#89 = CARTESIAN_POINT ( 'NONE',  ( -0.02854350000000000984, 0.0000000000000000000, 0.06461879543311099816 ) ) ;
#90 = ADVANCED_FACE ( 'NONE', ( #217 ), #101, .T. ) ;
#91 = ORIENTED_EDGE ( 'NONE', *, *, #132, .T. ) ;
#92 = SURFACE_SIDE_STYLE ('',( #345 ) ) ;
#93 = CARTESIAN_POINT ( 'NONE',  ( 0.0000000000000000000, 0.0000000000000000000, 2.244094000000000033 ) ) ;
#94 = ADVANCED_FACE ( 'NONE', ( #134 ), #135, .T. ) ;
#95 = AXIS2_PLACEMENT_3D ( 'NONE', #26, #367, #110 ) ;
#96 =( GEOMETRIC_REPRESENTATION_CONTEXT ( 3 ) GLOBAL_UNCERTAINTY_ASSIGNED_CONTEXT ( ( #265 ) ) GLOBAL_UNIT_ASSIGNED_CONTEXT ( ( #19, #375, #195 ) ) REPRESENTATION_CONTEXT ( 'NONE', 'WORKASPACE' ) );
#97 = EDGE_CURVE ( 'NONE', #209, #342, #18, .T. ) ;
#98 = FACE_OUTER_BOUND ( 'NONE', #275, .T. ) ;
#99 = ORIENTED_EDGE ( 'NONE', *, *, #347, .T. ) ;
#100 = CIRCLE ( 'NONE', #63, 0.02952454725000001542 ) ;
#101 = CYLINDRICAL_SURFACE ( 'NONE', #321, 0.02952454725000001542 ) ;
#102 = CARTESIAN_POINT ( 'NONE',  ( -0.02854350000000003065, 0.0000000000000000000, 0.0000000000000000000 ) ) ;
#103 = CARTESIAN_POINT ( 'NONE',  ( 0.1031100000000002570, 1.262733314600838667E-17, 2.244094000000000033 ) ) ;
#104 = FILL_AREA_STYLE ('',( #267 ) ) ;
#105 = ORIENTED_EDGE ( 'NONE', *, *, #257, .T. ) ;
#106 = DIRECTION ( 'NONE',  ( -0.0000000000000000000, -0.0000000000000000000, -1.000000000000000000 ) ) ;
#107 = CARTESIAN_POINT ( 'NONE',  ( 0.0000000000000000000, 0.0000000000000000000, 0.0000000000000000000 ) ) ;
#108 = ORIENTED_EDGE ( 'NONE', *, *, #290, .F. ) ;
#109 = CARTESIAN_POINT ( 'NONE',  ( -0.1181100000000000066, 0.0000000000000000000, 2.229093999999999465 ) ) ;
#110 = DIRECTION ( 'NONE',  ( -1.000000000000000000, 0.0000000000000000000, 0.0000000000000000000 ) ) ;
#111 = FACE_OUTER_BOUND ( 'NONE', #60, .T. ) ;
#112 = EDGE_LOOP ( 'NONE', ( #1, #105, #339, #258 ) ) ;
#113 = SURFACE_STYLE_FILL_AREA ( #104 ) ;
#114 = ORIENTED_EDGE ( 'NONE', *, *, #69, .T. ) ;
#115 = CARTESIAN_POINT ( 'NONE',  ( -0.02952454725000001542, 0.0000000000000000000, 0.0000000000000000000 ) ) ;
#116 = VECTOR ( 'NONE', #193, 39.37007874015748143 ) ;
#117 = ORIENTED_EDGE ( 'NONE', *, *, #149, .F. ) ;
#118 = CARTESIAN_POINT ( 'NONE',  ( 0.0000000000000000000, 0.0000000000000000000, 2.244094000000000033 ) ) ;
#119 = DIRECTION ( 'NONE',  ( -1.000000000000000000, 0.0000000000000000000, 0.0000000000000000000 ) ) ;
#120 = EDGE_LOOP ( 'NONE', ( #56, #378 ) ) ;
#121 = FILL_AREA_STYLE ('',( #379 ) ) ;
#122 = DIRECTION ( 'NONE',  ( -0.1736481776669304145, 0.0000000000000000000, -0.9848077530122080203 ) ) ;
#123 = AXIS2_PLACEMENT_3D ( 'NONE', #169, #341, #296 ) ;
#124 = PRESENTATION_LAYER_ASSIGNMENT (  '', '', ( #4 ) ) ;
#125 = LENGTH_MEASURE_WITH_UNIT ( LENGTH_MEASURE( 0.02539999999999999897 ), #351 );
#126 = AXIS2_PLACEMENT_3D ( 'NONE', #279, #31, #119 ) ;
#127 = ORIENTED_EDGE ( 'NONE', *, *, #97, .F. ) ;
#128 = EDGE_CURVE ( 'NONE', #312, #148, #196, .T. ) ;
#129 = ORIENTED_EDGE ( 'NONE', *, *, #149, .T. ) ;
#130 = DIRECTION ( 'NONE',  ( 1.000000000000000000, 0.0000000000000000000, 0.0000000000000000000 ) ) ;
#131 = LINE ( 'NONE', #103, #204 ) ;
#132 = EDGE_CURVE ( 'NONE', #322, #148, #293, .T. ) ;
#133 = DIRECTION ( 'NONE',  ( 1.000000000000000000, 0.0000000000000000000, 0.0000000000000000000 ) ) ;
#134 = FACE_OUTER_BOUND ( 'NONE', #283, .T. ) ;
#135 = CYLINDRICAL_SURFACE ( 'NONE', #253, 0.1181100000000000066 ) ;
#136 = LENGTH_MEASURE_WITH_UNIT ( LENGTH_MEASURE( 0.02539999999999999897 ), #200 );
#137 = AXIS2_PLACEMENT_3D ( 'NONE', #359, #214, #25 ) ;
#138 = CARTESIAN_POINT ( 'NONE',  ( 0.0000000000000000000, 0.0000000000000000000, 2.244094000000000033 ) ) ;
#139 = DIRECTION ( 'NONE',  ( -0.0000000000000000000, -0.0000000000000000000, -1.000000000000000000 ) ) ;
#140 = ORIENTED_EDGE ( 'NONE', *, *, #11, .F. ) ;
#141 = PRESENTATION_STYLE_ASSIGNMENT (( #84 ) ) ;
#142 = ORIENTED_EDGE ( 'NONE', *, *, #35, .F. ) ;
#143 = DIRECTION ( 'NONE',  ( -1.000000000000000000, 0.0000000000000000000, 0.0000000000000000000 ) ) ;
#144 = CARTESIAN_POINT ( 'NONE',  ( 0.1181100000000000066, 1.446430334472939084E-17, 2.229093999999999465 ) ) ;
#145 = CYLINDRICAL_SURFACE ( 'NONE', #53, 0.1181100000000000066 ) ;
#146 = DIRECTION ( 'NONE',  ( 1.000000000000000000, 0.0000000000000000000, 0.0000000000000000000 ) ) ;
#147 = VERTEX_POINT ( 'NONE', #43 ) ;
#148 = VERTEX_POINT ( 'NONE', #109 ) ;
#149 = EDGE_CURVE ( 'NONE', #344, #316, #76, .T. ) ;
#150 = VECTOR ( 'NONE', #164, 39.37007874015748143 ) ;
#151 = AXIS2_PLACEMENT_3D ( 'NONE', #138, #277, #30 ) ;
#152 = ORIENTED_EDGE ( 'NONE', *, *, #331, .T. ) ;
#153 = ORIENTED_EDGE ( 'NONE', *, *, #132, .F. ) ;
#154 = MECHANICAL_DESIGN_GEOMETRIC_PRESENTATION_REPRESENTATION (  '', ( #182 ), #96 ) ;
#155 = DIRECTION ( 'NONE',  ( -0.0000000000000000000, -0.0000000000000000000, -1.000000000000000000 ) ) ;
#156 = PRODUCT_DEFINITION_CONTEXT ( 'detailed design', #57, 'design' ) ;
#157 = ADVANCED_FACE ( 'NONE', ( #240 ), #262, .T. ) ;
#158 = CIRCLE ( 'NONE', #95, 0.1181100000000000066 ) ;
#159 = ADVANCED_BREP_SHAPE_REPRESENTATION ( 'Micro_SFBM-015-9X', ( #261, #205 ), #229 ) ;
#160 = DIRECTION ( 'NONE',  ( -1.000000000000000000, 0.0000000000000000000, 0.0000000000000000000 ) ) ;
#161 = EDGE_CURVE ( 'NONE', #286, #313, #186, .T. ) ;
#162 = DIRECTION ( 'NONE',  ( -1.000000000000000000, 0.0000000000000000000, 0.0000000000000000000 ) ) ;
#163 = PLANE ( 'NONE',  #123 ) ;
#164 = DIRECTION ( 'NONE',  ( -0.0000000000000000000, -0.0000000000000000000, -1.000000000000000000 ) ) ;
#165 = PLANE ( 'NONE',  #151 ) ;
#166 = AXIS2_PLACEMENT_3D ( 'NONE', #70, #62, #232 ) ;
#167 =( CONVERSION_BASED_UNIT ( 'INCH', #136 ) LENGTH_UNIT ( ) NAMED_UNIT ( #64 ) );
#168 = APPLICATION_PROTOCOL_DEFINITION ( 'draft international standard', 'automotive_design', 1998, #57 ) ;
#169 = CARTESIAN_POINT ( 'NONE',  ( 0.0000000000000000000, 0.0000000000000000000, 0.0000000000000000000 ) ) ;
#170 = EDGE_LOOP ( 'NONE', ( #288, #176, #78, #10 ) ) ;
#171 = CARTESIAN_POINT ( 'NONE',  ( 0.0000000000000000000, 0.0000000000000000000, 0.06461879543311099816 ) ) ;
#172 = CARTESIAN_POINT ( 'NONE',  ( 0.0000000000000000000, 0.0000000000000000000, 0.05905500000000000332 ) ) ;
#173 = CONICAL_SURFACE ( 'NONE', #180, 0.02952454725000001542, 0.1745329251994330311 ) ;
#174 = AXIS2_PLACEMENT_3D ( 'NONE', #118, #268, #194 ) ;
#175 = ORIENTED_EDGE ( 'NONE', *, *, #297, .F. ) ;
#176 = ORIENTED_EDGE ( 'NONE', *, *, #128, .T. ) ;
#177 = EDGE_CURVE ( 'NONE', #148, #312, #29, .T. ) ;
#178 = ORIENTED_EDGE ( 'NONE', *, *, #238, .T. ) ;
#179 = UNCERTAINTY_MEASURE_WITH_UNIT (LENGTH_MEASURE( 1.000000000000000082E-05 ), #167, 'distance_accuracy_value', 'NONE');
#180 = AXIS2_PLACEMENT_3D ( 'NONE', #47, #289, #358 ) ;
#181 = ORIENTED_EDGE ( 'NONE', *, *, #161, .T. ) ;
#182 = STYLED_ITEM ( 'NONE', ( #141 ), #261 ) ;
#183 = FACE_OUTER_BOUND ( 'NONE', #201, .T. ) ;
#184 = DIRECTION ( 'NONE',  ( -0.7071067811865358044, 0.0000000000000000000, -0.7071067811865590080 ) ) ;
#185 = DIRECTION ( 'NONE',  ( 0.0000000000000000000, 0.0000000000000000000, -1.000000000000000000 ) ) ;
#186 = CIRCLE ( 'NONE', #45, 0.1181100000000000066 ) ;
#187 = AXIS2_PLACEMENT_3D ( 'NONE', #23, #16, #241 ) ;
#188 = EDGE_CURVE ( 'NONE', #247, #319, #325, .T. ) ;
#189 = DIRECTION ( 'NONE',  ( -0.0000000000000000000, -0.0000000000000000000, -1.000000000000000000 ) ) ;
#190 = CARTESIAN_POINT ( 'NONE',  ( -0.1181100000000000066, 0.0000000000000000000, 2.244094000000000033 ) ) ;
#191 = ORIENTED_EDGE ( 'NONE', *, *, #177, .F. ) ;
#192 = DIRECTION ( 'NONE',  ( -0.0000000000000000000, -0.0000000000000000000, -1.000000000000000000 ) ) ;
#193 = DIRECTION ( 'NONE',  ( -0.0000000000000000000, -0.0000000000000000000, -1.000000000000000000 ) ) ;
#194 = DIRECTION ( 'NONE',  ( -1.000000000000000000, 0.0000000000000000000, 0.0000000000000000000 ) ) ;
#195 =( NAMED_UNIT ( * ) SI_UNIT ( $, .STERADIAN. ) SOLID_ANGLE_UNIT ( ) );
#196 = CIRCLE ( 'NONE', #36, 0.1181100000000000066 ) ;
#197 = CARTESIAN_POINT ( 'NONE',  ( 0.02952454725000001542, 3.615714228598730888E-18, 0.0000000000000000000 ) ) ;
#198 = ORIENTED_EDGE ( 'NONE', *, *, #128, .F. ) ;
#199 = CARTESIAN_POINT ( 'NONE',  ( 0.0000000000000000000, 0.0000000000000000000, 0.0000000000000000000 ) ) ;
#200 =( LENGTH_UNIT ( ) NAMED_UNIT ( * ) SI_UNIT ( $, .METRE. ) );
#201 = EDGE_LOOP ( 'NONE', ( #337, #129, #142, #140 ) ) ;
#202 = FACE_BOUND ( 'NONE', #120, .T. ) ;
#203 = DIMENSIONAL_EXPONENTS ( 1.000000000000000000, 0.0000000000000000000, 0.0000000000000000000, 0.0000000000000000000, 0.0000000000000000000, 0.0000000000000000000, 0.0000000000000000000 ) ;
#204 = VECTOR ( 'NONE', #13, 39.37007874015748854 ) ;
#205 = AXIS2_PLACEMENT_3D ( 'NONE', #274, #54, #311 ) ;
#206 = ORIENTED_EDGE ( 'NONE', *, *, #210, .T. ) ;
#207 = PLANE ( 'NONE',  #317 ) ;
#208 = VERTEX_POINT ( 'NONE', #300 ) ;
#209 = VERTEX_POINT ( 'NONE', #270 ) ;
#210 = EDGE_CURVE ( 'NONE', #316, #208, #22, .T. ) ;
#211 = CIRCLE ( 'NONE', #14, 0.02854350000000000984 ) ;
#212 = CARTESIAN_POINT ( 'NONE',  ( 0.0000000000000000000, 0.0000000000000000000, 0.06461879543311099816 ) ) ;
#213 = CARTESIAN_POINT ( 'NONE',  ( 0.0000000000000000000, 0.0000000000000000000, 0.0000000000000000000 ) ) ;
#214 = DIRECTION ( 'NONE',  ( -0.0000000000000000000, -0.0000000000000000000, -1.000000000000000000 ) ) ;
#215 = UNCERTAINTY_MEASURE_WITH_UNIT (LENGTH_MEASURE( 1.000000000000000082E-05 ), #285, 'distance_accuracy_value', 'NONE');
#216 = ORIENTED_EDGE ( 'NONE', *, *, #97, .T. ) ;
#217 = FACE_OUTER_BOUND ( 'NONE', #79, .T. ) ;
#218 = CARTESIAN_POINT ( 'NONE',  ( -0.02854350000000004800, 0.0000000000000000000, 0.3740160000000000151 ) ) ;
#219 = DIRECTION ( 'NONE',  ( -1.000000000000000000, 0.0000000000000000000, 0.0000000000000000000 ) ) ;
#220 = DIRECTION ( 'NONE',  ( -0.0000000000000000000, -0.0000000000000000000, -1.000000000000000000 ) ) ;
#221 = CARTESIAN_POINT ( 'NONE',  ( 0.02854350000000003065, 3.495570591146251498E-18, 0.0000000000000000000 ) ) ;
#222 =( NAMED_UNIT ( * ) PLANE_ANGLE_UNIT ( ) SI_UNIT ( $, .RADIAN. ) );
#223 = FACE_OUTER_BOUND ( 'NONE', #51, .T. ) ;
#224 = VECTOR ( 'NONE', #122, 39.37007874015748854 ) ;
#225 = ORIENTED_EDGE ( 'NONE', *, *, #290, .T. ) ;
#226 =( LENGTH_UNIT ( ) NAMED_UNIT ( * ) SI_UNIT ( $, .METRE. ) );
#227 = ADVANCED_FACE ( 'NONE', ( #307 ), #244, .T. ) ;
#228 = FACE_OUTER_BOUND ( 'NONE', #170, .T. ) ;
#229 =( GEOMETRIC_REPRESENTATION_CONTEXT ( 3 ) GLOBAL_UNCERTAINTY_ASSIGNED_CONTEXT ( ( #179 ) ) GLOBAL_UNIT_ASSIGNED_CONTEXT ( ( #167, #222, #343 ) ) REPRESENTATION_CONTEXT ( 'NONE', 'WORKASPACE' ) );
#230 = EDGE_CURVE ( 'NONE', #313, #286, #158, .T. ) ;
#231 = CIRCLE ( 'NONE', #71, 0.1031100000000002570 ) ;
#232 = DIRECTION ( 'NONE',  ( -1.000000000000000000, 0.0000000000000000000, 0.0000000000000000000 ) ) ;
#233 = CARTESIAN_POINT ( 'NONE',  ( 0.0000000000000000000, 0.0000000000000000000, 2.244094000000000033 ) ) ;
#234 = DIRECTION ( 'NONE',  ( -1.000000000000000000, 0.0000000000000000000, 0.0000000000000000000 ) ) ;
#235 = AXIS2_PLACEMENT_3D ( 'NONE', #361, #106, #237 ) ;
#236 = DIRECTION ( 'NONE',  ( -1.000000000000000000, 0.0000000000000000000, 0.0000000000000000000 ) ) ;
#237 = DIRECTION ( 'NONE',  ( -1.000000000000000000, 0.0000000000000000000, 0.0000000000000000000 ) ) ;
#238 = EDGE_CURVE ( 'NONE', #147, #247, #292, .T. ) ;
#239 = CARTESIAN_POINT ( 'NONE',  ( 0.0000000000000000000, 0.0000000000000000000, 0.3740160000000000151 ) ) ;
#240 = FACE_OUTER_BOUND ( 'NONE', #282, .T. ) ;
#241 = DIRECTION ( 'NONE',  ( -1.000000000000000000, 0.0000000000000000000, 0.0000000000000000000 ) ) ;
#242 = LINE ( 'NONE', #334, #364 ) ;
#243 = VECTOR ( 'NONE', #362, 39.37007874015748143 ) ;
#244 = CYLINDRICAL_SURFACE ( 'NONE', #248, 0.02854350000000003065 ) ;
#245 = DIRECTION ( 'NONE',  ( -1.000000000000000000, 0.0000000000000000000, 0.0000000000000000000 ) ) ;
#246 = CARTESIAN_POINT ( 'NONE',  ( 0.0000000000000000000, 0.0000000000000000000, 2.244094000000000033 ) ) ;
#247 = VERTEX_POINT ( 'NONE', #218 ) ;
#248 = AXIS2_PLACEMENT_3D ( 'NONE', #107, #81, #273 ) ;
#249 = ADVANCED_FACE ( 'NONE', ( #223 ), #163, .F. ) ;
#250 = FACE_OUTER_BOUND ( 'NONE', #376, .T. ) ;
#251 = APPLICATION_CONTEXT ( 'automotive_design' ) ;
#252 = ORIENTED_EDGE ( 'NONE', *, *, #39, .T. ) ;
#253 = AXIS2_PLACEMENT_3D ( 'NONE', #324, #73, #160 ) ;
#254 = EDGE_LOOP ( 'NONE', ( #68, #50, #191, #153 ) ) ;
#255 = CONICAL_SURFACE ( 'NONE', #32, 0.1031100000000002570, 0.7853981633974318477 ) ;
#256 = ORIENTED_EDGE ( 'NONE', *, *, #11, .T. ) ;
#257 = EDGE_CURVE ( 'NONE', #147, #344, #333, .T. ) ;
#258 = ORIENTED_EDGE ( 'NONE', *, *, #188, .F. ) ;
#259 = PRESENTATION_LAYER_ASSIGNMENT (  '', '', ( #182 ) ) ;
#260 = DIRECTION ( 'NONE',  ( -0.0000000000000000000, 0.0000000000000000000, -1.000000000000000000 ) ) ;
#261 = MANIFOLD_SOLID_BREP ( 'Cut-Revolve1', #374 ) ;
#262 = CYLINDRICAL_SURFACE ( 'NONE', #235, 0.02952454725000001542 ) ;
#263 = DIRECTION ( 'NONE',  ( -0.0000000000000000000, -0.0000000000000000000, -1.000000000000000000 ) ) ;
#264 = CYLINDRICAL_SURFACE ( 'NONE', #187, 0.02854350000000003065 ) ;
#265 = UNCERTAINTY_MEASURE_WITH_UNIT (LENGTH_MEASURE( 1.000000000000000082E-05 ), #19, 'distance_accuracy_value', 'NONE');
#266 = CARTESIAN_POINT ( 'NONE',  ( 0.0000000000000000000, 0.0000000000000000000, 2.229093999999999465 ) ) ;
#267 = FILL_AREA_STYLE_COLOUR ( '', #40 ) ;
#268 = DIRECTION ( 'NONE',  ( 0.0000000000000000000, 0.0000000000000000000, -1.000000000000000000 ) ) ;
#269 = ADVANCED_FACE ( 'NONE', ( #272 ), #264, .T. ) ;
#270 = CARTESIAN_POINT ( 'NONE',  ( -0.02952454725000001542, 0.0000000000000000000, 0.05905500000000000332 ) ) ;
#271 = CARTESIAN_POINT ( 'NONE',  ( -0.1031100000000002570, 0.0000000000000000000, 2.244094000000000033 ) ) ;
#272 = FACE_OUTER_BOUND ( 'NONE', #280, .T. ) ;
#273 = DIRECTION ( 'NONE',  ( -1.000000000000000000, 0.0000000000000000000, 0.0000000000000000000 ) ) ;
#274 = CARTESIAN_POINT ( 'NONE',  ( 0.0000000000000000000, 0.0000000000000000000, 0.0000000000000000000 ) ) ;
#275 = EDGE_LOOP ( 'NONE', ( #302, #181 ) ) ;
#276 = DIRECTION ( 'NONE',  ( -0.0000000000000000000, -0.0000000000000000000, -1.000000000000000000 ) ) ;
#277 = DIRECTION ( 'NONE',  ( 0.0000000000000000000, 0.0000000000000000000, 1.000000000000000000 ) ) ;
#278 = CIRCLE ( 'NONE', #126, 0.02952454725000001542 ) ;
#279 = CARTESIAN_POINT ( 'NONE',  ( 0.0000000000000000000, 0.0000000000000000000, 0.0000000000000000000 ) ) ;
#280 = EDGE_LOOP ( 'NONE', ( #320, #178, #308, #34 ) ) ;
#281 = COLOUR_RGB ( '',0.7921568627450980005, 0.8196078431372548767, 0.9333333333333333481 ) ;
#282 = EDGE_LOOP ( 'NONE', ( #373, #225, #216, #349 ) ) ;
#283 = EDGE_LOOP ( 'NONE', ( #330, #12, #352, #175 ) ) ;
#284 = VECTOR ( 'NONE', #295, 39.37007874015748854 ) ;
#285 =( CONVERSION_BASED_UNIT ( 'INCH', #125 ) LENGTH_UNIT ( ) NAMED_UNIT ( #203 ) );
#286 = VERTEX_POINT ( 'NONE', #301 ) ;
#287 = PRODUCT_RELATED_PRODUCT_CATEGORY ( 'part', '', ( #294 ) ) ;
#288 = ORIENTED_EDGE ( 'NONE', *, *, #360, .F. ) ;
#289 = DIRECTION ( 'NONE',  ( -0.0000000000000000000, -0.0000000000000000000, -1.000000000000000000 ) ) ;
#290 = EDGE_CURVE ( 'NONE', #316, #209, #340, .T. ) ;
#291 = CARTESIAN_POINT ( 'NONE',  ( 0.02854350000000004800, 0.0000000000000000000, 0.3740160000000000151 ) ) ;
#292 = CIRCLE ( 'NONE', #326, 0.02854350000000004800 ) ;
#293 = LINE ( 'NONE', #327, #7 ) ;
#294 = PRODUCT ( 'Micro_SFBM-015-9X', 'Micro_SFBM-015-9X', '', ( #24 ) ) ;
#295 = DIRECTION ( 'NONE',  ( 0.1736481776669304145, 2.126576849575772531E-17, -0.9848077530122080203 ) ) ;
#296 = DIRECTION ( 'NONE',  ( 1.000000000000000000, 0.0000000000000000000, -0.0000000000000000000 ) ) ;
#297 = EDGE_CURVE ( 'NONE', #148, #313, #77, .T. ) ;
#298 = ORIENTED_EDGE ( 'NONE', *, *, #39, .F. ) ;
#299 = SURFACE_STYLE_USAGE ( .BOTH. , #92 ) ;
#300 = CARTESIAN_POINT ( 'NONE',  ( 0.02952454725000001542, 3.615714228598730888E-18, 0.0000000000000000000 ) ) ;
#301 = CARTESIAN_POINT ( 'NONE',  ( 0.1181100000000000066, 1.446430334472939084E-17, 0.3740159999999999041 ) ) ;
#302 = ORIENTED_EDGE ( 'NONE', *, *, #230, .T. ) ;
#303 = CIRCLE ( 'NONE', #3, 0.02952454725000001542 ) ;
#304 = SURFACE_SIDE_STYLE ('',( #113 ) ) ;
#305 = CARTESIAN_POINT ( 'NONE',  ( 0.02854350000000000984, 3.555642409872490423E-18, 0.06461879543311099816 ) ) ;
#306 = AXIS2_PLACEMENT_3D ( 'NONE', #28, #139, #143 ) ;
#307 = FACE_OUTER_BOUND ( 'NONE', #112, .T. ) ;
#308 = ORIENTED_EDGE ( 'NONE', *, *, #188, .T. ) ;
#309 = ADVANCED_FACE ( 'NONE', ( #49 ), #165, .T. ) ;
#310 = CARTESIAN_POINT ( 'NONE',  ( -0.1181100000000000066, 0.0000000000000000000, 0.3740159999999999041 ) ) ;
#311 = DIRECTION ( 'NONE',  ( 1.000000000000000000, 0.0000000000000000000, 0.0000000000000000000 ) ) ;
#312 = VERTEX_POINT ( 'NONE', #144 ) ;
#313 = VERTEX_POINT ( 'NONE', #310 ) ;
#314 = ADVANCED_FACE ( 'NONE', ( #58 ), #255, .T. ) ;
#315 =( NAMED_UNIT ( * ) SI_UNIT ( $, .STERADIAN. ) SOLID_ANGLE_UNIT ( ) );
#316 = VERTEX_POINT ( 'NONE', #33 ) ;
#317 = AXIS2_PLACEMENT_3D ( 'NONE', #291, #260, #162 ) ;
#318 = AXIS2_PLACEMENT_3D ( 'NONE', #52, #20, #146 ) ;
#319 = VERTEX_POINT ( 'NONE', #89 ) ;
#320 = ORIENTED_EDGE ( 'NONE', *, *, #257, .F. ) ;
#321 = AXIS2_PLACEMENT_3D ( 'NONE', #213, #189, #355 ) ;
#322 = VERTEX_POINT ( 'NONE', #271 ) ;
#323 = PRODUCT_DEFINITION_FORMATION_WITH_SPECIFIED_SOURCE ( 'ANY', '', #294, .NOT_KNOWN. ) ;
#324 = CARTESIAN_POINT ( 'NONE',  ( 0.0000000000000000000, 0.0000000000000000000, 2.244094000000000033 ) ) ;
#325 = LINE ( 'NONE', #102, #338 ) ;
#326 = AXIS2_PLACEMENT_3D ( 'NONE', #239, #329, #55 ) ;
#327 = CARTESIAN_POINT ( 'NONE',  ( -0.1031100000000002570, 0.0000000000000000000, 2.244094000000000033 ) ) ;
#328 = ADVANCED_FACE ( 'NONE', ( #111 ), #75, .T. ) ;
#329 = DIRECTION ( 'NONE',  ( -0.0000000000000000000, -0.0000000000000000000, -1.000000000000000000 ) ) ;
#330 = ORIENTED_EDGE ( 'NONE', *, *, #177, .T. ) ;
#331 = EDGE_CURVE ( 'NONE', #6, #322, #37, .T. ) ;
#332 = CARTESIAN_POINT ( 'NONE',  ( 0.0000000000000000000, 0.0000000000000000000, 0.3740159999999999041 ) ) ;
#333 = LINE ( 'NONE', #221, #116 ) ;
#334 = CARTESIAN_POINT ( 'NONE',  ( 0.1181100000000000066, 1.446430334472939084E-17, 2.244094000000000033 ) ) ;
#335 = LENGTH_MEASURE_WITH_UNIT ( LENGTH_MEASURE( 0.02539999999999999897 ), #226 );
#336 = SHAPE_DEFINITION_REPRESENTATION ( #363, #159 ) ;
#337 = ORIENTED_EDGE ( 'NONE', *, *, #371, .T. ) ;
#338 = VECTOR ( 'NONE', #192, 39.37007874015748143 ) ;
#339 = ORIENTED_EDGE ( 'NONE', *, *, #371, .F. ) ;
#340 = CIRCLE ( 'NONE', #137, 0.02952454725000001542 ) ;
#341 = DIRECTION ( 'NONE',  ( 0.0000000000000000000, 0.0000000000000000000, 1.000000000000000000 ) ) ;
#342 = VERTEX_POINT ( 'NONE', #115 ) ;
#343 =( NAMED_UNIT ( * ) SI_UNIT ( $, .STERADIAN. ) SOLID_ANGLE_UNIT ( ) );
#344 = VERTEX_POINT ( 'NONE', #305 ) ;
#345 = SURFACE_STYLE_FILL_AREA ( #121 ) ;
#346 = AXIS2_PLACEMENT_3D ( 'NONE', #356, #80, #72 ) ;
#347 = EDGE_CURVE ( 'NONE', #342, #208, #100, .T. ) ;
#348 = ORIENTED_EDGE ( 'NONE', *, *, #347, .F. ) ;
#349 = ORIENTED_EDGE ( 'NONE', *, *, #59, .F. ) ;
#350 = CIRCLE ( 'NONE', #21, 0.02854350000000000984 ) ;
#351 =( LENGTH_UNIT ( ) NAMED_UNIT ( * ) SI_UNIT ( $, .METRE. ) );
#352 = ORIENTED_EDGE ( 'NONE', *, *, #230, .F. ) ;
#353 = DIRECTION ( 'NONE',  ( 0.0000000000000000000, 0.0000000000000000000, 1.000000000000000000 ) ) ;
#354 = CARTESIAN_POINT ( 'NONE',  ( -0.02952454725000001542, 0.0000000000000000000, 0.05905500000000000332 ) ) ;
#355 = DIRECTION ( 'NONE',  ( -1.000000000000000000, 0.0000000000000000000, 0.0000000000000000000 ) ) ;
#356 = CARTESIAN_POINT ( 'NONE',  ( 0.0000000000000000000, 0.0000000000000000000, 2.229093999999999465 ) ) ;
#357 = EDGE_CURVE ( 'NONE', #247, #147, #9, .T. ) ;
#358 = DIRECTION ( 'NONE',  ( -1.000000000000000000, 0.0000000000000000000, 0.0000000000000000000 ) ) ;
#359 = CARTESIAN_POINT ( 'NONE',  ( 0.0000000000000000000, 0.0000000000000000000, 0.05905500000000000332 ) ) ;
#360 = EDGE_CURVE ( 'NONE', #312, #286, #242, .T. ) ;
#361 = CARTESIAN_POINT ( 'NONE',  ( 0.0000000000000000000, 0.0000000000000000000, 0.0000000000000000000 ) ) ;
#362 = DIRECTION ( 'NONE',  ( -0.0000000000000000000, -0.0000000000000000000, -1.000000000000000000 ) ) ;
#363 = PRODUCT_DEFINITION_SHAPE ( 'NONE', 'NONE',  #86 ) ;
#364 = VECTOR ( 'NONE', #276, 39.37007874015748143 ) ;
#365 = DIRECTION ( 'NONE',  ( -1.000000000000000000, 0.0000000000000000000, 0.0000000000000000000 ) ) ;
#366 = CARTESIAN_POINT ( 'NONE',  ( -0.02952454725000001542, 0.0000000000000000000, 0.0000000000000000000 ) ) ;
#367 = DIRECTION ( 'NONE',  ( -0.0000000000000000000, -0.0000000000000000000, -1.000000000000000000 ) ) ;
#368 = ORIENTED_EDGE ( 'NONE', *, *, #35, .T. ) ;
#369 = DIRECTION ( 'NONE',  ( -0.0000000000000000000, -0.0000000000000000000, -1.000000000000000000 ) ) ;
#370 = DIRECTION ( 'NONE',  ( -0.0000000000000000000, -0.0000000000000000000, -1.000000000000000000 ) ) ;
#371 = EDGE_CURVE ( 'NONE', #319, #344, #211, .T. ) ;
#372 = DIRECTION ( 'NONE',  ( 0.0000000000000000000, 0.0000000000000000000, -1.000000000000000000 ) ) ;
#373 = ORIENTED_EDGE ( 'NONE', *, *, #210, .F. ) ;
#374 = CLOSED_SHELL ( 'NONE', ( #90, #227, #66, #314, #94, #46, #309, #328, #61, #5, #269, #157, #249 ) ) ;
#375 =( NAMED_UNIT ( * ) PLANE_ANGLE_UNIT ( ) SI_UNIT ( $, .RADIAN. ) );
#376 = EDGE_LOOP ( 'NONE', ( #117, #114, #256, #108 ) ) ;
#377 = DIRECTION ( 'NONE',  ( -1.000000000000000000, 0.0000000000000000000, 0.0000000000000000000 ) ) ;
#378 = ORIENTED_EDGE ( 'NONE', *, *, #238, .F. ) ;
#379 = FILL_AREA_STYLE_COLOUR ( '', #281 ) ;
ENDSEC;
END-ISO-10303-21;
