ISO-10303-21;
HEADER;
FILE_DESCRIPTION (( 'STEP AP214' ),
    '1' );
FILE_NAME ('Micro_RMEM-009-2X.STEP',
    '2021-09-01T23:49:35',
    ( '' ),
    ( '' ),
    'SwSTEP 2.0',
    'SolidWorks 2020',
    '' );
FILE_SCHEMA (( 'AUTOMOTIVE_DESIGN' ));
ENDSEC;

DATA;
#1 = CARTESIAN_POINT ( 'NONE',  ( 0.05905500000000004496, 7.232151672364700045E-18, 0.3408417587646226932 ) ) ;
#2 = SURFACE_STYLE_FILL_AREA ( #161 ) ;
#3 = ADVANCED_FACE ( 'NONE', ( #155 ), #222, .T. ) ;
#4 = CARTESIAN_POINT ( 'NONE',  ( 0.01769878350000001280, 0.0000000000000000000, 0.1062990000000000046 ) ) ;
#5 = DIRECTION ( 'NONE',  ( 0.7071067811865482389, 8.659560562354941486E-17, -0.7071067811865469066 ) ) ;
#6 = DIRECTION ( 'NONE',  ( 1.000000000000000000, 0.0000000000000000000, 0.0000000000000000000 ) ) ;
#7 = PRODUCT_DEFINITION_FORMATION_WITH_SPECIFIED_SOURCE ( 'ANY', '', #212, .NOT_KNOWN. ) ;
#8 = SURFACE_SIDE_STYLE ('',( #144 ) ) ;
#9 = CYLINDRICAL_SURFACE ( 'NONE', #136, 0.05905500000000000332 ) ;
#10 = EDGE_CURVE ( 'NONE', #229, #64, #84, .T. ) ;
#11 = CARTESIAN_POINT ( 'NONE',  ( 0.0000000000000000000, 0.0000000000000000000, 1.496062999999999921 ) ) ;
#12 = AXIS2_PLACEMENT_3D ( 'NONE', #121, #262, #245 ) ;
#13 = DIRECTION ( 'NONE',  ( 0.0000000000000000000, 0.0000000000000000000, 1.000000000000000000 ) ) ;
#14 = ORIENTED_EDGE ( 'NONE', *, *, #192, .F. ) ;
#15 = DIRECTION ( 'NONE',  ( 0.0000000000000000000, 0.0000000000000000000, 1.000000000000000000 ) ) ;
#16 = ORIENTED_EDGE ( 'NONE', *, *, #174, .T. ) ;
#17 = VERTEX_POINT ( 'NONE', #156 ) ;
#18 = ADVANCED_FACE ( 'NONE', ( #276 ), #203, .F. ) ;
#19 = ORIENTED_EDGE ( 'NONE', *, *, #204, .F. ) ;
#20 = LINE ( 'NONE', #92, #94 ) ;
#21 =( GEOMETRIC_REPRESENTATION_CONTEXT ( 3 ) GLOBAL_UNCERTAINTY_ASSIGNED_CONTEXT ( ( #198 ) ) GLOBAL_UNIT_ASSIGNED_CONTEXT ( ( #141, #96, #168 ) ) REPRESENTATION_CONTEXT ( 'NONE', 'WORKASPACE' ) );
#22 = DIRECTION ( 'NONE',  ( 1.224646799147353207E-16, 0.0000000000000000000, 1.000000000000000000 ) ) ;
#23 = COLOUR_RGB ( '',0.7921568627450980005, 0.8196078431372548767, 0.9333333333333333481 ) ;
#24 = ADVANCED_FACE ( 'NONE', ( #88 ), #38, .T. ) ;
#25 = CARTESIAN_POINT ( 'NONE',  ( 0.01769878349999999892, 2.167475856207698752E-18, -2.167475856207698752E-18 ) ) ;
#26 = AXIS2_PLACEMENT_3D ( 'NONE', #33, #250, #36 ) ;
#27 = CYLINDRICAL_SURFACE ( 'NONE', #207, 0.01769878349999999892 ) ;
#28 = APPLICATION_CONTEXT ( 'automotive_design' ) ;
#29 = CARTESIAN_POINT ( 'NONE',  ( 0.0000000000000000000, 0.0000000000000000000, 1.496062999999999921 ) ) ;
#30 = CONICAL_SURFACE ( 'NONE', #223, 0.04405499999999973326, 0.7853981633974491672 ) ;
#31 =( NAMED_UNIT ( * ) SI_UNIT ( $, .STERADIAN. ) SOLID_ANGLE_UNIT ( ) );
#32 = CARTESIAN_POINT ( 'NONE',  ( 0.0000000000000000000, 0.0000000000000000000, 0.0000000000000000000 ) ) ;
#33 = CARTESIAN_POINT ( 'NONE',  ( 4.174107688868495408E-17, 0.0000000000000000000, 0.3408417587646226932 ) ) ;
#34 = ORIENTED_EDGE ( 'NONE', *, *, #225, .F. ) ;
#35 = ORIENTED_EDGE ( 'NONE', *, *, #91, .T. ) ;
#36 = DIRECTION ( 'NONE',  ( 1.000000000000000000, 0.0000000000000000000, 0.0000000000000000000 ) ) ;
#37 =( GEOMETRIC_REPRESENTATION_CONTEXT ( 3 ) GLOBAL_UNCERTAINTY_ASSIGNED_CONTEXT ( ( #228 ) ) GLOBAL_UNIT_ASSIGNED_CONTEXT ( ( #59, #154, #31 ) ) REPRESENTATION_CONTEXT ( 'NONE', 'WORKASPACE' ) );
#38 = CYLINDRICAL_SURFACE ( 'NONE', #181, 0.05905500000000000332 ) ;
#39 = EDGE_LOOP ( 'NONE', ( #162, #65, #285, #178 ) ) ;
#40 = DIRECTION ( 'NONE',  ( 0.0000000000000000000, 0.0000000000000000000, -1.000000000000000000 ) ) ;
#41 = DIRECTION ( 'NONE',  ( 1.000000000000000000, 0.0000000000000000000, 0.0000000000000000000 ) ) ;
#42 = MECHANICAL_DESIGN_GEOMETRIC_PRESENTATION_REPRESENTATION (  '', ( #142 ), #21 ) ;
#43 = ORIENTED_EDGE ( 'NONE', *, *, #60, .F. ) ;
#44 = DIRECTION ( 'NONE',  ( 0.0000000000000000000, 0.0000000000000000000, 1.000000000000000000 ) ) ;
#45 = PRODUCT_DEFINITION_SHAPE ( 'NONE', 'NONE',  #195 ) ;
#46 = AXIS2_PLACEMENT_3D ( 'NONE', #240, #22, #191 ) ;
#47 = CIRCLE ( 'NONE', #12, 0.01769878349999999892 ) ;
#48 = DIRECTION ( 'NONE',  ( -0.7071067811865482389, 0.0000000000000000000, -0.7071067811865469066 ) ) ;
#49 = LENGTH_MEASURE_WITH_UNIT ( LENGTH_MEASURE( 0.02539999999999999897 ), #241 );
#50 = FACE_OUTER_BOUND ( 'NONE', #295, .T. ) ;
#51 = CONICAL_SURFACE ( 'NONE', #148, 0.04405499999999973326, 0.7853981633974491672 ) ;
#52 = LENGTH_MEASURE_WITH_UNIT ( LENGTH_MEASURE( 0.02539999999999999897 ), #215 );
#53 = LINE ( 'NONE', #25, #77 ) ;
#54 = EDGE_CURVE ( 'NONE', #80, #229, #257, .T. ) ;
#55 = CIRCLE ( 'NONE', #152, 0.05905500000000000332 ) ;
#56 = DIRECTION ( 'NONE',  ( -1.000000000000000000, 0.0000000000000000000, 1.224646799147353207E-16 ) ) ;
#57 = DIRECTION ( 'NONE',  ( -0.0000000000000000000, -0.0000000000000000000, -1.000000000000000000 ) ) ;
#58 = EDGE_LOOP ( 'NONE', ( #111, #254, #14, #19 ) ) ;
#59 =( CONVERSION_BASED_UNIT ( 'INCH', #52 ) LENGTH_UNIT ( ) NAMED_UNIT ( #286 ) );
#60 = EDGE_CURVE ( 'NONE', #134, #86, #119, .T. ) ;
#61 = EDGE_LOOP ( 'NONE', ( #200, #281, #35, #157 ) ) ;
#62 = CARTESIAN_POINT ( 'NONE',  ( 0.0000000000000000000, 0.0000000000000000000, 1.496062999999999921 ) ) ;
#63 = AXIS2_PLACEMENT_3D ( 'NONE', #242, #69, #120 ) ;
#64 = VERTEX_POINT ( 'NONE', #233 ) ;
#65 = ORIENTED_EDGE ( 'NONE', *, *, #163, .T. ) ;
#66 = ORIENTED_EDGE ( 'NONE', *, *, #225, .T. ) ;
#67 = AXIS2_PLACEMENT_3D ( 'NONE', #177, #40, #41 ) ;
#68 = VECTOR ( 'NONE', #167, 39.37007874015748143 ) ;
#69 = DIRECTION ( 'NONE',  ( -1.224646799147353207E-16, -0.0000000000000000000, -1.000000000000000000 ) ) ;
#70 = VERTEX_POINT ( 'NONE', #1 ) ;
#71 = AXIS2_PLACEMENT_3D ( 'NONE', #117, #172, #6 ) ;
#72 = CARTESIAN_POINT ( 'NONE',  ( 0.05905500000000000332, 7.232151672364695422E-18, 1.496062999999999921 ) ) ;
#73 = VERTEX_POINT ( 'NONE', #176 ) ;
#74 = PRODUCT_CONTEXT ( 'NONE', #79, 'mechanical' ) ;
#75 = SURFACE_STYLE_USAGE ( .BOTH. , #93 ) ;
#76 = ADVANCED_FACE ( 'NONE', ( #139 ), #275, .T. ) ;
#77 = VECTOR ( 'NONE', #118, 39.37007874015748143 ) ;
#78 = CARTESIAN_POINT ( 'NONE',  ( 0.0000000000000000000, 0.0000000000000000000, 0.0000000000000000000 ) ) ;
#79 = APPLICATION_CONTEXT ( 'automotive_design' ) ;
#80 = VERTEX_POINT ( 'NONE', #149 ) ;
#81 = AXIS2_PLACEMENT_3D ( 'NONE', #32, #87, #56 ) ;
#82 = DIRECTION ( 'NONE',  ( -1.000000000000000000, 0.0000000000000000000, 1.224646799147353207E-16 ) ) ;
#83 = CARTESIAN_POINT ( 'NONE',  ( -0.05905500000000000332, 0.0000000000000000000, 1.481062999999999574 ) ) ;
#84 = LINE ( 'NONE', #158, #101 ) ;
#85 = PRODUCT_DEFINITION_CONTEXT ( 'detailed design', #28, 'design' ) ;
#86 = VERTEX_POINT ( 'NONE', #95 ) ;
#87 = DIRECTION ( 'NONE',  ( -1.224646799147353207E-16, -0.0000000000000000000, -1.000000000000000000 ) ) ;
#88 = FACE_OUTER_BOUND ( 'NONE', #180, .T. ) ;
#89 = DIRECTION ( 'NONE',  ( 0.1736481776669313581, 0.0000000000000000000, 0.9848077530122077983 ) ) ;
#90 = COLOUR_RGB ( '',0.7921568627450980005, 0.8196078431372548767, 0.9333333333333333481 ) ;
#91 = EDGE_CURVE ( 'NONE', #273, #134, #282, .T. ) ;
#92 = CARTESIAN_POINT ( 'NONE',  ( 0.01769878350000001280, 0.0000000000000000000, 0.1062990000000000046 ) ) ;
#93 = SURFACE_SIDE_STYLE ('',( #2 ) ) ;
#94 = VECTOR ( 'NONE', #89, 39.37007874015748143 ) ;
#95 = CARTESIAN_POINT ( 'NONE',  ( 0.01769878349999999892, 2.167475856207698752E-18, 0.0000000000000000000 ) ) ;
#96 =( NAMED_UNIT ( * ) PLANE_ANGLE_UNIT ( ) SI_UNIT ( $, .RADIAN. ) );
#97 = AXIS2_PLACEMENT_3D ( 'NONE', #133, #235, #82 ) ;
#98 = FILL_AREA_STYLE_COLOUR ( '', #90 ) ;
#99 = DIRECTION ( 'NONE',  ( -1.000000000000000000, 0.0000000000000000000, 0.0000000000000000000 ) ) ;
#100 = LINE ( 'NONE', #72, #68 ) ;
#101 = VECTOR ( 'NONE', #299, 39.37007874015748143 ) ;
#102 = PRESENTATION_LAYER_ASSIGNMENT (  '', '', ( #142 ) ) ;
#103 = LINE ( 'NONE', #194, #124 ) ;
#104 = VERTEX_POINT ( 'NONE', #4 ) ;
#105 = DIRECTION ( 'NONE',  ( 1.000000000000000000, 0.0000000000000000000, 0.0000000000000000000 ) ) ;
#106 = CARTESIAN_POINT ( 'NONE',  ( 0.0000000000000000000, 0.0000000000000000000, 1.496062999999999921 ) ) ;
#107 = ORIENTED_EDGE ( 'NONE', *, *, #132, .F. ) ;
#108 =( NAMED_UNIT ( * ) SI_UNIT ( $, .STERADIAN. ) SOLID_ANGLE_UNIT ( ) );
#109 = ORIENTED_EDGE ( 'NONE', *, *, #204, .T. ) ;
#110 = ORIENTED_EDGE ( 'NONE', *, *, #213, .T. ) ;
#111 = ORIENTED_EDGE ( 'NONE', *, *, #174, .F. ) ;
#112 = ORIENTED_EDGE ( 'NONE', *, *, #163, .F. ) ;
#113 = CARTESIAN_POINT ( 'NONE',  ( 0.04405499999999973326, 5.395181473643630390E-18, 1.496062999999999921 ) ) ;
#114 = CARTESIAN_POINT ( 'NONE',  ( -0.01769878349999999892, 0.0000000000000000000, 4.334951712415397505E-18 ) ) ;
#115 = DIMENSIONAL_EXPONENTS ( 1.000000000000000000, 0.0000000000000000000, 0.0000000000000000000, 0.0000000000000000000, 0.0000000000000000000, 0.0000000000000000000, 0.0000000000000000000 ) ;
#116 = AXIS2_PLACEMENT_3D ( 'NONE', #256, #255, #230 ) ;
#117 = CARTESIAN_POINT ( 'NONE',  ( 0.0000000000000000000, 0.0000000000000000000, 0.0000000000000000000 ) ) ;
#118 = DIRECTION ( 'NONE',  ( -1.224646799147353207E-16, -0.0000000000000000000, -1.000000000000000000 ) ) ;
#119 = CIRCLE ( 'NONE', #97, 0.01769878349999999892 ) ;
#120 = DIRECTION ( 'NONE',  ( 1.000000000000000000, 0.0000000000000000000, 0.0000000000000000000 ) ) ;
#121 = CARTESIAN_POINT ( 'NONE',  ( 1.301787301025644899E-17, 0.0000000000000000000, 0.1062990000000000046 ) ) ;
#122 = ADVANCED_FACE ( 'NONE', ( #264 ), #164, .T. ) ;
#123 = DIRECTION ( 'NONE',  ( -1.000000000000000000, 0.0000000000000000000, 1.224646799147353207E-16 ) ) ;
#124 = VECTOR ( 'NONE', #153, 39.37007874015747433 ) ;
#125 = FACE_OUTER_BOUND ( 'NONE', #39, .T. ) ;
#126 = PRODUCT_RELATED_PRODUCT_CATEGORY ( 'part', '', ( #212 ) ) ;
#127 = ORIENTED_EDGE ( 'NONE', *, *, #199, .F. ) ;
#128 = ORIENTED_EDGE ( 'NONE', *, *, #287, .F. ) ;
#129 = ORIENTED_EDGE ( 'NONE', *, *, #60, .T. ) ;
#130 =( NAMED_UNIT ( * ) PLANE_ANGLE_UNIT ( ) SI_UNIT ( $, .RADIAN. ) );
#131 = ORIENTED_EDGE ( 'NONE', *, *, #54, .F. ) ;
#132 = EDGE_CURVE ( 'NONE', #273, #104, #298, .T. ) ;
#133 = CARTESIAN_POINT ( 'NONE',  ( 2.654392369533927398E-34, 0.0000000000000000000, 2.167475856207698752E-18 ) ) ;
#134 = VERTEX_POINT ( 'NONE', #114 ) ;
#135 = AXIS2_PLACEMENT_3D ( 'NONE', #190, #237, #145 ) ;
#136 = AXIS2_PLACEMENT_3D ( 'NONE', #175, #57, #270 ) ;
#137 = ORIENTED_EDGE ( 'NONE', *, *, #238, .T. ) ;
#138 = LINE ( 'NONE', #113, #265 ) ;
#139 = FACE_OUTER_BOUND ( 'NONE', #183, .T. ) ;
#140 = DIRECTION ( 'NONE',  ( -1.000000000000000000, 0.0000000000000000000, 0.0000000000000000000 ) ) ;
#141 =( CONVERSION_BASED_UNIT ( 'INCH', #49 ) LENGTH_UNIT ( ) NAMED_UNIT ( #115 ) );
#142 = STYLED_ITEM ( 'NONE', ( #166 ), #243 ) ;
#143 = CLOSED_SHELL ( 'NONE', ( #232, #122, #279, #224, #24, #3, #171, #76, #150, #18 ) ) ;
#144 = SURFACE_STYLE_FILL_AREA ( #244 ) ;
#145 = DIRECTION ( 'NONE',  ( -1.000000000000000000, 0.0000000000000000000, 0.0000000000000000000 ) ) ;
#146 = ORIENTED_EDGE ( 'NONE', *, *, #170, .F. ) ;
#147 = DIRECTION ( 'NONE',  ( -1.000000000000000000, 0.0000000000000000000, 1.224646799147353207E-16 ) ) ;
#148 = AXIS2_PLACEMENT_3D ( 'NONE', #62, #293, #140 ) ;
#149 = CARTESIAN_POINT ( 'NONE',  ( 0.05905500000000000332, 7.232151672364695422E-18, 1.481062999999999574 ) ) ;
#150 = ADVANCED_FACE ( 'NONE', ( #246 ), #27, .T. ) ;
#151 = CARTESIAN_POINT ( 'NONE',  ( 2.654392369533927398E-34, 0.0000000000000000000, 2.167475856207698752E-18 ) ) ;
#152 = AXIS2_PLACEMENT_3D ( 'NONE', #291, #173, #267 ) ;
#153 = DIRECTION ( 'NONE',  ( -0.1736481776669311639, 2.126576849575783008E-17, 0.9848077530122080203 ) ) ;
#154 =( NAMED_UNIT ( * ) PLANE_ANGLE_UNIT ( ) SI_UNIT ( $, .RADIAN. ) );
#155 = FACE_OUTER_BOUND ( 'NONE', #197, .T. ) ;
#156 = CARTESIAN_POINT ( 'NONE',  ( 0.04405499999999973326, 6.313666573004162521E-18, 1.496062999999999921 ) ) ;
#157 = ORIENTED_EDGE ( 'NONE', *, *, #213, .F. ) ;
#158 = CARTESIAN_POINT ( 'NONE',  ( -0.05905500000000000332, 0.0000000000000000000, 1.496062999999999921 ) ) ;
#159 = ORIENTED_EDGE ( 'NONE', *, *, #292, .F. ) ;
#160 = EDGE_LOOP ( 'NONE', ( #129, #110 ) ) ;
#161 = FILL_AREA_STYLE ('',( #98 ) ) ;
#162 = ORIENTED_EDGE ( 'NONE', *, *, #192, .T. ) ;
#163 = EDGE_CURVE ( 'NONE', #80, #70, #100, .T. ) ;
#164 = CONICAL_SURFACE ( 'NONE', #268, 0.01769878349999999892, 0.1745329251994338637 ) ;
#165 =( GEOMETRIC_REPRESENTATION_CONTEXT ( 3 ) GLOBAL_UNCERTAINTY_ASSIGNED_CONTEXT ( ( #283 ) ) GLOBAL_UNIT_ASSIGNED_CONTEXT ( ( #231, #130, #108 ) ) REPRESENTATION_CONTEXT ( 'NONE', 'WORKASPACE' ) );
#166 = PRESENTATION_STYLE_ASSIGNMENT (( #261 ) ) ;
#167 = DIRECTION ( 'NONE',  ( -0.0000000000000000000, -0.0000000000000000000, -1.000000000000000000 ) ) ;
#168 =( NAMED_UNIT ( * ) SI_UNIT ( $, .STERADIAN. ) SOLID_ANGLE_UNIT ( ) );
#169 = DIRECTION ( 'NONE',  ( 1.000000000000000000, 0.0000000000000000000, 0.0000000000000000000 ) ) ;
#170 = EDGE_CURVE ( 'NONE', #104, #273, #47, .T. ) ;
#171 = ADVANCED_FACE ( 'NONE', ( #50 ), #30, .T. ) ;
#172 = DIRECTION ( 'NONE',  ( 0.0000000000000000000, 0.0000000000000000000, 1.000000000000000000 ) ) ;
#173 = DIRECTION ( 'NONE',  ( 0.0000000000000000000, 0.0000000000000000000, -1.000000000000000000 ) ) ;
#174 = EDGE_CURVE ( 'NONE', #17, #73, #189, .T. ) ;
#175 = CARTESIAN_POINT ( 'NONE',  ( 0.0000000000000000000, 0.0000000000000000000, 1.496062999999999921 ) ) ;
#176 = CARTESIAN_POINT ( 'NONE',  ( -0.04405499999999973326, 0.0000000000000000000, 1.496062999999999921 ) ) ;
#177 = CARTESIAN_POINT ( 'NONE',  ( 0.0000000000000000000, 0.0000000000000000000, 1.481062999999999574 ) ) ;
#178 = ORIENTED_EDGE ( 'NONE', *, *, #10, .F. ) ;
#179 = CARTESIAN_POINT ( 'NONE',  ( -0.01769878349999998851, 4.699813764286196317E-18, 0.1062990000000000046 ) ) ;
#180 = EDGE_LOOP ( 'NONE', ( #112, #278, #296, #127 ) ) ;
#181 = AXIS2_PLACEMENT_3D ( 'NONE', #271, #205, #251 ) ;
#182 = ORIENTED_EDGE ( 'NONE', *, *, #199, .T. ) ;
#183 = EDGE_LOOP ( 'NONE', ( #34, #146, #236, #182 ) ) ;
#184 = PRESENTATION_STYLE_ASSIGNMENT (( #75 ) ) ;
#185 = STYLED_ITEM ( 'NONE', ( #184 ), #221 ) ;
#186 = DIRECTION ( 'NONE',  ( 1.224646799147353207E-16, 0.0000000000000000000, 1.000000000000000000 ) ) ;
#187 =( LENGTH_UNIT ( ) NAMED_UNIT ( * ) SI_UNIT ( $, .METRE. ) );
#188 = APPLICATION_PROTOCOL_DEFINITION ( 'draft international standard', 'automotive_design', 1998, #28 ) ;
#189 = CIRCLE ( 'NONE', #258, 0.04405499999999973326 ) ;
#190 = CARTESIAN_POINT ( 'NONE',  ( 1.301787301025644899E-17, 0.0000000000000000000, 0.1062990000000000046 ) ) ;
#191 = DIRECTION ( 'NONE',  ( 1.000000000000000000, 0.0000000000000000000, 0.0000000000000000000 ) ) ;
#192 = EDGE_CURVE ( 'NONE', #229, #80, #55, .T. ) ;
#193 = DIRECTION ( 'NONE',  ( 1.000000000000000000, 0.0000000000000000000, 0.0000000000000000000 ) ) ;
#194 = CARTESIAN_POINT ( 'NONE',  ( -0.01769878349999998851, 2.167475856207698752E-18, 0.1062990000000000046 ) ) ;
#195 = PRODUCT_DEFINITION ( 'UNKNOWN', '', #7, #85 ) ;
#196 = FACE_OUTER_BOUND ( 'NONE', #253, .T. ) ;
#197 = EDGE_LOOP ( 'NONE', ( #201, #16 ) ) ;
#198 = UNCERTAINTY_MEASURE_WITH_UNIT (LENGTH_MEASURE( 1.000000000000000082E-05 ), #141, 'distance_accuracy_value', 'NONE');
#199 = EDGE_CURVE ( 'NONE', #70, #64, #277, .T. ) ;
#200 = ORIENTED_EDGE ( 'NONE', *, *, #208, .F. ) ;
#201 = ORIENTED_EDGE ( 'NONE', *, *, #263, .T. ) ;
#202 = LENGTH_MEASURE_WITH_UNIT ( LENGTH_MEASURE( 0.02539999999999999897 ), #187 );
#203 = PLANE ( 'NONE',  #116 ) ;
#204 = EDGE_CURVE ( 'NONE', #73, #229, #290, .T. ) ;
#205 = DIRECTION ( 'NONE',  ( -0.0000000000000000000, -0.0000000000000000000, -1.000000000000000000 ) ) ;
#206 = CARTESIAN_POINT ( 'NONE',  ( -0.04405499999999973326, 0.0000000000000000000, 1.496062999999999921 ) ) ;
#207 = AXIS2_PLACEMENT_3D ( 'NONE', #78, #266, #147 ) ;
#208 = EDGE_CURVE ( 'NONE', #104, #86, #53, .T. ) ;
#209 = DIMENSIONAL_EXPONENTS ( 1.000000000000000000, 0.0000000000000000000, 0.0000000000000000000, 0.0000000000000000000, 0.0000000000000000000, 0.0000000000000000000, 0.0000000000000000000 ) ;
#210 = SHAPE_DEFINITION_REPRESENTATION ( #45, #243 ) ;
#211 = DIRECTION ( 'NONE',  ( -1.224646799147353207E-16, -0.0000000000000000000, -1.000000000000000000 ) ) ;
#212 = PRODUCT ( 'Micro_RMEM-009-2X', 'Micro_RMEM-009-2X', '', ( #74 ) ) ;
#213 = EDGE_CURVE ( 'NONE', #86, #134, #269, .T. ) ;
#214 = APPLICATION_PROTOCOL_DEFINITION ( 'draft international standard', 'automotive_design', 1998, #79 ) ;
#215 =( LENGTH_UNIT ( ) NAMED_UNIT ( * ) SI_UNIT ( $, .METRE. ) );
#216 = FILL_AREA_STYLE_COLOUR ( '', #23 ) ;
#217 = DIRECTION ( 'NONE',  ( 0.0000000000000000000, 0.0000000000000000000, -1.000000000000000000 ) ) ;
#218 = VECTOR ( 'NONE', #259, 39.37007874015748143 ) ;
#219 = PRESENTATION_LAYER_ASSIGNMENT (  '', '', ( #185 ) ) ;
#220 = AXIS2_PLACEMENT_3D ( 'NONE', #106, #13, #272 ) ;
#221 = MANIFOLD_SOLID_BREP ( 'Cut-Revolve1', #143 ) ;
#222 = PLANE ( 'NONE',  #220 ) ;
#223 = AXIS2_PLACEMENT_3D ( 'NONE', #29, #217, #99 ) ;
#224 = ADVANCED_FACE ( 'NONE', ( #125 ), #9, .T. ) ;
#225 = EDGE_CURVE ( 'NONE', #273, #64, #103, .T. ) ;
#226 = CARTESIAN_POINT ( 'NONE',  ( 0.0000000000000000000, 0.0000000000000000000, 1.496062999999999921 ) ) ;
#227 = EDGE_LOOP ( 'NONE', ( #107, #66, #137, #128 ) ) ;
#228 = UNCERTAINTY_MEASURE_WITH_UNIT (LENGTH_MEASURE( 1.000000000000000082E-05 ), #59, 'distance_accuracy_value', 'NONE');
#229 = VERTEX_POINT ( 'NONE', #83 ) ;
#230 = DIRECTION ( 'NONE',  ( 1.000000000000000000, 0.0000000000000000000, -0.0000000000000000000 ) ) ;
#231 =( CONVERSION_BASED_UNIT ( 'INCH', #202 ) LENGTH_UNIT ( ) NAMED_UNIT ( #209 ) );
#232 = ADVANCED_FACE ( 'NONE', ( #196 ), #248, .T. ) ;
#233 = CARTESIAN_POINT ( 'NONE',  ( -0.05905499999999996169, 0.0000000000000000000, 0.3408417587646226932 ) ) ;
#234 = VECTOR ( 'NONE', #48, 39.37007874015748143 ) ;
#235 = DIRECTION ( 'NONE',  ( -1.224646799147353207E-16, -0.0000000000000000000, -1.000000000000000000 ) ) ;
#236 = ORIENTED_EDGE ( 'NONE', *, *, #287, .T. ) ;
#237 = DIRECTION ( 'NONE',  ( -1.224646799147353207E-16, -0.0000000000000000000, -1.000000000000000000 ) ) ;
#238 = EDGE_CURVE ( 'NONE', #64, #70, #284, .T. ) ;
#239 = CIRCLE ( 'NONE', #247, 0.04405499999999973326 ) ;
#240 = CARTESIAN_POINT ( 'NONE',  ( 1.301787301025644899E-17, 0.0000000000000000000, 0.1062990000000000046 ) ) ;
#241 =( LENGTH_UNIT ( ) NAMED_UNIT ( * ) SI_UNIT ( $, .METRE. ) );
#242 = CARTESIAN_POINT ( 'NONE',  ( 4.174107688868495408E-17, 0.0000000000000000000, 0.3408417587646226932 ) ) ;
#243 = ADVANCED_BREP_SHAPE_REPRESENTATION ( 'Micro_RMEM-009-2X', ( #221, #71 ), #165 ) ;
#244 = FILL_AREA_STYLE ('',( #216 ) ) ;
#245 = DIRECTION ( 'NONE',  ( -1.000000000000000000, 0.0000000000000000000, 0.0000000000000000000 ) ) ;
#246 = FACE_OUTER_BOUND ( 'NONE', #61, .T. ) ;
#247 = AXIS2_PLACEMENT_3D ( 'NONE', #226, #15, #105 ) ;
#248 = CYLINDRICAL_SURFACE ( 'NONE', #81, 0.01769878349999999892 ) ;
#249 = ORIENTED_EDGE ( 'NONE', *, *, #132, .T. ) ;
#250 = DIRECTION ( 'NONE',  ( -1.224646799147353207E-16, -0.0000000000000000000, -1.000000000000000000 ) ) ;
#251 = DIRECTION ( 'NONE',  ( -1.000000000000000000, 0.0000000000000000000, 0.0000000000000000000 ) ) ;
#252 = AXIS2_PLACEMENT_3D ( 'NONE', #151, #211, #123 ) ;
#253 = EDGE_LOOP ( 'NONE', ( #249, #280, #43, #297 ) ) ;
#254 = ORIENTED_EDGE ( 'NONE', *, *, #292, .T. ) ;
#255 = DIRECTION ( 'NONE',  ( 0.0000000000000000000, 0.0000000000000000000, 1.000000000000000000 ) ) ;
#256 = CARTESIAN_POINT ( 'NONE',  ( 0.0000000000000000000, 0.0000000000000000000, 0.0000000000000000000 ) ) ;
#257 = CIRCLE ( 'NONE', #67, 0.05905500000000000332 ) ;
#258 = AXIS2_PLACEMENT_3D ( 'NONE', #11, #44, #193 ) ;
#259 = DIRECTION ( 'NONE',  ( -1.224646799147353207E-16, -0.0000000000000000000, -1.000000000000000000 ) ) ;
#260 = MECHANICAL_DESIGN_GEOMETRIC_PRESENTATION_REPRESENTATION (  '', ( #185 ), #37 ) ;
#261 = SURFACE_STYLE_USAGE ( .BOTH. , #8 ) ;
#262 = DIRECTION ( 'NONE',  ( -1.224646799147353207E-16, -0.0000000000000000000, -1.000000000000000000 ) ) ;
#263 = EDGE_CURVE ( 'NONE', #73, #17, #239, .T. ) ;
#264 = FACE_OUTER_BOUND ( 'NONE', #227, .T. ) ;
#265 = VECTOR ( 'NONE', #5, 39.37007874015748143 ) ;
#266 = DIRECTION ( 'NONE',  ( -1.224646799147353207E-16, -0.0000000000000000000, -1.000000000000000000 ) ) ;
#267 = DIRECTION ( 'NONE',  ( 1.000000000000000000, 0.0000000000000000000, 0.0000000000000000000 ) ) ;
#268 = AXIS2_PLACEMENT_3D ( 'NONE', #289, #186, #169 ) ;
#269 = CIRCLE ( 'NONE', #252, 0.01769878349999999892 ) ;
#270 = DIRECTION ( 'NONE',  ( -1.000000000000000000, 0.0000000000000000000, 0.0000000000000000000 ) ) ;
#271 = CARTESIAN_POINT ( 'NONE',  ( 0.0000000000000000000, 0.0000000000000000000, 1.496062999999999921 ) ) ;
#272 = DIRECTION ( 'NONE',  ( 1.000000000000000000, 0.0000000000000000000, -0.0000000000000000000 ) ) ;
#273 = VERTEX_POINT ( 'NONE', #179 ) ;
#274 = FACE_OUTER_BOUND ( 'NONE', #58, .T. ) ;
#275 = CONICAL_SURFACE ( 'NONE', #46, 0.01769878349999999892, 0.1745329251994338637 ) ;
#276 = FACE_OUTER_BOUND ( 'NONE', #160, .T. ) ;
#277 = CIRCLE ( 'NONE', #63, 0.05905500000000000332 ) ;
#278 = ORIENTED_EDGE ( 'NONE', *, *, #54, .T. ) ;
#279 = ADVANCED_FACE ( 'NONE', ( #274 ), #51, .T. ) ;
#280 = ORIENTED_EDGE ( 'NONE', *, *, #208, .T. ) ;
#281 = ORIENTED_EDGE ( 'NONE', *, *, #170, .T. ) ;
#282 = LINE ( 'NONE', #288, #218 ) ;
#283 = UNCERTAINTY_MEASURE_WITH_UNIT (LENGTH_MEASURE( 1.000000000000000082E-05 ), #231, 'distance_accuracy_value', 'NONE');
#284 = CIRCLE ( 'NONE', #26, 0.05905500000000000332 ) ;
#285 = ORIENTED_EDGE ( 'NONE', *, *, #238, .F. ) ;
#286 = DIMENSIONAL_EXPONENTS ( 1.000000000000000000, 0.0000000000000000000, 0.0000000000000000000, 0.0000000000000000000, 0.0000000000000000000, 0.0000000000000000000, 0.0000000000000000000 ) ;
#287 = EDGE_CURVE ( 'NONE', #104, #70, #20, .T. ) ;
#288 = CARTESIAN_POINT ( 'NONE',  ( -0.01769878349999999892, 0.0000000000000000000, 2.167475856207698752E-18 ) ) ;
#289 = CARTESIAN_POINT ( 'NONE',  ( 1.301787301025644899E-17, 0.0000000000000000000, 0.1062990000000000046 ) ) ;
#290 = LINE ( 'NONE', #206, #234 ) ;
#291 = CARTESIAN_POINT ( 'NONE',  ( 0.0000000000000000000, 0.0000000000000000000, 1.481062999999999574 ) ) ;
#292 = EDGE_CURVE ( 'NONE', #17, #80, #138, .T. ) ;
#293 = DIRECTION ( 'NONE',  ( 0.0000000000000000000, 0.0000000000000000000, -1.000000000000000000 ) ) ;
#294 = ORIENTED_EDGE ( 'NONE', *, *, #263, .F. ) ;
#295 = EDGE_LOOP ( 'NONE', ( #159, #294, #109, #131 ) ) ;
#296 = ORIENTED_EDGE ( 'NONE', *, *, #10, .T. ) ;
#297 = ORIENTED_EDGE ( 'NONE', *, *, #91, .F. ) ;
#298 = CIRCLE ( 'NONE', #135, 0.01769878349999999892 ) ;
#299 = DIRECTION ( 'NONE',  ( -0.0000000000000000000, -0.0000000000000000000, -1.000000000000000000 ) ) ;
ENDSEC;
END-ISO-10303-21;
