ISO-10303-21;
HEADER;
FILE_DESCRIPTION (( 'STEP AP214' ),
    '1' );
FILE_NAME ('00482.STEP',
    '2023-06-22T14:09:22',
    ( '' ),
    ( '' ),
    'SwSTEP 2.0',
    'SolidWorks 2023',
    '' );
FILE_SCHEMA (( 'AUTOMOTIVE_DESIGN' ));
ENDSEC;

DATA;
#1 = VERTEX_POINT ( 'NONE', #134 ) ;
#2 = DIRECTION ( 'NONE',  ( -0.000000000000000000, -1.000000000000000000, -0.000000000000000000 ) ) ;
#3 = FACE_OUTER_BOUND ( 'NONE', #55, .T. ) ;
#4 = CLOSED_SHELL ( 'NONE', ( #103, #294, #64, #31 ) ) ;
#5 = LENGTH_MEASURE_WITH_UNIT ( LENGTH_MEASURE( 0.02539999999999999897 ), #53 );
#6 = DIRECTION ( 'NONE',  ( -5.156407575357275299E-17, 1.000000000000000000, -0.000000000000000000 ) ) ;
#7 = CYLINDRICAL_SURFACE ( 'NONE', #8, 0.2500000000000000555 ) ;
#8 = AXIS2_PLACEMENT_3D ( 'NONE', #100, #6, #200 ) ;
#9 =( NAMED_UNIT ( * ) PLANE_ANGLE_UNIT ( ) SI_UNIT ( $, .RADIAN. ) );
#10 = DIRECTION ( 'NONE',  ( -5.156407575357275916E-17, 1.000000000000000000, 0.000000000000000000 ) ) ;
#11 = SURFACE_SIDE_STYLE ('',( #177 ) ) ;
#12 = CIRCLE ( 'NONE', #20, 0.2500000000000000000 ) ;
#13 =( CONVERSION_BASED_UNIT ( 'INCH', #251 ) LENGTH_UNIT ( ) NAMED_UNIT ( #190 ) );
#14 = LENGTH_MEASURE_WITH_UNIT ( LENGTH_MEASURE( 0.02539999999999999897 ), #298 );
#15 = DIRECTION ( 'NONE',  ( 5.156407575357275916E-17, -1.000000000000000000, 0.000000000000000000 ) ) ;
#16 = ADVANCED_FACE ( 'NONE', ( #203 ), #247, .T. ) ;
#17 = AXIS2_PLACEMENT_3D ( 'NONE', #265, #148, #143 ) ;
#18 = CARTESIAN_POINT ( 'NONE',  ( 0.000000000000000000, 0.000000000000000000, 0.000000000000000000 ) ) ;
#19 =( LENGTH_UNIT ( ) NAMED_UNIT ( * ) SI_UNIT ( $, .METRE. ) );
#20 = AXIS2_PLACEMENT_3D ( 'NONE', #198, #216, #244 ) ;
#21 = CARTESIAN_POINT ( 'NONE',  ( 0.2500000000000000555, 1.625000000000000000, 3.061616997868384251E-17 ) ) ;
#22 = DIMENSIONAL_EXPONENTS ( 1.000000000000000000, 0.000000000000000000, 0.000000000000000000, 0.000000000000000000, 0.000000000000000000, 0.000000000000000000, 0.000000000000000000 ) ;
#23 = DIRECTION ( 'NONE',  ( 0.000000000000000000, 0.000000000000000000, -1.000000000000000000 ) ) ;
#24 = EDGE_LOOP ( 'NONE', ( #219, #146 ) ) ;
#25 = SURFACE_STYLE_USAGE ( .BOTH. , #49 ) ;
#26 = FILL_AREA_STYLE ('',( #238 ) ) ;
#27 = COLOUR_RGB ( '',1.000000000000000000, 0.000000000000000000, 0.000000000000000000 ) ;
#28 = LINE ( 'NONE', #195, #80 ) ;
#29 = CARTESIAN_POINT ( 'NONE',  ( 3.061616997868383018E-17, 0.000000000000000000, 0.2500000000000000000 ) ) ;
#30 = SURFACE_STYLE_USAGE ( .BOTH. , #58 ) ;
#31 = ADVANCED_FACE ( 'NONE', ( #44 ), #185, .F. ) ;
#32 = ORIENTED_EDGE ( 'NONE', *, *, #223, .T. ) ;
#33 = FACE_OUTER_BOUND ( 'NONE', #299, .T. ) ;
#34 = SURFACE_STYLE_USAGE ( .BOTH. , #226 ) ;
#35 = STYLED_ITEM ( 'NONE', ( #278 ), #16 ) ;
#36 = CARTESIAN_POINT ( 'NONE',  ( 0.2500000000000000555, 4.000000000000000000, 3.061616997868384251E-17 ) ) ;
#37 =( NAMED_UNIT ( * ) SI_UNIT ( $, .STERADIAN. ) SOLID_ANGLE_UNIT ( ) );
#38 = EDGE_CURVE ( 'NONE', #60, #263, #194, .T. ) ;
#39 = ORIENTED_EDGE ( 'NONE', *, *, #99, .T. ) ;
#40 = SURFACE_STYLE_USAGE ( .BOTH. , #202 ) ;
#41 = UNCERTAINTY_MEASURE_WITH_UNIT (LENGTH_MEASURE( 1.000000000000000082E-05 ), #127, 'distance_accuracy_value', 'NONE');
#42 = PRESENTATION_STYLE_ASSIGNMENT (( #40 ) ) ;
#43 = APPLICATION_PROTOCOL_DEFINITION ( 'draft international standard', 'automotive_design', 1998, #276 ) ;
#44 = FACE_OUTER_BOUND ( 'NONE', #45, .T. ) ;
#45 = EDGE_LOOP ( 'NONE', ( #178, #199 ) ) ;
#46 = AXIS2_PLACEMENT_3D ( 'NONE', #149, #215, #266 ) ;
#47 = SURFACE_STYLE_USAGE ( .BOTH. , #54 ) ;
#48 = STYLED_ITEM ( 'NONE', ( #42 ), #170 ) ;
#49 = SURFACE_SIDE_STYLE ('',( #172 ) ) ;
#50 =( CONVERSION_BASED_UNIT ( 'INCH', #289 ) LENGTH_UNIT ( ) NAMED_UNIT ( #110 ) );
#51 = EDGE_CURVE ( 'NONE', #121, #187, #191, .T. ) ;
#52 = FILL_AREA_STYLE ('',( #93 ) ) ;
#53 =( LENGTH_UNIT ( ) NAMED_UNIT ( * ) SI_UNIT ( $, .METRE. ) );
#54 = SURFACE_SIDE_STYLE ('',( #175 ) ) ;
#55 = EDGE_LOOP ( 'NONE', ( #32, #201, #208, #125 ) ) ;
#56 = DIRECTION ( 'NONE',  ( -5.156407575357275916E-17, 1.000000000000000000, -0.000000000000000000 ) ) ;
#57 = AXIS2_PLACEMENT_3D ( 'NONE', #222, #246, #133 ) ;
#58 = SURFACE_SIDE_STYLE ('',( #196 ) ) ;
#59 =( NAMED_UNIT ( * ) PLANE_ANGLE_UNIT ( ) SI_UNIT ( $, .RADIAN. ) );
#60 = VERTEX_POINT ( 'NONE', #124 ) ;
#61 = LENGTH_MEASURE_WITH_UNIT ( LENGTH_MEASURE( 0.02539999999999999897 ), #65 );
#62 = MECHANICAL_DESIGN_GEOMETRIC_PRESENTATION_REPRESENTATION (  '', ( #35 ), #75 ) ;
#63 = CARTESIAN_POINT ( 'NONE',  ( 0.000000000000000000, 0.000000000000000000, 0.000000000000000000 ) ) ;
#64 = ADVANCED_FACE ( 'NONE', ( #33 ), #197, .T. ) ;
#65 =( LENGTH_UNIT ( ) NAMED_UNIT ( * ) SI_UNIT ( $, .METRE. ) );
#66 = EDGE_CURVE ( 'NONE', #261, #60, #145, .T. ) ;
#67 = CIRCLE ( 'NONE', #117, 0.2500000000000000000 ) ;
#68 = STYLED_ITEM ( 'NONE', ( #296 ), #235 ) ;
#69 = DIRECTION ( 'NONE',  ( 0.000000000000000000, -1.000000000000000000, -0.000000000000000000 ) ) ;
#70 = ORIENTED_EDGE ( 'NONE', *, *, #214, .T. ) ;
#71 = APPLICATION_PROTOCOL_DEFINITION ( 'draft international standard', 'automotive_design', 1998, #132 ) ;
#72 = UNCERTAINTY_MEASURE_WITH_UNIT (LENGTH_MEASURE( 1.000000000000000082E-05 ), #169, 'distance_accuracy_value', 'NONE');
#73 = CARTESIAN_POINT ( 'NONE',  ( 3.061616997868383018E-17, 0.000000000000000000, 0.2500000000000000000 ) ) ;
#74 = CYLINDRICAL_SURFACE ( 'NONE', #308, 0.2500000000000000000 ) ;
#75 =( GEOMETRIC_REPRESENTATION_CONTEXT ( 3 ) GLOBAL_UNCERTAINTY_ASSIGNED_CONTEXT ( ( #262 ) ) GLOBAL_UNIT_ASSIGNED_CONTEXT ( ( #13, #176, #106 ) ) REPRESENTATION_CONTEXT ( 'NONE', 'WORKASPACE' ) );
#76 = EDGE_LOOP ( 'NONE', ( #210, #90, #163, #285 ) ) ;
#77 = DIRECTION ( 'NONE',  ( -5.156407575357275916E-17, 1.000000000000000000, -0.000000000000000000 ) ) ;
#78 =( CONVERSION_BASED_UNIT ( 'INCH', #173 ) LENGTH_UNIT ( ) NAMED_UNIT ( #157 ) );
#79 = DIRECTION ( 'NONE',  ( -0.000000000000000000, -1.000000000000000000, -0.000000000000000000 ) ) ;
#80 = VECTOR ( 'NONE', #56, 39.37007874015748143 ) ;
#81 = CARTESIAN_POINT ( 'NONE',  ( 0.000000000000000000, 1.625000000000000000, 0.000000000000000000 ) ) ;
#82 = FILL_AREA_STYLE ('',( #218 ) ) ;
#83 = EDGE_CURVE ( 'NONE', #192, #263, #28, .T. ) ;
#84 = DIRECTION ( 'NONE',  ( 0.000000000000000000, 0.000000000000000000, -1.000000000000000000 ) ) ;
#85 =( CONVERSION_BASED_UNIT ( 'INCH', #61 ) LENGTH_UNIT ( ) NAMED_UNIT ( #22 ) );
#86 = CARTESIAN_POINT ( 'NONE',  ( -1.224646799147352714E-16, 4.000000000000000000, 0.000000000000000000 ) ) ;
#87 =( NAMED_UNIT ( * ) SI_UNIT ( $, .STERADIAN. ) SOLID_ANGLE_UNIT ( ) );
#88 = MECHANICAL_DESIGN_GEOMETRIC_PRESENTATION_REPRESENTATION (  '', ( #48 ), #232 ) ;
#89 = AXIS2_PLACEMENT_3D ( 'NONE', #239, #122, #84 ) ;
#90 = ORIENTED_EDGE ( 'NONE', *, *, #279, .T. ) ;
#91 = EDGE_CURVE ( 'NONE', #187, #95, #113, .T. ) ;
#92 = ORIENTED_EDGE ( 'NONE', *, *, #51, .F. ) ;
#93 = FILL_AREA_STYLE_COLOUR ( '', #27 ) ;
#94 = CARTESIAN_POINT ( 'NONE',  ( -1.224646799147352714E-16, 4.000000000000000000, 0.000000000000000000 ) ) ;
#95 = VERTEX_POINT ( 'NONE', #73 ) ;
#96 = PRODUCT_DEFINITION_FORMATION_WITH_SPECIFIED_SOURCE ( 'ANY', '', #254, .NOT_KNOWN. ) ;
#97 = DIRECTION ( 'NONE',  ( -0.000000000000000000, -1.000000000000000000, -0.000000000000000000 ) ) ;
#98 =( LENGTH_UNIT ( ) NAMED_UNIT ( * ) SI_UNIT ( $, .METRE. ) );
#99 = EDGE_CURVE ( 'NONE', #1, #95, #193, .T. ) ;
#100 = CARTESIAN_POINT ( 'NONE',  ( -1.224646799147352714E-16, 4.000000000000000000, 0.000000000000000000 ) ) ;
#101 =( LENGTH_UNIT ( ) NAMED_UNIT ( * ) SI_UNIT ( $, .METRE. ) );
#102 =( NAMED_UNIT ( * ) SI_UNIT ( $, .STERADIAN. ) SOLID_ANGLE_UNIT ( ) );
#103 = ADVANCED_FACE ( 'NONE', ( #3 ), #7, .T. ) ;
#104 = DIRECTION ( 'NONE',  ( 0.000000000000000000, 1.000000000000000000, 0.000000000000000000 ) ) ;
#105 = PRESENTATION_STYLE_ASSIGNMENT (( #275 ) ) ;
#106 =( NAMED_UNIT ( * ) SI_UNIT ( $, .STERADIAN. ) SOLID_ANGLE_UNIT ( ) );
#107 = SURFACE_STYLE_FILL_AREA ( #158 ) ;
#108 = MECHANICAL_DESIGN_GEOMETRIC_PRESENTATION_REPRESENTATION (  '', ( #290 ), #227 ) ;
#109 =( NAMED_UNIT ( * ) PLANE_ANGLE_UNIT ( ) SI_UNIT ( $, .RADIAN. ) );
#110 = DIMENSIONAL_EXPONENTS ( 1.000000000000000000, 0.000000000000000000, 0.000000000000000000, 0.000000000000000000, 0.000000000000000000, 0.000000000000000000, 0.000000000000000000 ) ;
#111 = DIRECTION ( 'NONE',  ( 1.000000000000000000, 5.156407575357275916E-17, 0.000000000000000000 ) ) ;
#112 = EDGE_LOOP ( 'NONE', ( #155, #307 ) ) ;
#113 = CIRCLE ( 'NONE', #46, 0.2500000000000000000 ) ;
#114 = CIRCLE ( 'NONE', #57, 0.2500000000000000000 ) ;
#115 = EDGE_CURVE ( 'NONE', #95, #187, #67, .T. ) ;
#116 = LENGTH_MEASURE_WITH_UNIT ( LENGTH_MEASURE( 0.02539999999999999897 ), #19 );
#117 = AXIS2_PLACEMENT_3D ( 'NONE', #293, #217, #297 ) ;
#118 = COLOUR_RGB ( '',0.7921568627450980005, 0.8196078431372548767, 0.9333333333333333481 ) ;
#119 = DIRECTION ( 'NONE',  ( -1.000000000000000000, 0.000000000000000000, 0.000000000000000000 ) ) ;
#120 = DIRECTION ( 'NONE',  ( 0.000000000000000000, -0.000000000000000000, 1.000000000000000000 ) ) ;
#121 = VERTEX_POINT ( 'NONE', #245 ) ;
#122 = DIRECTION ( 'NONE',  ( -0.000000000000000000, -1.000000000000000000, -0.000000000000000000 ) ) ;
#123 = PRODUCT_DEFINITION ( 'UNKNOWN', '', #96, #182 ) ;
#124 = CARTESIAN_POINT ( 'NONE',  ( -0.2500000000000002776, 4.000000000000000000, 0.000000000000000000 ) ) ;
#125 = ORIENTED_EDGE ( 'NONE', *, *, #66, .F. ) ;
#126 = DIRECTION ( 'NONE',  ( -1.000000000000000000, 0.000000000000000000, 0.000000000000000000 ) ) ;
#127 =( CONVERSION_BASED_UNIT ( 'INCH', #14 ) LENGTH_UNIT ( ) NAMED_UNIT ( #184 ) );
#128 = FILL_AREA_STYLE ('',( #151 ) ) ;
#129 = VECTOR ( 'NONE', #79, 39.37007874015748143 ) ;
#130 = AXIS2_PLACEMENT_3D ( 'NONE', #86, #224, #183 ) ;
#131 = FILL_AREA_STYLE_COLOUR ( '', #269 ) ;
#132 = APPLICATION_CONTEXT ( 'automotive_design' ) ;
#133 = DIRECTION ( 'NONE',  ( 0.000000000000000000, 0.000000000000000000, -1.000000000000000000 ) ) ;
#134 = CARTESIAN_POINT ( 'NONE',  ( 3.061616997868383018E-17, 1.625000000000000000, 0.2500000000000000000 ) ) ;
#135 = PLANE ( 'NONE',  #282 ) ;
#136 = DIRECTION ( 'NONE',  ( -0.000000000000000000, -1.000000000000000000, -0.000000000000000000 ) ) ;
#137 = ORIENTED_EDGE ( 'NONE', *, *, #140, .T. ) ;
#138 = COLOUR_RGB ( '',0.7921568627450980005, 0.8196078431372548767, 0.9333333333333333481 ) ;
#139 = CARTESIAN_POINT ( 'NONE',  ( 0.2500000000000000000, 4.000000000000000000, 0.000000000000000000 ) ) ;
#140 = EDGE_CURVE ( 'NONE', #121, #1, #159, .T. ) ;
#141 = STYLED_ITEM ( 'NONE', ( #241 ), #240 ) ;
#142 = DIRECTION ( 'NONE',  ( 1.000000000000000000, 0.000000000000000000, 0.000000000000000000 ) ) ;
#143 = DIRECTION ( 'NONE',  ( -1.000000000000000000, 0.000000000000000000, 0.000000000000000000 ) ) ;
#144 = MECHANICAL_DESIGN_GEOMETRIC_PRESENTATION_REPRESENTATION (  '', ( #206 ), #287 ) ;
#145 = LINE ( 'NONE', #295, #258 ) ;
#146 = ORIENTED_EDGE ( 'NONE', *, *, #115, .T. ) ;
#147 = CARTESIAN_POINT ( 'NONE',  ( -1.224646799147352714E-16, 4.000000000000000000, 0.000000000000000000 ) ) ;
#148 = DIRECTION ( 'NONE',  ( -5.156407575357275299E-17, 1.000000000000000000, -0.000000000000000000 ) ) ;
#149 = CARTESIAN_POINT ( 'NONE',  ( 0.000000000000000000, 0.000000000000000000, 0.000000000000000000 ) ) ;
#150 = DIRECTION ( 'NONE',  ( 0.000000000000000000, 0.000000000000000000, -1.000000000000000000 ) ) ;
#151 = FILL_AREA_STYLE_COLOUR ( '', #204 ) ;
#152 = MECHANICAL_DESIGN_GEOMETRIC_PRESENTATION_REPRESENTATION (  '', ( #141 ), #259 ) ;
#153 = DIRECTION ( 'NONE',  ( -1.000000000000000000, -5.156407575357275916E-17, 0.000000000000000000 ) ) ;
#154 = UNCERTAINTY_MEASURE_WITH_UNIT (LENGTH_MEASURE( 1.000000000000000082E-05 ), #50, 'distance_accuracy_value', 'NONE');
#155 = ORIENTED_EDGE ( 'NONE', *, *, #223, .F. ) ;
#156 = PRODUCT_RELATED_PRODUCT_CATEGORY ( 'part', '', ( #254 ) ) ;
#157 = DIMENSIONAL_EXPONENTS ( 1.000000000000000000, 0.000000000000000000, 0.000000000000000000, 0.000000000000000000, 0.000000000000000000, 0.000000000000000000, 0.000000000000000000 ) ;
#158 = FILL_AREA_STYLE ('',( #131 ) ) ;
#159 = CIRCLE ( 'NONE', #188, 0.2500000000000000000 ) ;
#160 = AXIS2_PLACEMENT_3D ( 'NONE', #18, #207, #142 ) ;
#161 = ADVANCED_FACE ( 'NONE', ( #237 ), #164, .T. ) ;
#162 = ORIENTED_EDGE ( 'NONE', *, *, #66, .T. ) ;
#163 = ORIENTED_EDGE ( 'NONE', *, *, #51, .T. ) ;
#164 = CYLINDRICAL_SURFACE ( 'NONE', #89, 0.2500000000000000000 ) ;
#165 = PRESENTATION_LAYER_ASSIGNMENT (  '', '', ( #290 ) ) ;
#166 = CIRCLE ( 'NONE', #17, 0.2500000000000000000 ) ;
#167 = AXIS2_PLACEMENT_3D ( 'NONE', #139, #15, #111 ) ;
#168 = EDGE_LOOP ( 'NONE', ( #283, #231 ) ) ;
#169 =( CONVERSION_BASED_UNIT ( 'INCH', #5 ) LENGTH_UNIT ( ) NAMED_UNIT ( #213 ) );
#170 = ADVANCED_FACE ( 'NONE', ( #252 ), #135, .T. ) ;
#171 = UNCERTAINTY_MEASURE_WITH_UNIT (LENGTH_MEASURE( 1.000000000000000082E-05 ), #260, 'distance_accuracy_value', 'NONE');
#172 = SURFACE_STYLE_FILL_AREA ( #52 ) ;
#173 = LENGTH_MEASURE_WITH_UNIT ( LENGTH_MEASURE( 0.02539999999999999897 ), #101 );
#174 = CARTESIAN_POINT ( 'NONE',  ( 0.000000000000000000, 1.625000000000000000, 0.000000000000000000 ) ) ;
#175 = SURFACE_STYLE_FILL_AREA ( #82 ) ;
#176 =( NAMED_UNIT ( * ) PLANE_ANGLE_UNIT ( ) SI_UNIT ( $, .RADIAN. ) );
#177 = SURFACE_STYLE_FILL_AREA ( #272 ) ;
#178 = ORIENTED_EDGE ( 'NONE', *, *, #38, .T. ) ;
#179 = CLOSED_SHELL ( 'NONE', ( #161, #170, #257, #16 ) ) ;
#180 = CIRCLE ( 'NONE', #130, 0.2500000000000001110 ) ;
#181 = DIMENSIONAL_EXPONENTS ( 1.000000000000000000, 0.000000000000000000, 0.000000000000000000, 0.000000000000000000, 0.000000000000000000, 0.000000000000000000, 0.000000000000000000 ) ;
#182 = PRODUCT_DEFINITION_CONTEXT ( 'detailed design', #276, 'design' ) ;
#183 = DIRECTION ( 'NONE',  ( -1.000000000000000000, 0.000000000000000000, 0.000000000000000000 ) ) ;
#185 = PLANE ( 'NONE',  #167 ) ;
#184 = DIMENSIONAL_EXPONENTS ( 1.000000000000000000, 0.000000000000000000, 0.000000000000000000, 0.000000000000000000, 0.000000000000000000, 0.000000000000000000, 0.000000000000000000 ) ;
#186 = PRODUCT_CONTEXT ( 'NONE', #132, 'mechanical' ) ;
#187 = VERTEX_POINT ( 'NONE', #233 ) ;
#188 = AXIS2_PLACEMENT_3D ( 'NONE', #174, #2, #23 ) ;
#189 = MECHANICAL_DESIGN_GEOMETRIC_PRESENTATION_REPRESENTATION (  '', ( #68 ), #309 ) ;
#190 = DIMENSIONAL_EXPONENTS ( 1.000000000000000000, 0.000000000000000000, 0.000000000000000000, 0.000000000000000000, 0.000000000000000000, 0.000000000000000000, 0.000000000000000000 ) ;
#191 = LINE ( 'NONE', #264, #220 ) ;
#192 = VERTEX_POINT ( 'NONE', #21 ) ;
#193 = LINE ( 'NONE', #29, #129 ) ;
#194 = CIRCLE ( 'NONE', #242, 0.2500000000000001110 ) ;
#195 = CARTESIAN_POINT ( 'NONE',  ( 0.2499999999999999167, 4.000000000000000000, 3.061616997868383634E-17 ) ) ;
#196 = SURFACE_STYLE_FILL_AREA ( #26 ) ;
#197 = CYLINDRICAL_SURFACE ( 'NONE', #248, 0.2500000000000000555 ) ;
#198 = CARTESIAN_POINT ( 'NONE',  ( 3.032960542342103792E-32, 1.625000000000000000, 0.000000000000000000 ) ) ;
#199 = ORIENTED_EDGE ( 'NONE', *, *, #267, .T. ) ;
#200 = DIRECTION ( 'NONE',  ( -1.000000000000000000, 0.000000000000000000, 0.000000000000000000 ) ) ;
#201 = ORIENTED_EDGE ( 'NONE', *, *, #83, .T. ) ;
#202 = SURFACE_SIDE_STYLE ('',( #107 ) ) ;
#203 = FACE_OUTER_BOUND ( 'NONE', #24, .T. ) ;
#204 = COLOUR_RGB ( '',1.000000000000000000, 0.000000000000000000, 0.000000000000000000 ) ;
#205 = UNCERTAINTY_MEASURE_WITH_UNIT (LENGTH_MEASURE( 1.000000000000000082E-05 ), #85, 'distance_accuracy_value', 'NONE');
#206 = STYLED_ITEM ( 'NONE', ( #105 ), #257 ) ;
#207 = DIRECTION ( 'NONE',  ( 0.000000000000000000, 0.000000000000000000, 1.000000000000000000 ) ) ;
#208 = ORIENTED_EDGE ( 'NONE', *, *, #38, .F. ) ;
#209 = ORIENTED_EDGE ( 'NONE', *, *, #91, .F. ) ;
#210 = ORIENTED_EDGE ( 'NONE', *, *, #99, .F. ) ;
#211 =( GEOMETRIC_REPRESENTATION_CONTEXT ( 3 ) GLOBAL_UNCERTAINTY_ASSIGNED_CONTEXT ( ( #41 ) ) GLOBAL_UNIT_ASSIGNED_CONTEXT ( ( #127, #9, #102 ) ) REPRESENTATION_CONTEXT ( 'NONE', 'WORKASPACE' ) );
#212 =( NAMED_UNIT ( * ) PLANE_ANGLE_UNIT ( ) SI_UNIT ( $, .RADIAN. ) );
#213 = DIMENSIONAL_EXPONENTS ( 1.000000000000000000, 0.000000000000000000, 0.000000000000000000, 0.000000000000000000, 0.000000000000000000, 0.000000000000000000, 0.000000000000000000 ) ;
#214 = EDGE_CURVE ( 'NONE', #192, #261, #12, .T. ) ;
#215 = DIRECTION ( 'NONE',  ( -0.000000000000000000, -1.000000000000000000, -0.000000000000000000 ) ) ;
#216 = DIRECTION ( 'NONE',  ( -5.156407575357275299E-17, 1.000000000000000000, -0.000000000000000000 ) ) ;
#217 = DIRECTION ( 'NONE',  ( -0.000000000000000000, -1.000000000000000000, -0.000000000000000000 ) ) ;
#218 = FILL_AREA_STYLE_COLOUR ( '', #118 ) ;
#219 = ORIENTED_EDGE ( 'NONE', *, *, #91, .T. ) ;
#220 = VECTOR ( 'NONE', #97, 39.37007874015748143 ) ;
#221 =( LENGTH_UNIT ( ) NAMED_UNIT ( * ) SI_UNIT ( $, .METRE. ) );
#222 = CARTESIAN_POINT ( 'NONE',  ( 0.000000000000000000, 1.625000000000000000, 0.000000000000000000 ) ) ;
#223 = EDGE_CURVE ( 'NONE', #261, #192, #166, .T. ) ;
#224 = DIRECTION ( 'NONE',  ( -5.156407575357275299E-17, 1.000000000000000000, -0.000000000000000000 ) ) ;
#225 = PRODUCT_DEFINITION_SHAPE ( 'NONE', 'NONE',  #123 ) ;
#226 = SURFACE_SIDE_STYLE ('',( #274 ) ) ;
#227 =( GEOMETRIC_REPRESENTATION_CONTEXT ( 3 ) GLOBAL_UNCERTAINTY_ASSIGNED_CONTEXT ( ( #72 ) ) GLOBAL_UNIT_ASSIGNED_CONTEXT ( ( #169, #59, #288 ) ) REPRESENTATION_CONTEXT ( 'NONE', 'WORKASPACE' ) );
#228 = PRESENTATION_LAYER_ASSIGNMENT (  '', '', ( #68 ) ) ;
#229 = COLOUR_RGB ( '',1.000000000000000000, 0.000000000000000000, 0.000000000000000000 ) ;
#230 = ADVANCED_BREP_SHAPE_REPRESENTATION ( '00482', ( #235, #240, #160 ), #211 ) ;
#231 = ORIENTED_EDGE ( 'NONE', *, *, #279, .F. ) ;
#232 =( GEOMETRIC_REPRESENTATION_CONTEXT ( 3 ) GLOBAL_UNCERTAINTY_ASSIGNED_CONTEXT ( ( #171 ) ) GLOBAL_UNIT_ASSIGNED_CONTEXT ( ( #260, #302, #234 ) ) REPRESENTATION_CONTEXT ( 'NONE', 'WORKASPACE' ) );
#233 = CARTESIAN_POINT ( 'NONE',  ( 0.000000000000000000, 0.000000000000000000, -0.2500000000000000000 ) ) ;
#234 =( NAMED_UNIT ( * ) SI_UNIT ( $, .STERADIAN. ) SOLID_ANGLE_UNIT ( ) );
#235 = MANIFOLD_SOLID_BREP ( 'Revolve - Cutting Edge', #179 ) ;
#236 =( NAMED_UNIT ( * ) SI_UNIT ( $, .STERADIAN. ) SOLID_ANGLE_UNIT ( ) );
#237 = FACE_OUTER_BOUND ( 'NONE', #284, .T. ) ;
#238 = FILL_AREA_STYLE_COLOUR ( '', #138 ) ;
#239 = CARTESIAN_POINT ( 'NONE',  ( 0.000000000000000000, 0.000000000000000000, 0.000000000000000000 ) ) ;
#240 = MANIFOLD_SOLID_BREP ( 'Revolve - Tool Body (Straight Shanked)', #4 ) ;
#241 = PRESENTATION_STYLE_ASSIGNMENT (( #47 ) ) ;
#242 = AXIS2_PLACEMENT_3D ( 'NONE', #147, #271, #126 ) ;
#243 = DIRECTION ( 'NONE',  ( -5.156407575357275299E-17, 1.000000000000000000, -0.000000000000000000 ) ) ;
#244 = DIRECTION ( 'NONE',  ( -1.000000000000000000, 0.000000000000000000, 0.000000000000000000 ) ) ;
#245 = CARTESIAN_POINT ( 'NONE',  ( 0.000000000000000000, 1.625000000000000000, -0.2500000000000000000 ) ) ;
#246 = DIRECTION ( 'NONE',  ( -0.000000000000000000, -1.000000000000000000, -0.000000000000000000 ) ) ;
#247 = PLANE ( 'NONE',  #305 ) ;
#248 = AXIS2_PLACEMENT_3D ( 'NONE', #94, #243, #119 ) ;
#249 = PRESENTATION_LAYER_ASSIGNMENT (  '', '', ( #141 ) ) ;
#250 = FACE_OUTER_BOUND ( 'NONE', #112, .T. ) ;
#251 = LENGTH_MEASURE_WITH_UNIT ( LENGTH_MEASURE( 0.02539999999999999897 ), #221 );
#252 = FACE_OUTER_BOUND ( 'NONE', #168, .T. ) ;
#253 = CARTESIAN_POINT ( 'NONE',  ( 3.323567385400236968E-34, 1.625000000000000000, 0.000000000000000000 ) ) ;
#254 = PRODUCT ( '00482', '00482', '', ( #186 ) ) ;
#255 = PRESENTATION_LAYER_ASSIGNMENT (  '', '', ( #206 ) ) ;
#256 = DIRECTION ( 'NONE',  ( 0.000000000000000000, 0.000000000000000000, -1.000000000000000000 ) ) ;
#257 = ADVANCED_FACE ( 'NONE', ( #273 ), #74, .T. ) ;
#258 = VECTOR ( 'NONE', #77, 39.37007874015748143 ) ;
#259 =( GEOMETRIC_REPRESENTATION_CONTEXT ( 3 ) GLOBAL_UNCERTAINTY_ASSIGNED_CONTEXT ( ( #154 ) ) GLOBAL_UNIT_ASSIGNED_CONTEXT ( ( #50, #301, #37 ) ) REPRESENTATION_CONTEXT ( 'NONE', 'WORKASPACE' ) );
#260 =( CONVERSION_BASED_UNIT ( 'INCH', #116 ) LENGTH_UNIT ( ) NAMED_UNIT ( #181 ) );
#261 = VERTEX_POINT ( 'NONE', #300 ) ;
#262 = UNCERTAINTY_MEASURE_WITH_UNIT (LENGTH_MEASURE( 1.000000000000000082E-05 ), #13, 'distance_accuracy_value', 'NONE');
#263 = VERTEX_POINT ( 'NONE', #36 ) ;
#264 = CARTESIAN_POINT ( 'NONE',  ( 0.000000000000000000, 0.000000000000000000, -0.2500000000000000000 ) ) ;
#265 = CARTESIAN_POINT ( 'NONE',  ( 3.032960542342103792E-32, 1.625000000000000000, 0.000000000000000000 ) ) ;
#266 = DIRECTION ( 'NONE',  ( 0.000000000000000000, 0.000000000000000000, -1.000000000000000000 ) ) ;
#267 = EDGE_CURVE ( 'NONE', #263, #60, #180, .T. ) ;
#268 = PRESENTATION_STYLE_ASSIGNMENT (( #25 ) ) ;
#269 = COLOUR_RGB ( '',1.000000000000000000, 0.000000000000000000, 0.000000000000000000 ) ;
#270 = PRESENTATION_LAYER_ASSIGNMENT (  '', '', ( #48 ) ) ;
#271 = DIRECTION ( 'NONE',  ( -5.156407575357275299E-17, 1.000000000000000000, -0.000000000000000000 ) ) ;
#272 = FILL_AREA_STYLE ('',( #292 ) ) ;
#273 = FACE_OUTER_BOUND ( 'NONE', #76, .T. ) ;
#274 = SURFACE_STYLE_FILL_AREA ( #128 ) ;
#275 = SURFACE_STYLE_USAGE ( .BOTH. , #11 ) ;
#276 = APPLICATION_CONTEXT ( 'automotive_design' ) ;
#277 = UNCERTAINTY_MEASURE_WITH_UNIT (LENGTH_MEASURE( 1.000000000000000082E-05 ), #78, 'distance_accuracy_value', 'NONE');
#278 = PRESENTATION_STYLE_ASSIGNMENT (( #34 ) ) ;
#279 = EDGE_CURVE ( 'NONE', #1, #121, #114, .T. ) ;
#280 = PLANE ( 'NONE',  #291 ) ;
#281 = CARTESIAN_POINT ( 'NONE',  ( 0.000000000000000000, 0.000000000000000000, 0.000000000000000000 ) ) ;
#282 = AXIS2_PLACEMENT_3D ( 'NONE', #81, #104, #120 ) ;
#283 = ORIENTED_EDGE ( 'NONE', *, *, #140, .F. ) ;
#284 = EDGE_LOOP ( 'NONE', ( #137, #39, #209, #92 ) ) ;
#285 = ORIENTED_EDGE ( 'NONE', *, *, #115, .F. ) ;
#286 = SHAPE_DEFINITION_REPRESENTATION ( #225, #230 ) ;
#287 =( GEOMETRIC_REPRESENTATION_CONTEXT ( 3 ) GLOBAL_UNCERTAINTY_ASSIGNED_CONTEXT ( ( #205 ) ) GLOBAL_UNIT_ASSIGNED_CONTEXT ( ( #85, #109, #87 ) ) REPRESENTATION_CONTEXT ( 'NONE', 'WORKASPACE' ) );
#288 =( NAMED_UNIT ( * ) SI_UNIT ( $, .STERADIAN. ) SOLID_ANGLE_UNIT ( ) );
#289 = LENGTH_MEASURE_WITH_UNIT ( LENGTH_MEASURE( 0.02539999999999999897 ), #98 );
#290 = STYLED_ITEM ( 'NONE', ( #268 ), #161 ) ;
#291 = AXIS2_PLACEMENT_3D ( 'NONE', #253, #10, #153 ) ;
#292 = FILL_AREA_STYLE_COLOUR ( '', #229 ) ;
#293 = CARTESIAN_POINT ( 'NONE',  ( 0.000000000000000000, 0.000000000000000000, 0.000000000000000000 ) ) ;
#294 = ADVANCED_FACE ( 'NONE', ( #250 ), #280, .F. ) ;
#295 = CARTESIAN_POINT ( 'NONE',  ( -0.2500000000000002220, 4.000000000000000000, 0.000000000000000000 ) ) ;
#296 = PRESENTATION_STYLE_ASSIGNMENT (( #30 ) ) ;
#297 = DIRECTION ( 'NONE',  ( 0.000000000000000000, 0.000000000000000000, -1.000000000000000000 ) ) ;
#298 =( LENGTH_UNIT ( ) NAMED_UNIT ( * ) SI_UNIT ( $, .METRE. ) );
#299 = EDGE_LOOP ( 'NONE', ( #304, #70, #162, #306 ) ) ;
#300 = CARTESIAN_POINT ( 'NONE',  ( -0.2500000000000000000, 1.625000000000000000, 0.000000000000000000 ) ) ;
#301 =( NAMED_UNIT ( * ) PLANE_ANGLE_UNIT ( ) SI_UNIT ( $, .RADIAN. ) );
#302 =( NAMED_UNIT ( * ) PLANE_ANGLE_UNIT ( ) SI_UNIT ( $, .RADIAN. ) );
#303 = PRESENTATION_LAYER_ASSIGNMENT (  '', '', ( #35 ) ) ;
#304 = ORIENTED_EDGE ( 'NONE', *, *, #83, .F. ) ;
#305 = AXIS2_PLACEMENT_3D ( 'NONE', #281, #69, #256 ) ;
#306 = ORIENTED_EDGE ( 'NONE', *, *, #267, .F. ) ;
#307 = ORIENTED_EDGE ( 'NONE', *, *, #214, .F. ) ;
#308 = AXIS2_PLACEMENT_3D ( 'NONE', #63, #136, #150 ) ;
#309 =( GEOMETRIC_REPRESENTATION_CONTEXT ( 3 ) GLOBAL_UNCERTAINTY_ASSIGNED_CONTEXT ( ( #277 ) ) GLOBAL_UNIT_ASSIGNED_CONTEXT ( ( #78, #212, #236 ) ) REPRESENTATION_CONTEXT ( 'NONE', 'WORKASPACE' ) );
ENDSEC;
END-ISO-10303-21;
