ISO-10303-21;
HEADER;
FILE_DESCRIPTION (( 'STEP AP214' ),
    '1' );
FILE_NAME ('01180.STEP',
    '2023-06-22T14:22:10',
    ( '' ),
    ( '' ),
    'SwSTEP 2.0',
    'SolidWorks 2023',
    '' );
FILE_SCHEMA (( 'AUTOMOTIVE_DESIGN' ));
ENDSEC;

DATA;
#1 = PRESENTATION_STYLE_ASSIGNMENT (( #104 ) ) ;
#2 = ORIENTED_EDGE ( 'NONE', *, *, #213, .F. ) ;
#3 = CIRCLE ( 'NONE', #69, 0.1249999999999999861 ) ;
#4 = CARTESIAN_POINT ( 'NONE',  ( 5.858436651022893041E-35, 1.000000000000000000, 0.000000000000000000 ) ) ;
#5 = EDGE_CURVE ( 'NONE', #265, #81, #86, .T. ) ;
#6 = UNCERTAINTY_MEASURE_WITH_UNIT (LENGTH_MEASURE( 1.000000000000000082E-05 ), #280, 'distance_accuracy_value', 'NONE');
#7 = SURFACE_STYLE_FILL_AREA ( #264 ) ;
#8 = ORIENTED_EDGE ( 'NONE', *, *, #263, .F. ) ;
#9 = DIRECTION ( 'NONE',  ( -0.000000000000000000, -1.000000000000000000, -0.000000000000000000 ) ) ;
#10 = ORIENTED_EDGE ( 'NONE', *, *, #244, .T. ) ;
#11 = EDGE_LOOP ( 'NONE', ( #267, #179, #270, #80 ) ) ;
#12 = PRESENTATION_STYLE_ASSIGNMENT (( #36 ) ) ;
#13 = LENGTH_MEASURE_WITH_UNIT ( LENGTH_MEASURE( 0.02539999999999999897 ), #94 );
#14 = FACE_OUTER_BOUND ( 'NONE', #11, .T. ) ;
#15 = CARTESIAN_POINT ( 'NONE',  ( 0.000000000000000000, 0.000000000000000000, 0.000000000000000000 ) ) ;
#16 = AXIS2_PLACEMENT_3D ( 'NONE', #75, #308, #173 ) ;
#17 = PRESENTATION_STYLE_ASSIGNMENT (( #225 ) ) ;
#18 = CARTESIAN_POINT ( 'NONE',  ( -0.1250000000000001110, 3.000000000000000444, 0.000000000000000000 ) ) ;
#19 = STYLED_ITEM ( 'NONE', ( #200 ), #175 ) ;
#20 = FACE_OUTER_BOUND ( 'NONE', #29, .T. ) ;
#21 = CARTESIAN_POINT ( 'NONE',  ( 0.000000000000000000, 0.000000000000000000, 0.000000000000000000 ) ) ;
#22 = DIMENSIONAL_EXPONENTS ( 1.000000000000000000, 0.000000000000000000, 0.000000000000000000, 0.000000000000000000, 0.000000000000000000, 0.000000000000000000, 0.000000000000000000 ) ;
#23 = FILL_AREA_STYLE_COLOUR ( '', #129 ) ;
#24 = DIRECTION ( 'NONE',  ( -3.061616997868386099E-17, 1.000000000000000000, -0.000000000000000000 ) ) ;
#25 = ORIENTED_EDGE ( 'NONE', *, *, #188, .F. ) ;
#26 = UNCERTAINTY_MEASURE_WITH_UNIT (LENGTH_MEASURE( 1.000000000000000082E-05 ), #278, 'distance_accuracy_value', 'NONE');
#27 = AXIS2_PLACEMENT_3D ( 'NONE', #21, #171, #74 ) ;
#28 =( GEOMETRIC_REPRESENTATION_CONTEXT ( 3 ) GLOBAL_UNCERTAINTY_ASSIGNED_CONTEXT ( ( #197 ) ) GLOBAL_UNIT_ASSIGNED_CONTEXT ( ( #189, #159, #34 ) ) REPRESENTATION_CONTEXT ( 'NONE', 'WORKASPACE' ) );
#29 = EDGE_LOOP ( 'NONE', ( #10, #245 ) ) ;
#30 = FACE_OUTER_BOUND ( 'NONE', #158, .T. ) ;
#31 = VERTEX_POINT ( 'NONE', #149 ) ;
#32 = PRESENTATION_LAYER_ASSIGNMENT (  '', '', ( #178 ) ) ;
#33 = FILL_AREA_STYLE ('',( #247 ) ) ;
#34 =( NAMED_UNIT ( * ) SI_UNIT ( $, .STERADIAN. ) SOLID_ANGLE_UNIT ( ) );
#35 = DIRECTION ( 'NONE',  ( 0.000000000000000000, 0.000000000000000000, -1.000000000000000000 ) ) ;
#36 = SURFACE_STYLE_USAGE ( .BOTH. , #61 ) ;
#37 = LENGTH_MEASURE_WITH_UNIT ( LENGTH_MEASURE( 0.02539999999999999897 ), #249 );
#38 = AXIS2_PLACEMENT_3D ( 'NONE', #152, #24, #157 ) ;
#39 = DIRECTION ( 'NONE',  ( -3.061616997868386099E-17, 1.000000000000000000, -0.000000000000000000 ) ) ;
#40 = STYLED_ITEM ( 'NONE', ( #12 ), #266 ) ;
#41 =( NAMED_UNIT ( * ) PLANE_ANGLE_UNIT ( ) SI_UNIT ( $, .RADIAN. ) );
#42 = ADVANCED_FACE ( 'NONE', ( #14 ), #231, .T. ) ;
#43 = DIRECTION ( 'NONE',  ( -0.000000000000000000, -1.000000000000000000, -0.000000000000000000 ) ) ;
#44 = DIMENSIONAL_EXPONENTS ( 1.000000000000000000, 0.000000000000000000, 0.000000000000000000, 0.000000000000000000, 0.000000000000000000, 0.000000000000000000, 0.000000000000000000 ) ;
#45 = CIRCLE ( 'NONE', #258, 0.1250000000000000555 ) ;
#46 = VECTOR ( 'NONE', #9, 39.37007874015748143 ) ;
#47 =( LENGTH_UNIT ( ) NAMED_UNIT ( * ) SI_UNIT ( $, .METRE. ) );
#48 = SURFACE_STYLE_FILL_AREA ( #212 ) ;
#49 = MECHANICAL_DESIGN_GEOMETRIC_PRESENTATION_REPRESENTATION (  '', ( #19 ), #236 ) ;
#50 = UNCERTAINTY_MEASURE_WITH_UNIT (LENGTH_MEASURE( 1.000000000000000082E-05 ), #147, 'distance_accuracy_value', 'NONE');
#51 = FILL_AREA_STYLE_COLOUR ( '', #198 ) ;
#52 = VERTEX_POINT ( 'NONE', #65 ) ;
#53 = CARTESIAN_POINT ( 'NONE',  ( -6.123233995736772199E-17, 3.000000000000000444, 0.000000000000000000 ) ) ;
#54 = EDGE_LOOP ( 'NONE', ( #220, #110 ) ) ;
#55 =( NAMED_UNIT ( * ) SI_UNIT ( $, .STERADIAN. ) SOLID_ANGLE_UNIT ( ) );
#56 = ORIENTED_EDGE ( 'NONE', *, *, #234, .T. ) ;
#57 = AXIS2_PLACEMENT_3D ( 'NONE', #205, #221, #203 ) ;
#58 =( NAMED_UNIT ( * ) SI_UNIT ( $, .STERADIAN. ) SOLID_ANGLE_UNIT ( ) );
#59 = ORIENTED_EDGE ( 'NONE', *, *, #91, .F. ) ;
#60 = ADVANCED_FACE ( 'NONE', ( #300 ), #230, .T. ) ;
#61 = SURFACE_SIDE_STYLE ('',( #272 ) ) ;
#62 = ORIENTED_EDGE ( 'NONE', *, *, #5, .T. ) ;
#63 = CLOSED_SHELL ( 'NONE', ( #271, #256, #73, #71 ) ) ;
#64 = AXIS2_PLACEMENT_3D ( 'NONE', #53, #182, #287 ) ;
#65 = CARTESIAN_POINT ( 'NONE',  ( 1.530808498934191509E-17, 0.000000000000000000, 0.1250000000000000000 ) ) ;
#66 = FACE_OUTER_BOUND ( 'NONE', #202, .T. ) ;
#67 = DIRECTION ( 'NONE',  ( -3.061616997868386099E-17, 1.000000000000000000, -0.000000000000000000 ) ) ;
#68 = DIRECTION ( 'NONE',  ( -0.000000000000000000, -1.000000000000000000, -0.000000000000000000 ) ) ;
#69 = AXIS2_PLACEMENT_3D ( 'NONE', #215, #43, #194 ) ;
#70 = AXIS2_PLACEMENT_3D ( 'NONE', #4, #103, #291 ) ;
#71 = ADVANCED_FACE ( 'NONE', ( #142 ), #226, .F. ) ;
#72 = DIRECTION ( 'NONE',  ( -1.000000000000000000, 0.000000000000000000, 0.000000000000000000 ) ) ;
#73 = ADVANCED_FACE ( 'NONE', ( #66 ), #257, .T. ) ;
#74 = DIRECTION ( 'NONE',  ( 0.000000000000000000, 0.000000000000000000, -1.000000000000000000 ) ) ;
#75 = CARTESIAN_POINT ( 'NONE',  ( 0.000000000000000000, 0.000000000000000000, 0.000000000000000000 ) ) ;
#76 = LENGTH_MEASURE_WITH_UNIT ( LENGTH_MEASURE( 0.02539999999999999897 ), #195 );
#77 = DIRECTION ( 'NONE',  ( -1.000000000000000000, 0.000000000000000000, 0.000000000000000000 ) ) ;
#78 = VERTEX_POINT ( 'NONE', #214 ) ;
#79 = CARTESIAN_POINT ( 'NONE',  ( -0.1249999999999999861, 1.000000000000000000, 0.000000000000000000 ) ) ;
#80 = ORIENTED_EDGE ( 'NONE', *, *, #95, .F. ) ;
#81 = VERTEX_POINT ( 'NONE', #18 ) ;
#82 = CYLINDRICAL_SURFACE ( 'NONE', #130, 0.1250000000000000278 ) ;
#83 = EDGE_CURVE ( 'NONE', #273, #31, #3, .T. ) ;
#84 = CIRCLE ( 'NONE', #285, 0.1249999999999999861 ) ;
#85 = FILL_AREA_STYLE_COLOUR ( '', #229 ) ;
#86 = LINE ( 'NONE', #252, #204 ) ;
#87 = PRODUCT ( '01180', '01180', '', ( #297 ) ) ;
#88 =( NAMED_UNIT ( * ) SI_UNIT ( $, .STERADIAN. ) SOLID_ANGLE_UNIT ( ) );
#89 = CARTESIAN_POINT ( 'NONE',  ( 1.530808498934191201E-17, 1.000000000000000000, 0.1249999999999999861 ) ) ;
#90 = APPLICATION_PROTOCOL_DEFINITION ( 'draft international standard', 'automotive_design', 1998, #192 ) ;
#91 = EDGE_CURVE ( 'NONE', #78, #136, #282, .T. ) ;
#92 =( NAMED_UNIT ( * ) SI_UNIT ( $, .STERADIAN. ) SOLID_ANGLE_UNIT ( ) );
#93 = DIRECTION ( 'NONE',  ( 0.000000000000000000, 0.000000000000000000, 1.000000000000000000 ) ) ;
#94 =( LENGTH_UNIT ( ) NAMED_UNIT ( * ) SI_UNIT ( $, .METRE. ) );
#95 = EDGE_CURVE ( 'NONE', #52, #184, #123, .T. ) ;
#96 =( GEOMETRIC_REPRESENTATION_CONTEXT ( 3 ) GLOBAL_UNCERTAINTY_ASSIGNED_CONTEXT ( ( #304 ) ) GLOBAL_UNIT_ASSIGNED_CONTEXT ( ( #206, #132, #55 ) ) REPRESENTATION_CONTEXT ( 'NONE', 'WORKASPACE' ) );
#97 = DIRECTION ( 'NONE',  ( -3.061616997868386099E-17, 1.000000000000000000, -0.000000000000000000 ) ) ;
#98 = PRODUCT_DEFINITION_CONTEXT ( 'detailed design', #192, 'design' ) ;
#99 = SURFACE_SIDE_STYLE ('',( #124 ) ) ;
#100 = FILL_AREA_STYLE_COLOUR ( '', #162 ) ;
#101 = STYLED_ITEM ( 'NONE', ( #1 ), #196 ) ;
#102 = DIMENSIONAL_EXPONENTS ( 1.000000000000000000, 0.000000000000000000, 0.000000000000000000, 0.000000000000000000, 0.000000000000000000, 0.000000000000000000, 0.000000000000000000 ) ;
#103 = DIRECTION ( 'NONE',  ( -3.061616997868386099E-17, 1.000000000000000000, 0.000000000000000000 ) ) ;
#104 = SURFACE_STYLE_USAGE ( .BOTH. , #240 ) ;
#105 = ORIENTED_EDGE ( 'NONE', *, *, #234, .F. ) ;
#106 = EDGE_CURVE ( 'NONE', #136, #81, #45, .T. ) ;
#107 =( LENGTH_UNIT ( ) NAMED_UNIT ( * ) SI_UNIT ( $, .METRE. ) );
#108 = ORIENTED_EDGE ( 'NONE', *, *, #250, .T. ) ;
#109 = DIRECTION ( 'NONE',  ( -0.000000000000000000, -1.000000000000000000, -0.000000000000000000 ) ) ;
#110 = ORIENTED_EDGE ( 'NONE', *, *, #106, .T. ) ;
#111 = CARTESIAN_POINT ( 'NONE',  ( 0.000000000000000000, 1.000000000000000000, 0.000000000000000000 ) ) ;
#112 = ORIENTED_EDGE ( 'NONE', *, *, #244, .F. ) ;
#113 = SHAPE_DEFINITION_REPRESENTATION ( #238, #117 ) ;
#114 =( LENGTH_UNIT ( ) NAMED_UNIT ( * ) SI_UNIT ( $, .METRE. ) );
#115 = CARTESIAN_POINT ( 'NONE',  ( 0.000000000000000000, 0.000000000000000000, 0.000000000000000000 ) ) ;
#116 = CARTESIAN_POINT ( 'NONE',  ( -6.123233995736772199E-17, 3.000000000000000444, 0.000000000000000000 ) ) ;
#117 = ADVANCED_BREP_SHAPE_REPRESENTATION ( '01180', ( #175, #266, #148 ), #28 ) ;
#118 = CARTESIAN_POINT ( 'NONE',  ( 0.1249999999999999861, 3.000000000000000444, 0.000000000000000000 ) ) ;
#119 = MECHANICAL_DESIGN_GEOMETRIC_PRESENTATION_REPRESENTATION (  '', ( #138 ), #209 ) ;
#120 = DIRECTION ( 'NONE',  ( 1.000000000000000000, 0.000000000000000000, 0.000000000000000000 ) ) ;
#121 = SURFACE_SIDE_STYLE ('',( #140 ) ) ;
#122 = DIRECTION ( 'NONE',  ( -0.000000000000000000, -1.000000000000000000, -0.000000000000000000 ) ) ;
#123 = CIRCLE ( 'NONE', #27, 0.1250000000000000000 ) ;
#124 = SURFACE_STYLE_FILL_AREA ( #233 ) ;
#125 = APPLICATION_CONTEXT ( 'automotive_design' ) ;
#126 = UNCERTAINTY_MEASURE_WITH_UNIT (LENGTH_MEASURE( 1.000000000000000082E-05 ), #127, 'distance_accuracy_value', 'NONE');
#127 =( CONVERSION_BASED_UNIT ( 'INCH', #235 ) LENGTH_UNIT ( ) NAMED_UNIT ( #239 ) );
#128 = DIRECTION ( 'NONE',  ( -3.061616997868386099E-17, 1.000000000000000000, -0.000000000000000000 ) ) ;
#129 = COLOUR_RGB ( '',0.7921568627450980005, 0.8196078431372548767, 0.9333333333333333481 ) ;
#130 = AXIS2_PLACEMENT_3D ( 'NONE', #116, #67, #295 ) ;
#131 = PLANE ( 'NONE',  #260 ) ;
#132 =( NAMED_UNIT ( * ) PLANE_ANGLE_UNIT ( ) SI_UNIT ( $, .RADIAN. ) );
#133 = CARTESIAN_POINT ( 'NONE',  ( 7.582401355855259480E-33, 1.000000000000000000, 0.000000000000000000 ) ) ;
#134 = LINE ( 'NONE', #261, #46 ) ;
#135 = ORIENTED_EDGE ( 'NONE', *, *, #83, .F. ) ;
#136 = VERTEX_POINT ( 'NONE', #283 ) ;
#137 = AXIS2_PLACEMENT_3D ( 'NONE', #253, #68, #168 ) ;
#138 = STYLED_ITEM ( 'NONE', ( #17 ), #60 ) ;
#139 = PRODUCT_DEFINITION_FORMATION_WITH_SPECIFIED_SOURCE ( 'ANY', '', #87, .NOT_KNOWN. ) ;
#140 = SURFACE_STYLE_FILL_AREA ( #33 ) ;
#141 = LENGTH_MEASURE_WITH_UNIT ( LENGTH_MEASURE( 0.02539999999999999897 ), #114 );
#142 = FACE_OUTER_BOUND ( 'NONE', #54, .T. ) ;
#143 = PRODUCT_DEFINITION ( 'UNKNOWN', '', #139, #98 ) ;
#144 =( LENGTH_UNIT ( ) NAMED_UNIT ( * ) SI_UNIT ( $, .METRE. ) );
#145 = FILL_AREA_STYLE ('',( #165 ) ) ;
#146 = EDGE_CURVE ( 'NONE', #31, #184, #211, .T. ) ;
#147 =( CONVERSION_BASED_UNIT ( 'INCH', #141 ) LENGTH_UNIT ( ) NAMED_UNIT ( #44 ) );
#148 = AXIS2_PLACEMENT_3D ( 'NONE', #15, #93, #120 ) ;
#149 = CARTESIAN_POINT ( 'NONE',  ( 0.000000000000000000, 1.000000000000000000, -0.1249999999999999861 ) ) ;
#150 = DIMENSIONAL_EXPONENTS ( 1.000000000000000000, 0.000000000000000000, 0.000000000000000000, 0.000000000000000000, 0.000000000000000000, 0.000000000000000000, 0.000000000000000000 ) ;
#151 = CARTESIAN_POINT ( 'NONE',  ( -6.123233995736772199E-17, 3.000000000000000444, 0.000000000000000000 ) ) ;
#152 = CARTESIAN_POINT ( 'NONE',  ( 7.582401355855259480E-33, 1.000000000000000000, 0.000000000000000000 ) ) ;
#153 = DIRECTION ( 'NONE',  ( -3.061616997868386099E-17, 1.000000000000000000, -0.000000000000000000 ) ) ;
#154 = CARTESIAN_POINT ( 'NONE',  ( -6.123233995736772199E-17, 3.000000000000000444, 0.000000000000000000 ) ) ;
#155 = MECHANICAL_DESIGN_GEOMETRIC_PRESENTATION_REPRESENTATION (  '', ( #219 ), #185 ) ;
#156 = PLANE ( 'NONE',  #70 ) ;
#157 = DIRECTION ( 'NONE',  ( -1.000000000000000000, 0.000000000000000000, 0.000000000000000000 ) ) ;
#158 = EDGE_LOOP ( 'NONE', ( #105, #135 ) ) ;
#159 =( NAMED_UNIT ( * ) PLANE_ANGLE_UNIT ( ) SI_UNIT ( $, .RADIAN. ) );
#160 = DIMENSIONAL_EXPONENTS ( 1.000000000000000000, 0.000000000000000000, 0.000000000000000000, 0.000000000000000000, 0.000000000000000000, 0.000000000000000000, 0.000000000000000000 ) ;
#161 =( NAMED_UNIT ( * ) PLANE_ANGLE_UNIT ( ) SI_UNIT ( $, .RADIAN. ) );
#162 = COLOUR_RGB ( '',1.000000000000000000, 0.000000000000000000, 0.000000000000000000 ) ;
#163 = CIRCLE ( 'NONE', #64, 0.1250000000000000555 ) ;
#164 = ADVANCED_FACE ( 'NONE', ( #20 ), #199, .T. ) ;
#165 = FILL_AREA_STYLE_COLOUR ( '', #254 ) ;
#166 = APPLICATION_PROTOCOL_DEFINITION ( 'draft international standard', 'automotive_design', 1998, #125 ) ;
#167 = SURFACE_SIDE_STYLE ('',( #299 ) ) ;
#168 = DIRECTION ( 'NONE',  ( 0.000000000000000000, 0.000000000000000000, -1.000000000000000000 ) ) ;
#169 = CLOSED_SHELL ( 'NONE', ( #60, #196, #42, #164 ) ) ;
#170 = PRESENTATION_STYLE_ASSIGNMENT (( #232 ) ) ;
#171 = DIRECTION ( 'NONE',  ( -0.000000000000000000, -1.000000000000000000, -0.000000000000000000 ) ) ;
#172 = MECHANICAL_DESIGN_GEOMETRIC_PRESENTATION_REPRESENTATION (  '', ( #178 ), #191 ) ;
#173 = DIRECTION ( 'NONE',  ( 0.000000000000000000, 0.000000000000000000, -1.000000000000000000 ) ) ;
#174 = SURFACE_STYLE_USAGE ( .BOTH. , #99 ) ;
#175 = MANIFOLD_SOLID_BREP ( 'Revolve - Cutting Edge', #169 ) ;
#176 =( CONVERSION_BASED_UNIT ( 'INCH', #76 ) LENGTH_UNIT ( ) NAMED_UNIT ( #150 ) );
#177 = DIRECTION ( 'NONE',  ( 0.000000000000000000, 0.000000000000000000, -1.000000000000000000 ) ) ;
#178 = STYLED_ITEM ( 'NONE', ( #210 ), #42 ) ;
#179 = ORIENTED_EDGE ( 'NONE', *, *, #83, .T. ) ;
#180 = MECHANICAL_DESIGN_GEOMETRIC_PRESENTATION_REPRESENTATION (  '', ( #40 ), #303 ) ;
#181 = DIRECTION ( 'NONE',  ( -3.061616997868386099E-17, 1.000000000000000000, -0.000000000000000000 ) ) ;
#182 = DIRECTION ( 'NONE',  ( -3.061616997868386099E-17, 1.000000000000000000, -0.000000000000000000 ) ) ;
#183 = ORIENTED_EDGE ( 'NONE', *, *, #91, .T. ) ;
#184 = VERTEX_POINT ( 'NONE', #289 ) ;
#185 =( GEOMETRIC_REPRESENTATION_CONTEXT ( 3 ) GLOBAL_UNCERTAINTY_ASSIGNED_CONTEXT ( ( #126 ) ) GLOBAL_UNIT_ASSIGNED_CONTEXT ( ( #127, #41, #284 ) ) REPRESENTATION_CONTEXT ( 'NONE', 'WORKASPACE' ) );
#186 = CIRCLE ( 'NONE', #57, 0.1250000000000000000 ) ;
#187 = FILL_AREA_STYLE ('',( #85 ) ) ;
#188 = EDGE_CURVE ( 'NONE', #265, #78, #228, .T. ) ;
#189 =( CONVERSION_BASED_UNIT ( 'INCH', #274 ) LENGTH_UNIT ( ) NAMED_UNIT ( #259 ) );
#190 = FACE_OUTER_BOUND ( 'NONE', #223, .T. ) ;
#191 =( GEOMETRIC_REPRESENTATION_CONTEXT ( 3 ) GLOBAL_UNCERTAINTY_ASSIGNED_CONTEXT ( ( #26 ) ) GLOBAL_UNIT_ASSIGNED_CONTEXT ( ( #278, #161, #92 ) ) REPRESENTATION_CONTEXT ( 'NONE', 'WORKASPACE' ) );
#192 = APPLICATION_CONTEXT ( 'automotive_design' ) ;
#193 = MECHANICAL_DESIGN_GEOMETRIC_PRESENTATION_REPRESENTATION (  '', ( #101 ), #96 ) ;
#194 = DIRECTION ( 'NONE',  ( 0.000000000000000000, 0.000000000000000000, -1.000000000000000000 ) ) ;
#195 =( LENGTH_UNIT ( ) NAMED_UNIT ( * ) SI_UNIT ( $, .METRE. ) );
#196 = ADVANCED_FACE ( 'NONE', ( #30 ), #131, .T. ) ;
#197 = UNCERTAINTY_MEASURE_WITH_UNIT (LENGTH_MEASURE( 1.000000000000000082E-05 ), #189, 'distance_accuracy_value', 'NONE');
#198 = COLOUR_RGB ( '',1.000000000000000000, 0.000000000000000000, 0.000000000000000000 ) ;
#199 = PLANE ( 'NONE',  #16 ) ;
#200 = PRESENTATION_STYLE_ASSIGNMENT (( #174 ) ) ;
#201 = LENGTH_MEASURE_WITH_UNIT ( LENGTH_MEASURE( 0.02539999999999999897 ), #107 );
#202 = EDGE_LOOP ( 'NONE', ( #59, #262, #62, #292 ) ) ;
#203 = DIRECTION ( 'NONE',  ( 0.000000000000000000, 0.000000000000000000, -1.000000000000000000 ) ) ;
#204 = VECTOR ( 'NONE', #39, 39.37007874015748143 ) ;
#205 = CARTESIAN_POINT ( 'NONE',  ( 0.000000000000000000, 0.000000000000000000, 0.000000000000000000 ) ) ;
#206 =( CONVERSION_BASED_UNIT ( 'INCH', #201 ) LENGTH_UNIT ( ) NAMED_UNIT ( #102 ) );
#207 =( NAMED_UNIT ( * ) PLANE_ANGLE_UNIT ( ) SI_UNIT ( $, .RADIAN. ) );
#208 = DIRECTION ( 'NONE',  ( 3.061616997868386099E-17, -1.000000000000000000, 0.000000000000000000 ) ) ;
#209 =( GEOMETRIC_REPRESENTATION_CONTEXT ( 3 ) GLOBAL_UNCERTAINTY_ASSIGNED_CONTEXT ( ( #6 ) ) GLOBAL_UNIT_ASSIGNED_CONTEXT ( ( #280, #207, #248 ) ) REPRESENTATION_CONTEXT ( 'NONE', 'WORKASPACE' ) );
#210 = PRESENTATION_STYLE_ASSIGNMENT (( #227 ) ) ;
#211 = LINE ( 'NONE', #305, #286 ) ;
#212 = FILL_AREA_STYLE ('',( #100 ) ) ;
#213 = EDGE_CURVE ( 'NONE', #78, #265, #224, .T. ) ;
#214 = CARTESIAN_POINT ( 'NONE',  ( 0.1250000000000000000, 1.000000000000000000, 1.530808498934192125E-17 ) ) ;
#215 = CARTESIAN_POINT ( 'NONE',  ( 0.000000000000000000, 1.000000000000000000, 0.000000000000000000 ) ) ;
#216 = PRESENTATION_LAYER_ASSIGNMENT (  '', '', ( #101 ) ) ;
#217 = DIRECTION ( 'NONE',  ( 0.000000000000000000, 1.000000000000000000, 0.000000000000000000 ) ) ;
#218 = FACE_OUTER_BOUND ( 'NONE', #222, .T. ) ;
#219 = STYLED_ITEM ( 'NONE', ( #170 ), #164 ) ;
#220 = ORIENTED_EDGE ( 'NONE', *, *, #263, .T. ) ;
#221 = DIRECTION ( 'NONE',  ( -0.000000000000000000, -1.000000000000000000, -0.000000000000000000 ) ) ;
#222 = EDGE_LOOP ( 'NONE', ( #25, #2 ) ) ;
#223 = EDGE_LOOP ( 'NONE', ( #288, #183, #8, #243 ) ) ;
#224 = CIRCLE ( 'NONE', #242, 0.1249999999999999861 ) ;
#225 = SURFACE_STYLE_USAGE ( .BOTH. , #121 ) ;
#226 = PLANE ( 'NONE',  #246 ) ;
#227 = SURFACE_STYLE_USAGE ( .BOTH. , #167 ) ;
#228 = CIRCLE ( 'NONE', #38, 0.1249999999999999861 ) ;
#229 = COLOUR_RGB ( '',0.7921568627450980005, 0.8196078431372548767, 0.9333333333333333481 ) ;
#230 = CYLINDRICAL_SURFACE ( 'NONE', #293, 0.1250000000000000000 ) ;
#231 = CYLINDRICAL_SURFACE ( 'NONE', #137, 0.1250000000000000000 ) ;
#232 = SURFACE_STYLE_USAGE ( .BOTH. , #301 ) ;
#233 = FILL_AREA_STYLE ('',( #23 ) ) ;
#234 = EDGE_CURVE ( 'NONE', #31, #273, #84, .T. ) ;
#235 = LENGTH_MEASURE_WITH_UNIT ( LENGTH_MEASURE( 0.02539999999999999897 ), #47 );
#236 =( GEOMETRIC_REPRESENTATION_CONTEXT ( 3 ) GLOBAL_UNCERTAINTY_ASSIGNED_CONTEXT ( ( #251 ) ) GLOBAL_UNIT_ASSIGNED_CONTEXT ( ( #176, #268, #58 ) ) REPRESENTATION_CONTEXT ( 'NONE', 'WORKASPACE' ) );
#237 = DIRECTION ( 'NONE',  ( 0.000000000000000000, -0.000000000000000000, 1.000000000000000000 ) ) ;
#238 = PRODUCT_DEFINITION_SHAPE ( 'NONE', 'NONE',  #143 ) ;
#239 = DIMENSIONAL_EXPONENTS ( 1.000000000000000000, 0.000000000000000000, 0.000000000000000000, 0.000000000000000000, 0.000000000000000000, 0.000000000000000000, 0.000000000000000000 ) ;
#240 = SURFACE_SIDE_STYLE ('',( #7 ) ) ;
#241 = PRESENTATION_LAYER_ASSIGNMENT (  '', '', ( #19 ) ) ;
#242 = AXIS2_PLACEMENT_3D ( 'NONE', #133, #181, #77 ) ;
#243 = ORIENTED_EDGE ( 'NONE', *, *, #5, .F. ) ;
#244 = EDGE_CURVE ( 'NONE', #184, #52, #186, .T. ) ;
#245 = ORIENTED_EDGE ( 'NONE', *, *, #95, .T. ) ;
#246 = AXIS2_PLACEMENT_3D ( 'NONE', #118, #208, #277 ) ;
#247 = FILL_AREA_STYLE_COLOUR ( '', #281 ) ;
#248 =( NAMED_UNIT ( * ) SI_UNIT ( $, .STERADIAN. ) SOLID_ANGLE_UNIT ( ) );
#249 =( LENGTH_UNIT ( ) NAMED_UNIT ( * ) SI_UNIT ( $, .METRE. ) );
#250 = EDGE_CURVE ( 'NONE', #273, #52, #134, .T. ) ;
#251 = UNCERTAINTY_MEASURE_WITH_UNIT (LENGTH_MEASURE( 1.000000000000000082E-05 ), #176, 'distance_accuracy_value', 'NONE');
#252 = CARTESIAN_POINT ( 'NONE',  ( -0.1250000000000000833, 3.000000000000000444, 0.000000000000000000 ) ) ;
#253 = CARTESIAN_POINT ( 'NONE',  ( 0.000000000000000000, 0.000000000000000000, 0.000000000000000000 ) ) ;
#254 = COLOUR_RGB ( '',1.000000000000000000, 0.000000000000000000, 0.000000000000000000 ) ;
#255 = CARTESIAN_POINT ( 'NONE',  ( 0.1249999999999999445, 3.000000000000000444, 1.530808498934191817E-17 ) ) ;
#256 = ADVANCED_FACE ( 'NONE', ( #218 ), #156, .F. ) ;
#257 = CYLINDRICAL_SURFACE ( 'NONE', #275, 0.1250000000000000278 ) ;
#258 = AXIS2_PLACEMENT_3D ( 'NONE', #151, #153, #72 ) ;
#259 = DIMENSIONAL_EXPONENTS ( 1.000000000000000000, 0.000000000000000000, 0.000000000000000000, 0.000000000000000000, 0.000000000000000000, 0.000000000000000000, 0.000000000000000000 ) ;
#260 = AXIS2_PLACEMENT_3D ( 'NONE', #111, #217, #237 ) ;
#261 = CARTESIAN_POINT ( 'NONE',  ( 1.530808498934191509E-17, 0.000000000000000000, 0.1250000000000000000 ) ) ;
#262 = ORIENTED_EDGE ( 'NONE', *, *, #213, .T. ) ;
#263 = EDGE_CURVE ( 'NONE', #81, #136, #163, .T. ) ;
#264 = FILL_AREA_STYLE ('',( #51 ) ) ;
#265 = VERTEX_POINT ( 'NONE', #79 ) ;
#266 = MANIFOLD_SOLID_BREP ( 'Revolve - Tool Body (Straight Shanked)', #63 ) ;
#267 = ORIENTED_EDGE ( 'NONE', *, *, #250, .F. ) ;
#268 =( NAMED_UNIT ( * ) PLANE_ANGLE_UNIT ( ) SI_UNIT ( $, .RADIAN. ) );
#269 = PRESENTATION_LAYER_ASSIGNMENT (  '', '', ( #219 ) ) ;
#270 = ORIENTED_EDGE ( 'NONE', *, *, #146, .T. ) ;
#271 = ADVANCED_FACE ( 'NONE', ( #190 ), #82, .T. ) ;
#272 = SURFACE_STYLE_FILL_AREA ( #187 ) ;
#273 = VERTEX_POINT ( 'NONE', #89 ) ;
#274 = LENGTH_MEASURE_WITH_UNIT ( LENGTH_MEASURE( 0.02539999999999999897 ), #144 );
#275 = AXIS2_PLACEMENT_3D ( 'NONE', #154, #128, #306 ) ;
#276 = DIRECTION ( 'NONE',  ( -0.000000000000000000, -1.000000000000000000, -0.000000000000000000 ) ) ;
#277 = DIRECTION ( 'NONE',  ( 1.000000000000000000, 3.061616997868386099E-17, 0.000000000000000000 ) ) ;
#278 =( CONVERSION_BASED_UNIT ( 'INCH', #37 ) LENGTH_UNIT ( ) NAMED_UNIT ( #160 ) );
#279 =( NAMED_UNIT ( * ) PLANE_ANGLE_UNIT ( ) SI_UNIT ( $, .RADIAN. ) );
#280 =( CONVERSION_BASED_UNIT ( 'INCH', #13 ) LENGTH_UNIT ( ) NAMED_UNIT ( #22 ) );
#281 = COLOUR_RGB ( '',1.000000000000000000, 0.000000000000000000, 0.000000000000000000 ) ;
#282 = LINE ( 'NONE', #255, #298 ) ;
#283 = CARTESIAN_POINT ( 'NONE',  ( 0.1250000000000000000, 3.000000000000000444, 1.530808498934192125E-17 ) ) ;
#284 =( NAMED_UNIT ( * ) SI_UNIT ( $, .STERADIAN. ) SOLID_ANGLE_UNIT ( ) );
#285 = AXIS2_PLACEMENT_3D ( 'NONE', #309, #109, #177 ) ;
#286 = VECTOR ( 'NONE', #122, 39.37007874015748143 ) ;
#287 = DIRECTION ( 'NONE',  ( -1.000000000000000000, 0.000000000000000000, 0.000000000000000000 ) ) ;
#288 = ORIENTED_EDGE ( 'NONE', *, *, #188, .T. ) ;
#289 = CARTESIAN_POINT ( 'NONE',  ( 0.000000000000000000, 0.000000000000000000, -0.1250000000000000000 ) ) ;
#290 = EDGE_LOOP ( 'NONE', ( #56, #108, #112, #294 ) ) ;
#291 = DIRECTION ( 'NONE',  ( -1.000000000000000000, -3.061616997868386099E-17, 0.000000000000000000 ) ) ;
#292 = ORIENTED_EDGE ( 'NONE', *, *, #106, .F. ) ;
#293 = AXIS2_PLACEMENT_3D ( 'NONE', #115, #276, #35 ) ;
#294 = ORIENTED_EDGE ( 'NONE', *, *, #146, .F. ) ;
#295 = DIRECTION ( 'NONE',  ( -1.000000000000000000, 0.000000000000000000, 0.000000000000000000 ) ) ;
#296 = PRODUCT_RELATED_PRODUCT_CATEGORY ( 'part', '', ( #87 ) ) ;
#297 = PRODUCT_CONTEXT ( 'NONE', #125, 'mechanical' ) ;
#298 = VECTOR ( 'NONE', #97, 39.37007874015748143 ) ;
#299 = SURFACE_STYLE_FILL_AREA ( #145 ) ;
#300 = FACE_OUTER_BOUND ( 'NONE', #290, .T. ) ;
#301 = SURFACE_SIDE_STYLE ('',( #48 ) ) ;
#302 = PRESENTATION_LAYER_ASSIGNMENT (  '', '', ( #138 ) ) ;
#303 =( GEOMETRIC_REPRESENTATION_CONTEXT ( 3 ) GLOBAL_UNCERTAINTY_ASSIGNED_CONTEXT ( ( #50 ) ) GLOBAL_UNIT_ASSIGNED_CONTEXT ( ( #147, #279, #88 ) ) REPRESENTATION_CONTEXT ( 'NONE', 'WORKASPACE' ) );
#304 = UNCERTAINTY_MEASURE_WITH_UNIT (LENGTH_MEASURE( 1.000000000000000082E-05 ), #206, 'distance_accuracy_value', 'NONE');
#305 = CARTESIAN_POINT ( 'NONE',  ( 0.000000000000000000, 0.000000000000000000, -0.1250000000000000000 ) ) ;
#306 = DIRECTION ( 'NONE',  ( -1.000000000000000000, 0.000000000000000000, 0.000000000000000000 ) ) ;
#307 = PRESENTATION_LAYER_ASSIGNMENT (  '', '', ( #40 ) ) ;
#308 = DIRECTION ( 'NONE',  ( 0.000000000000000000, -1.000000000000000000, -0.000000000000000000 ) ) ;
#309 = CARTESIAN_POINT ( 'NONE',  ( 0.000000000000000000, 1.000000000000000000, 0.000000000000000000 ) ) ;
ENDSEC;
END-ISO-10303-21;
