ISO-10303-21;
HEADER;
FILE_DESCRIPTION (( 'STEP AP214' ),
    '1' );
FILE_NAME ('81418.STEP',
    '2023-06-23T01:38:16',
    ( '' ),
    ( '' ),
    'SwSTEP 2.0',
    'SolidWorks 2023',
    '' );
FILE_SCHEMA (( 'AUTOMOTIVE_DESIGN' ));
ENDSEC;

DATA;
#1 = AXIS2_PLACEMENT_3D ( 'NONE', #286, #196, #59 ) ;
#2 =( GEOMETRIC_REPRESENTATION_CONTEXT ( 3 ) GLOBAL_UNCERTAINTY_ASSIGNED_CONTEXT ( ( #22 ) ) GLOBAL_UNIT_ASSIGNED_CONTEXT ( ( #157, #8, #159 ) ) REPRESENTATION_CONTEXT ( 'NONE', 'WORKASPACE' ) );
#3 = DIRECTION ( 'NONE',  ( 0.000000000000000000, 0.000000000000000000, -1.000000000000000000 ) ) ;
#4 = DIRECTION ( 'NONE',  ( 0.000000000000000000, 0.000000000000000000, 1.000000000000000000 ) ) ;
#5 = VERTEX_POINT ( 'NONE', #53 ) ;
#6 = CARTESIAN_POINT ( 'NONE',  ( 4.592425496802575451E-17, 0.000000000000000000, 0.3750000000000000555 ) ) ;
#7 = DIRECTION ( 'NONE',  ( 0.000000000000000000, -1.000000000000000000, -0.000000000000000000 ) ) ;
#8 =( NAMED_UNIT ( * ) PLANE_ANGLE_UNIT ( ) SI_UNIT ( $, .RADIAN. ) );
#9 =( GEOMETRIC_REPRESENTATION_CONTEXT ( 3 ) GLOBAL_UNCERTAINTY_ASSIGNED_CONTEXT ( ( #216 ) ) GLOBAL_UNIT_ASSIGNED_CONTEXT ( ( #292, #257, #138 ) ) REPRESENTATION_CONTEXT ( 'NONE', 'WORKASPACE' ) );
#10 = PRESENTATION_STYLE_ASSIGNMENT (( #268 ) ) ;
#11 = MECHANICAL_DESIGN_GEOMETRIC_PRESENTATION_REPRESENTATION (  '', ( #266 ), #79 ) ;
#12 = DIRECTION ( 'NONE',  ( -1.000000000000000000, 0.000000000000000000, 0.000000000000000000 ) ) ;
#13 =( CONVERSION_BASED_UNIT ( 'INCH', #92 ) LENGTH_UNIT ( ) NAMED_UNIT ( #66 ) );
#14 = PLANE ( 'NONE',  #199 ) ;
#15 = EDGE_CURVE ( 'NONE', #74, #144, #270, .T. ) ;
#16 = LINE ( 'NONE', #198, #186 ) ;
#17 =( GEOMETRIC_REPRESENTATION_CONTEXT ( 3 ) GLOBAL_UNCERTAINTY_ASSIGNED_CONTEXT ( ( #227 ) ) GLOBAL_UNIT_ASSIGNED_CONTEXT ( ( #177, #237, #162 ) ) REPRESENTATION_CONTEXT ( 'NONE', 'WORKASPACE' ) );
#18 = ORIENTED_EDGE ( 'NONE', *, *, #29, .T. ) ;
#19 = SURFACE_STYLE_USAGE ( .BOTH. , #215 ) ;
#20 = DIRECTION ( 'NONE',  ( 0.000000000000000000, 0.000000000000000000, -1.000000000000000000 ) ) ;
#21 = STYLED_ITEM ( 'NONE', ( #217 ), #242 ) ;
#22 = UNCERTAINTY_MEASURE_WITH_UNIT (LENGTH_MEASURE( 1.000000000000000082E-05 ), #157, 'distance_accuracy_value', 'NONE');
#23 = LENGTH_MEASURE_WITH_UNIT ( LENGTH_MEASURE( 0.02539999999999999897 ), #54 );
#24 = DIRECTION ( 'NONE',  ( 1.000000000000000000, 0.000000000000000000, 0.000000000000000000 ) ) ;
#25 = EDGE_CURVE ( 'NONE', #40, #232, #147, .T. ) ;
#26 = VECTOR ( 'NONE', #185, 39.37007874015748143 ) ;
#27 =( NAMED_UNIT ( * ) SI_UNIT ( $, .STERADIAN. ) SOLID_ANGLE_UNIT ( ) );
#28 = PRODUCT_DEFINITION_CONTEXT ( 'detailed design', #67, 'design' ) ;
#29 = EDGE_CURVE ( 'NONE', #100, #235, #200, .T. ) ;
#30 = FILL_AREA_STYLE_COLOUR ( '', #121 ) ;
#31 = AXIS2_PLACEMENT_3D ( 'NONE', #163, #247, #38 ) ;
#32 = CIRCLE ( 'NONE', #212, 0.3750000000000000555 ) ;
#33 = PRESENTATION_STYLE_ASSIGNMENT (( #126 ) ) ;
#34 = EDGE_CURVE ( 'NONE', #144, #74, #187, .T. ) ;
#35 =( LENGTH_UNIT ( ) NAMED_UNIT ( * ) SI_UNIT ( $, .METRE. ) );
#36 = CYLINDRICAL_SURFACE ( 'NONE', #148, 0.3750000000000000555 ) ;
#37 = ADVANCED_FACE ( 'NONE', ( #218 ), #98, .T. ) ;
#38 = DIRECTION ( 'NONE',  ( 0.000000000000000000, -0.000000000000000000, 1.000000000000000000 ) ) ;
#39 =( CONVERSION_BASED_UNIT ( 'INCH', #276 ) LENGTH_UNIT ( ) NAMED_UNIT ( #209 ) );
#40 = VERTEX_POINT ( 'NONE', #156 ) ;
#41 = DIRECTION ( 'NONE',  ( -1.088574932575424772E-16, 1.000000000000000000, -0.000000000000000000 ) ) ;
#42 = MECHANICAL_DESIGN_GEOMETRIC_PRESENTATION_REPRESENTATION (  '', ( #141 ), #2 ) ;
#43 = ORIENTED_EDGE ( 'NONE', *, *, #95, .T. ) ;
#44 = SURFACE_SIDE_STYLE ('',( #88 ) ) ;
#45 = EDGE_CURVE ( 'NONE', #232, #100, #295, .T. ) ;
#46 = DIMENSIONAL_EXPONENTS ( 1.000000000000000000, 0.000000000000000000, 0.000000000000000000, 0.000000000000000000, 0.000000000000000000, 0.000000000000000000, 0.000000000000000000 ) ;
#47 =( NAMED_UNIT ( * ) PLANE_ANGLE_UNIT ( ) SI_UNIT ( $, .RADIAN. ) );
#48 = DIRECTION ( 'NONE',  ( -0.000000000000000000, -1.000000000000000000, -0.000000000000000000 ) ) ;
#49 = SURFACE_STYLE_FILL_AREA ( #254 ) ;
#50 = PRESENTATION_LAYER_ASSIGNMENT (  '', '', ( #119 ) ) ;
#51 = EDGE_LOOP ( 'NONE', ( #261, #77 ) ) ;
#52 = MECHANICAL_DESIGN_GEOMETRIC_PRESENTATION_REPRESENTATION (  '', ( #135 ), #180 ) ;
#53 = CARTESIAN_POINT ( 'NONE',  ( 0.000000000000000000, 2.750000000000000000, -0.3750000000000000555 ) ) ;
#54 =( LENGTH_UNIT ( ) NAMED_UNIT ( * ) SI_UNIT ( $, .METRE. ) );
#55 = DIRECTION ( 'NONE',  ( -1.088574932575424772E-16, 1.000000000000000000, -0.000000000000000000 ) ) ;
#56 = COLOUR_RGB ( '',0.7921568627450980005, 0.8196078431372548767, 0.9333333333333333481 ) ;
#57 = DIRECTION ( 'NONE',  ( -0.000000000000000000, -1.000000000000000000, -0.000000000000000000 ) ) ;
#58 = SURFACE_STYLE_FILL_AREA ( #287 ) ;
#59 = DIRECTION ( 'NONE',  ( -1.000000000000000000, 0.000000000000000000, 0.000000000000000000 ) ) ;
#60 =( NAMED_UNIT ( * ) SI_UNIT ( $, .STERADIAN. ) SOLID_ANGLE_UNIT ( ) );
#61 = FILL_AREA_STYLE ('',( #240 ) ) ;
#62 = CLOSED_SHELL ( 'NONE', ( #304, #191, #280, #123 ) ) ;
#63 = UNCERTAINTY_MEASURE_WITH_UNIT (LENGTH_MEASURE( 1.000000000000000082E-05 ), #243, 'distance_accuracy_value', 'NONE');
#64 =( LENGTH_UNIT ( ) NAMED_UNIT ( * ) SI_UNIT ( $, .METRE. ) );
#65 = AXIS2_PLACEMENT_3D ( 'NONE', #221, #7, #298 ) ;
#66 = DIMENSIONAL_EXPONENTS ( 1.000000000000000000, 0.000000000000000000, 0.000000000000000000, 0.000000000000000000, 0.000000000000000000, 0.000000000000000000, 0.000000000000000000 ) ;
#67 = APPLICATION_CONTEXT ( 'automotive_design' ) ;
#68 = CARTESIAN_POINT ( 'NONE',  ( 0.000000000000000000, 2.750000000000000000, 0.000000000000000000 ) ) ;
#69 = DIRECTION ( 'NONE',  ( -1.000000000000000000, 0.000000000000000000, 0.000000000000000000 ) ) ;
#70 = ORIENTED_EDGE ( 'NONE', *, *, #15, .F. ) ;
#71 = CARTESIAN_POINT ( 'NONE',  ( 0.000000000000000000, 0.000000000000000000, -0.3750000000000000555 ) ) ;
#72 = ORIENTED_EDGE ( 'NONE', *, *, #34, .T. ) ;
#73 = PRESENTATION_LAYER_ASSIGNMENT (  '', '', ( #21 ) ) ;
#74 = VERTEX_POINT ( 'NONE', #71 ) ;
#75 =( LENGTH_UNIT ( ) NAMED_UNIT ( * ) SI_UNIT ( $, .METRE. ) );
#76 = APPLICATION_PROTOCOL_DEFINITION ( 'draft international standard', 'automotive_design', 1998, #127 ) ;
#77 = ORIENTED_EDGE ( 'NONE', *, *, #25, .F. ) ;
#78 = EDGE_CURVE ( 'NONE', #110, #5, #173, .T. ) ;
#79 =( GEOMETRIC_REPRESENTATION_CONTEXT ( 3 ) GLOBAL_UNCERTAINTY_ASSIGNED_CONTEXT ( ( #264 ) ) GLOBAL_UNIT_ASSIGNED_CONTEXT ( ( #39, #306, #252 ) ) REPRESENTATION_CONTEXT ( 'NONE', 'WORKASPACE' ) );
#80 = CARTESIAN_POINT ( 'NONE',  ( 0.000000000000000000, 0.000000000000000000, 0.000000000000000000 ) ) ;
#81 = CARTESIAN_POINT ( 'NONE',  ( 4.592425496802575451E-17, 0.000000000000000000, 0.3750000000000000555 ) ) ;
#82 = PLANE ( 'NONE',  #31 ) ;
#83 = AXIS2_PLACEMENT_3D ( 'NONE', #222, #137, #3 ) ;
#84 = FILL_AREA_STYLE ('',( #184 ) ) ;
#85 = STYLED_ITEM ( 'NONE', ( #284 ), #37 ) ;
#86 = DIRECTION ( 'NONE',  ( 0.000000000000000000, 0.000000000000000000, -1.000000000000000000 ) ) ;
#87 = ORIENTED_EDGE ( 'NONE', *, *, #29, .F. ) ;
#88 = SURFACE_STYLE_FILL_AREA ( #250 ) ;
#89 = DIMENSIONAL_EXPONENTS ( 1.000000000000000000, 0.000000000000000000, 0.000000000000000000, 0.000000000000000000, 0.000000000000000000, 0.000000000000000000, 0.000000000000000000 ) ;
#90 = PRESENTATION_LAYER_ASSIGNMENT (  '', '', ( #266 ) ) ;
#91 = COLOUR_RGB ( '',1.000000000000000000, 0.000000000000000000, 0.000000000000000000 ) ;
#92 = LENGTH_MEASURE_WITH_UNIT ( LENGTH_MEASURE( 0.02539999999999999897 ), #35 );
#93 = PRODUCT ( '81418', '81418', '', ( #99 ) ) ;
#94 = MANIFOLD_SOLID_BREP ( 'Revolve - Cutting Edge', #195 ) ;
#95 = EDGE_CURVE ( 'NONE', #232, #40, #32, .T. ) ;
#96 = DIRECTION ( 'NONE',  ( -0.000000000000000000, -1.000000000000000000, -0.000000000000000000 ) ) ;
#97 = AXIS2_PLACEMENT_3D ( 'NONE', #80, #96, #125 ) ;
#98 = CYLINDRICAL_SURFACE ( 'NONE', #83, 0.3750000000000000555 ) ;
#99 = PRODUCT_CONTEXT ( 'NONE', #127, 'mechanical' ) ;
#100 = VERTEX_POINT ( 'NONE', #188 ) ;
#101 = LENGTH_MEASURE_WITH_UNIT ( LENGTH_MEASURE( 0.02539999999999999897 ), #75 );
#102 = AXIS2_PLACEMENT_3D ( 'NONE', #278, #109, #69 ) ;
#103 = CYLINDRICAL_SURFACE ( 'NONE', #102, 0.3750000000000001665 ) ;
#104 = EDGE_CURVE ( 'NONE', #235, #100, #161, .T. ) ;
#105 = DIRECTION ( 'NONE',  ( -1.088574932575424895E-16, 1.000000000000000000, -0.000000000000000000 ) ) ;
#106 = CARTESIAN_POINT ( 'NONE',  ( -2.449293598294705921E-16, 5.000000000000000000, 0.000000000000000000 ) ) ;
#107 = DIRECTION ( 'NONE',  ( -1.088574932575424772E-16, 1.000000000000000000, -0.000000000000000000 ) ) ;
#108 = PLANE ( 'NONE',  #231 ) ;
#109 = DIRECTION ( 'NONE',  ( -1.088574932575424772E-16, 1.000000000000000000, -0.000000000000000000 ) ) ;
#110 = VERTEX_POINT ( 'NONE', #167 ) ;
#111 = EDGE_CURVE ( 'NONE', #5, #74, #115, .T. ) ;
#112 = CARTESIAN_POINT ( 'NONE',  ( 0.000000000000000000, 0.000000000000000000, -0.3750000000000000555 ) ) ;
#113 = DIRECTION ( 'NONE',  ( -1.000000000000000000, -1.088574932575424895E-16, 0.000000000000000000 ) ) ;
#114 = ORIENTED_EDGE ( 'NONE', *, *, #25, .T. ) ;
#115 = LINE ( 'NONE', #112, #236 ) ;
#116 = DIMENSIONAL_EXPONENTS ( 1.000000000000000000, 0.000000000000000000, 0.000000000000000000, 0.000000000000000000, 0.000000000000000000, 0.000000000000000000, 0.000000000000000000 ) ;
#117 = CARTESIAN_POINT ( 'NONE',  ( 0.3750000000000000555, 5.000000000000000000, 4.592425496802577300E-17 ) ) ;
#118 = EDGE_LOOP ( 'NONE', ( #170, #244 ) ) ;
#119 = STYLED_ITEM ( 'NONE', ( #10 ), #183 ) ;
#120 = FACE_OUTER_BOUND ( 'NONE', #197, .T. ) ;
#121 = COLOUR_RGB ( '',1.000000000000000000, 0.000000000000000000, 0.000000000000000000 ) ;
#122 = CARTESIAN_POINT ( 'NONE',  ( 0.000000000000000000, 0.000000000000000000, 0.000000000000000000 ) ) ;
#123 = ADVANCED_FACE ( 'NONE', ( #174 ), #14, .F. ) ;
#124 = ORIENTED_EDGE ( 'NONE', *, *, #104, .F. ) ;
#125 = DIRECTION ( 'NONE',  ( 0.000000000000000000, 0.000000000000000000, -1.000000000000000000 ) ) ;
#126 = SURFACE_STYLE_USAGE ( .BOTH. , #181 ) ;
#127 = APPLICATION_CONTEXT ( 'automotive_design' ) ;
#128 = AXIS2_PLACEMENT_3D ( 'NONE', #182, #55, #290 ) ;
#129 = ORIENTED_EDGE ( 'NONE', *, *, #133, .F. ) ;
#130 = AXIS2_PLACEMENT_3D ( 'NONE', #272, #41, #12 ) ;
#131 = CARTESIAN_POINT ( 'NONE',  ( -0.3750000000000004441, 5.000000000000000000, 0.000000000000000000 ) ) ;
#132 = FACE_OUTER_BOUND ( 'NONE', #201, .T. ) ;
#133 = EDGE_CURVE ( 'NONE', #40, #235, #16, .T. ) ;
#134 = ADVANCED_FACE ( 'NONE', ( #120 ), #151, .T. ) ;
#135 = STYLED_ITEM ( 'NONE', ( #233 ), #94 ) ;
#136 = DIRECTION ( 'NONE',  ( -0.000000000000000000, -1.000000000000000000, -0.000000000000000000 ) ) ;
#137 = DIRECTION ( 'NONE',  ( -0.000000000000000000, -1.000000000000000000, -0.000000000000000000 ) ) ;
#138 =( NAMED_UNIT ( * ) SI_UNIT ( $, .STERADIAN. ) SOLID_ANGLE_UNIT ( ) );
#139 = CARTESIAN_POINT ( 'NONE',  ( 2.221866344684232429E-33, 2.750000000000000000, 0.000000000000000000 ) ) ;
#140 = MECHANICAL_DESIGN_GEOMETRIC_PRESENTATION_REPRESENTATION (  '', ( #21 ), #17 ) ;
#141 = STYLED_ITEM ( 'NONE', ( #33 ), #134 ) ;
#142 = DIRECTION ( 'NONE',  ( 1.088574932575424895E-16, -1.000000000000000000, 0.000000000000000000 ) ) ;
#143 = PRODUCT_RELATED_PRODUCT_CATEGORY ( 'part', '', ( #93 ) ) ;
#144 = VERTEX_POINT ( 'NONE', #6 ) ;
#145 = DIRECTION ( 'NONE',  ( -0.000000000000000000, -1.000000000000000000, -0.000000000000000000 ) ) ;
#146 = DIMENSIONAL_EXPONENTS ( 1.000000000000000000, 0.000000000000000000, 0.000000000000000000, 0.000000000000000000, 0.000000000000000000, 0.000000000000000000, 0.000000000000000000 ) ;
#147 = CIRCLE ( 'NONE', #128, 0.3750000000000000555 ) ;
#148 = AXIS2_PLACEMENT_3D ( 'NONE', #269, #136, #202 ) ;
#149 = VECTOR ( 'NONE', #105, 39.37007874015748143 ) ;
#150 = ORIENTED_EDGE ( 'NONE', *, *, #45, .F. ) ;
#151 = PLANE ( 'NONE',  #65 ) ;
#152 = UNCERTAINTY_MEASURE_WITH_UNIT (LENGTH_MEASURE( 1.000000000000000082E-05 ), #13, 'distance_accuracy_value', 'NONE');
#153 = PRESENTATION_LAYER_ASSIGNMENT (  '', '', ( #141 ) ) ;
#154 = LENGTH_MEASURE_WITH_UNIT ( LENGTH_MEASURE( 0.02539999999999999897 ), #288 );
#155 = COLOUR_RGB ( '',0.7921568627450980005, 0.8196078431372548767, 0.9333333333333333481 ) ;
#156 = CARTESIAN_POINT ( 'NONE',  ( 0.3750000000000000555, 2.750000000000000000, 4.592425496802577300E-17 ) ) ;
#157 =( CONVERSION_BASED_UNIT ( 'INCH', #101 ) LENGTH_UNIT ( ) NAMED_UNIT ( #89 ) );
#158 = UNCERTAINTY_MEASURE_WITH_UNIT (LENGTH_MEASURE( 1.000000000000000082E-05 ), #302, 'distance_accuracy_value', 'NONE');
#159 =( NAMED_UNIT ( * ) SI_UNIT ( $, .STERADIAN. ) SOLID_ANGLE_UNIT ( ) );
#160 = LENGTH_MEASURE_WITH_UNIT ( LENGTH_MEASURE( 0.02539999999999999897 ), #64 );
#161 = CIRCLE ( 'NONE', #130, 0.3750000000000002776 ) ;
#162 =( NAMED_UNIT ( * ) SI_UNIT ( $, .STERADIAN. ) SOLID_ANGLE_UNIT ( ) );
#163 = CARTESIAN_POINT ( 'NONE',  ( 0.000000000000000000, 2.750000000000000000, 0.000000000000000000 ) ) ;
#164 = CYLINDRICAL_SURFACE ( 'NONE', #225, 0.3750000000000001665 ) ;
#165 = ORIENTED_EDGE ( 'NONE', *, *, #78, .T. ) ;
#166 = FACE_OUTER_BOUND ( 'NONE', #51, .T. ) ;
#167 = CARTESIAN_POINT ( 'NONE',  ( 4.592425496802575451E-17, 2.750000000000000000, 0.3750000000000000555 ) ) ;
#168 = DIRECTION ( 'NONE',  ( 1.000000000000000000, 1.088574932575424895E-16, 0.000000000000000000 ) ) ;
#169 = FILL_AREA_STYLE_COLOUR ( '', #241 ) ;
#170 = ORIENTED_EDGE ( 'NONE', *, *, #205, .F. ) ;
#171 = FILL_AREA_STYLE_COLOUR ( '', #155 ) ;
#172 = EDGE_LOOP ( 'NONE', ( #43, #210, #87, #150 ) ) ;
#173 = CIRCLE ( 'NONE', #175, 0.3750000000000000555 ) ;
#174 = FACE_OUTER_BOUND ( 'NONE', #277, .T. ) ;
#175 = AXIS2_PLACEMENT_3D ( 'NONE', #68, #48, #279 ) ;
#176 = PRODUCT_DEFINITION_SHAPE ( 'NONE', 'NONE',  #228 ) ;
#177 =( CONVERSION_BASED_UNIT ( 'INCH', #23 ) LENGTH_UNIT ( ) NAMED_UNIT ( #146 ) );
#178 = SHAPE_DEFINITION_REPRESENTATION ( #176, #275 ) ;
#179 = SURFACE_STYLE_FILL_AREA ( #61 ) ;
#180 =( GEOMETRIC_REPRESENTATION_CONTEXT ( 3 ) GLOBAL_UNCERTAINTY_ASSIGNED_CONTEXT ( ( #152 ) ) GLOBAL_UNIT_ASSIGNED_CONTEXT ( ( #13, #189, #194 ) ) REPRESENTATION_CONTEXT ( 'NONE', 'WORKASPACE' ) );
#181 = SURFACE_SIDE_STYLE ('',( #58 ) ) ;
#182 = CARTESIAN_POINT ( 'NONE',  ( 3.032960542342103792E-32, 2.750000000000000000, 0.000000000000000000 ) ) ;
#183 = ADVANCED_FACE ( 'NONE', ( #245 ), #82, .T. ) ;
#184 = FILL_AREA_STYLE_COLOUR ( '', #56 ) ;
#185 = DIRECTION ( 'NONE',  ( -0.000000000000000000, -1.000000000000000000, -0.000000000000000000 ) ) ;
#186 = VECTOR ( 'NONE', #285, 39.37007874015748143 ) ;
#187 = CIRCLE ( 'NONE', #226, 0.3750000000000000555 ) ;
#188 = CARTESIAN_POINT ( 'NONE',  ( -0.3750000000000005551, 5.000000000000000000, 0.000000000000000000 ) ) ;
#189 =( NAMED_UNIT ( * ) PLANE_ANGLE_UNIT ( ) SI_UNIT ( $, .RADIAN. ) );
#190 = MECHANICAL_DESIGN_GEOMETRIC_PRESENTATION_REPRESENTATION (  '', ( #119 ), #9 ) ;
#191 = ADVANCED_FACE ( 'NONE', ( #166 ), #108, .F. ) ;
#192 = FACE_OUTER_BOUND ( 'NONE', #238, .T. ) ;
#193 = FACE_OUTER_BOUND ( 'NONE', #172, .T. ) ;
#194 =( NAMED_UNIT ( * ) SI_UNIT ( $, .STERADIAN. ) SOLID_ANGLE_UNIT ( ) );
#195 = CLOSED_SHELL ( 'NONE', ( #37, #183, #242, #134 ) ) ;
#196 = DIRECTION ( 'NONE',  ( -1.088574932575424772E-16, 1.000000000000000000, -0.000000000000000000 ) ) ;
#197 = EDGE_LOOP ( 'NONE', ( #305, #72 ) ) ;
#198 = CARTESIAN_POINT ( 'NONE',  ( 0.3749999999999998890, 5.000000000000000000, 4.592425496802576684E-17 ) ) ;
#199 = AXIS2_PLACEMENT_3D ( 'NONE', #273, #142, #168 ) ;
#200 = CIRCLE ( 'NONE', #1, 0.3750000000000002776 ) ;
#201 = EDGE_LOOP ( 'NONE', ( #129, #114, #301, #124 ) ) ;
#202 = DIRECTION ( 'NONE',  ( 0.000000000000000000, 0.000000000000000000, -1.000000000000000000 ) ) ;
#203 = SURFACE_SIDE_STYLE ('',( #267 ) ) ;
#204 = PRESENTATION_STYLE_ASSIGNMENT (( #297 ) ) ;
#205 = EDGE_CURVE ( 'NONE', #5, #110, #308, .T. ) ;
#206 = DIRECTION ( 'NONE',  ( -1.088574932575424895E-16, 1.000000000000000000, 0.000000000000000000 ) ) ;
#207 = ORIENTED_EDGE ( 'NONE', *, *, #289, .F. ) ;
#208 = LENGTH_MEASURE_WITH_UNIT ( LENGTH_MEASURE( 0.02539999999999999897 ), #255 );
#209 = DIMENSIONAL_EXPONENTS ( 1.000000000000000000, 0.000000000000000000, 0.000000000000000000, 0.000000000000000000, 0.000000000000000000, 0.000000000000000000, 0.000000000000000000 ) ;
#210 = ORIENTED_EDGE ( 'NONE', *, *, #133, .T. ) ;
#211 = AXIS2_PLACEMENT_3D ( 'NONE', #251, #300, #86 ) ;
#212 = AXIS2_PLACEMENT_3D ( 'NONE', #303, #107, #256 ) ;
#213 = ORIENTED_EDGE ( 'NONE', *, *, #111, .T. ) ;
#214 = SURFACE_SIDE_STYLE ('',( #179 ) ) ;
#215 = SURFACE_SIDE_STYLE ('',( #49 ) ) ;
#216 = UNCERTAINTY_MEASURE_WITH_UNIT (LENGTH_MEASURE( 1.000000000000000082E-05 ), #292, 'distance_accuracy_value', 'NONE');
#217 = PRESENTATION_STYLE_ASSIGNMENT (( #19 ) ) ;
#218 = FACE_OUTER_BOUND ( 'NONE', #307, .T. ) ;
#219 = CARTESIAN_POINT ( 'NONE',  ( 0.000000000000000000, 0.000000000000000000, 0.000000000000000000 ) ) ;
#220 = ORIENTED_EDGE ( 'NONE', *, *, #289, .T. ) ;
#221 = CARTESIAN_POINT ( 'NONE',  ( 0.000000000000000000, 0.000000000000000000, 0.000000000000000000 ) ) ;
#222 = CARTESIAN_POINT ( 'NONE',  ( 0.000000000000000000, 0.000000000000000000, 0.000000000000000000 ) ) ;
#223 = SURFACE_STYLE_FILL_AREA ( #271 ) ;
#224 = DIRECTION ( 'NONE',  ( -1.000000000000000000, 0.000000000000000000, 0.000000000000000000 ) ) ;
#225 = AXIS2_PLACEMENT_3D ( 'NONE', #106, #248, #224 ) ;
#226 = AXIS2_PLACEMENT_3D ( 'NONE', #122, #57, #20 ) ;
#227 = UNCERTAINTY_MEASURE_WITH_UNIT (LENGTH_MEASURE( 1.000000000000000082E-05 ), #177, 'distance_accuracy_value', 'NONE');
#228 = PRODUCT_DEFINITION ( 'UNKNOWN', '', #293, #28 ) ;
#229 =( NAMED_UNIT ( * ) PLANE_ANGLE_UNIT ( ) SI_UNIT ( $, .RADIAN. ) );
#230 = SURFACE_STYLE_USAGE ( .BOTH. , #44 ) ;
#231 = AXIS2_PLACEMENT_3D ( 'NONE', #139, #206, #113 ) ;
#232 = VERTEX_POINT ( 'NONE', #274 ) ;
#233 = PRESENTATION_STYLE_ASSIGNMENT (( #230 ) ) ;
#234 = DIMENSIONAL_EXPONENTS ( 1.000000000000000000, 0.000000000000000000, 0.000000000000000000, 0.000000000000000000, 0.000000000000000000, 0.000000000000000000, 0.000000000000000000 ) ;
#235 = VERTEX_POINT ( 'NONE', #117 ) ;
#236 = VECTOR ( 'NONE', #145, 39.37007874015748143 ) ;
#237 =( NAMED_UNIT ( * ) PLANE_ANGLE_UNIT ( ) SI_UNIT ( $, .RADIAN. ) );
#238 = EDGE_LOOP ( 'NONE', ( #207, #165, #213, #283 ) ) ;
#239 = FILL_AREA_STYLE_COLOUR ( '', #265 ) ;
#240 = FILL_AREA_STYLE_COLOUR ( '', #91 ) ;
#241 = COLOUR_RGB ( '',1.000000000000000000, 0.000000000000000000, 0.000000000000000000 ) ;
#242 = ADVANCED_FACE ( 'NONE', ( #192 ), #36, .T. ) ;
#243 =( CONVERSION_BASED_UNIT ( 'INCH', #154 ) LENGTH_UNIT ( ) NAMED_UNIT ( #46 ) );
#244 = ORIENTED_EDGE ( 'NONE', *, *, #78, .F. ) ;
#245 = FACE_OUTER_BOUND ( 'NONE', #118, .T. ) ;
#246 =( LENGTH_UNIT ( ) NAMED_UNIT ( * ) SI_UNIT ( $, .METRE. ) );
#247 = DIRECTION ( 'NONE',  ( 0.000000000000000000, 1.000000000000000000, 0.000000000000000000 ) ) ;
#248 = DIRECTION ( 'NONE',  ( -1.088574932575424772E-16, 1.000000000000000000, -0.000000000000000000 ) ) ;
#249 = ORIENTED_EDGE ( 'NONE', *, *, #205, .T. ) ;
#250 = FILL_AREA_STYLE ('',( #171 ) ) ;
#251 = CARTESIAN_POINT ( 'NONE',  ( 0.000000000000000000, 2.750000000000000000, 0.000000000000000000 ) ) ;
#252 =( NAMED_UNIT ( * ) SI_UNIT ( $, .STERADIAN. ) SOLID_ANGLE_UNIT ( ) );
#253 = ORIENTED_EDGE ( 'NONE', *, *, #111, .F. ) ;
#254 = FILL_AREA_STYLE ('',( #169 ) ) ;
#255 =( LENGTH_UNIT ( ) NAMED_UNIT ( * ) SI_UNIT ( $, .METRE. ) );
#256 = DIRECTION ( 'NONE',  ( -1.000000000000000000, 0.000000000000000000, 0.000000000000000000 ) ) ;
#257 =( NAMED_UNIT ( * ) PLANE_ANGLE_UNIT ( ) SI_UNIT ( $, .RADIAN. ) );
#258 = ORIENTED_EDGE ( 'NONE', *, *, #104, .T. ) ;
#259 = AXIS2_PLACEMENT_3D ( 'NONE', #219, #4, #24 ) ;
#260 = PRESENTATION_LAYER_ASSIGNMENT (  '', '', ( #135 ) ) ;
#261 = ORIENTED_EDGE ( 'NONE', *, *, #95, .F. ) ;
#262 =( GEOMETRIC_REPRESENTATION_CONTEXT ( 3 ) GLOBAL_UNCERTAINTY_ASSIGNED_CONTEXT ( ( #158 ) ) GLOBAL_UNIT_ASSIGNED_CONTEXT ( ( #302, #47, #60 ) ) REPRESENTATION_CONTEXT ( 'NONE', 'WORKASPACE' ) );
#263 =( GEOMETRIC_REPRESENTATION_CONTEXT ( 3 ) GLOBAL_UNCERTAINTY_ASSIGNED_CONTEXT ( ( #63 ) ) GLOBAL_UNIT_ASSIGNED_CONTEXT ( ( #243, #229, #27 ) ) REPRESENTATION_CONTEXT ( 'NONE', 'WORKASPACE' ) );
#264 = UNCERTAINTY_MEASURE_WITH_UNIT (LENGTH_MEASURE( 1.000000000000000082E-05 ), #39, 'distance_accuracy_value', 'NONE');
#265 = COLOUR_RGB ( '',1.000000000000000000, 0.000000000000000000, 0.000000000000000000 ) ;
#266 = STYLED_ITEM ( 'NONE', ( #204 ), #291 ) ;
#267 = SURFACE_STYLE_FILL_AREA ( #84 ) ;
#268 = SURFACE_STYLE_USAGE ( .BOTH. , #296 ) ;
#269 = CARTESIAN_POINT ( 'NONE',  ( 0.000000000000000000, 0.000000000000000000, 0.000000000000000000 ) ) ;
#270 = CIRCLE ( 'NONE', #97, 0.3750000000000000555 ) ;
#271 = FILL_AREA_STYLE ('',( #30 ) ) ;
#272 = CARTESIAN_POINT ( 'NONE',  ( -2.449293598294705921E-16, 5.000000000000000000, 0.000000000000000000 ) ) ;
#273 = CARTESIAN_POINT ( 'NONE',  ( 0.3750000000000000555, 5.000000000000000000, 0.000000000000000000 ) ) ;
#274 = CARTESIAN_POINT ( 'NONE',  ( -0.3750000000000000555, 2.750000000000000000, 0.000000000000000000 ) ) ;
#275 = ADVANCED_BREP_SHAPE_REPRESENTATION ( '81418', ( #94, #291, #259 ), #262 ) ;
#276 = LENGTH_MEASURE_WITH_UNIT ( LENGTH_MEASURE( 0.02539999999999999897 ), #246 );
#277 = EDGE_LOOP ( 'NONE', ( #18, #258 ) ) ;
#278 = CARTESIAN_POINT ( 'NONE',  ( -2.449293598294705921E-16, 5.000000000000000000, 0.000000000000000000 ) ) ;
#279 = DIRECTION ( 'NONE',  ( 0.000000000000000000, 0.000000000000000000, -1.000000000000000000 ) ) ;
#280 = ADVANCED_FACE ( 'NONE', ( #132 ), #164, .T. ) ;
#281 = PRESENTATION_LAYER_ASSIGNMENT (  '', '', ( #85 ) ) ;
#282 = APPLICATION_PROTOCOL_DEFINITION ( 'draft international standard', 'automotive_design', 1998, #67 ) ;
#283 = ORIENTED_EDGE ( 'NONE', *, *, #34, .F. ) ;
#284 = PRESENTATION_STYLE_ASSIGNMENT (( #309 ) ) ;
#285 = DIRECTION ( 'NONE',  ( -1.088574932575424895E-16, 1.000000000000000000, -0.000000000000000000 ) ) ;
#286 = CARTESIAN_POINT ( 'NONE',  ( -2.449293598294705921E-16, 5.000000000000000000, 0.000000000000000000 ) ) ;
#287 = FILL_AREA_STYLE ('',( #239 ) ) ;
#288 =( LENGTH_UNIT ( ) NAMED_UNIT ( * ) SI_UNIT ( $, .METRE. ) );
#289 = EDGE_CURVE ( 'NONE', #110, #144, #294, .T. ) ;
#290 = DIRECTION ( 'NONE',  ( -1.000000000000000000, 0.000000000000000000, 0.000000000000000000 ) ) ;
#291 = MANIFOLD_SOLID_BREP ( 'Revolve - Tool Body (Straight Shanked)', #62 ) ;
#292 =( CONVERSION_BASED_UNIT ( 'INCH', #160 ) LENGTH_UNIT ( ) NAMED_UNIT ( #116 ) );
#293 = PRODUCT_DEFINITION_FORMATION_WITH_SPECIFIED_SOURCE ( 'ANY', '', #93, .NOT_KNOWN. ) ;
#294 = LINE ( 'NONE', #81, #26 ) ;
#295 = LINE ( 'NONE', #131, #149 ) ;
#296 = SURFACE_SIDE_STYLE ('',( #223 ) ) ;
#297 = SURFACE_STYLE_USAGE ( .BOTH. , #203 ) ;
#298 = DIRECTION ( 'NONE',  ( 0.000000000000000000, 0.000000000000000000, -1.000000000000000000 ) ) ;
#299 = MECHANICAL_DESIGN_GEOMETRIC_PRESENTATION_REPRESENTATION (  '', ( #85 ), #263 ) ;
#300 = DIRECTION ( 'NONE',  ( -0.000000000000000000, -1.000000000000000000, -0.000000000000000000 ) ) ;
#301 = ORIENTED_EDGE ( 'NONE', *, *, #45, .T. ) ;
#302 =( CONVERSION_BASED_UNIT ( 'INCH', #208 ) LENGTH_UNIT ( ) NAMED_UNIT ( #234 ) );
#303 = CARTESIAN_POINT ( 'NONE',  ( 3.032960542342103792E-32, 2.750000000000000000, 0.000000000000000000 ) ) ;
#304 = ADVANCED_FACE ( 'NONE', ( #193 ), #103, .T. ) ;
#305 = ORIENTED_EDGE ( 'NONE', *, *, #15, .T. ) ;
#306 =( NAMED_UNIT ( * ) PLANE_ANGLE_UNIT ( ) SI_UNIT ( $, .RADIAN. ) );
#307 = EDGE_LOOP ( 'NONE', ( #249, #220, #70, #253 ) ) ;
#308 = CIRCLE ( 'NONE', #211, 0.3750000000000000555 ) ;
#309 = SURFACE_STYLE_USAGE ( .BOTH. , #214 ) ;
ENDSEC;
END-ISO-10303-21;
